999
DXF file: K:\Client\125_Heirloom\001\00\Final_Data\Drawings\BASINS\loft-361110_3.dxf
999
Pro/ENGINEER 2017110 by Parametric Technology Corporation
  0
SECTION
  2
HEADER
  9
$EXTMAX
 10
420.0
 20
297.0
 30
0.0
  9
$EXTMIN
 10
0.0
 20
0.0
 30
0.0
  9
$LIMMIN
 10
0.0
 20
0.0
  9
$LIMMAX
 10
420.0
 20
297.0
  9
$VIEWCTR
 10
210.0
 20
148.5
  9
$VIEWSIZE
 40
297.0
  9
$CLAYER
  8
0
  9
$LTSCALE
 40
23.1
  9
$CELTYPE
  6
BYLAYER
  9
$DIMSCALE
 40
1.0
  9
$DIMASZ
 40
3.0
  9
$DIMEXO
 40
1.0
  9
$DIMDLI
 40
15.96
  9
$DIMEXE
 40
1.0
  9
$DIMCEN
 40
3.78
  9
$DIMLFAC
 40
1.0
  9
$DIMBLK
  1
_FILLED
  9
$DIMALT
 70
0
  9
$DIMALTF
 40
0.0393700787
  9
$DIMTXT
 40
3.0
  9
$AUNITS
 70
0
  9
$PDMODE
 70
3
  9
$PDSIZE
 40
5.0
  9
$TILEMODE
 70
1
  0
ENDSEC
  0
SECTION
  2
TABLES
  0
TABLE
  2
LTYPE
 70
6
  0
LTYPE
  2
BYBLOCK
 70
0
  3

 72
65
 73
0
 40
0.0
  0
LTYPE
  2
BYLAYER
 70
0
  3

 72
65
 73
0
 40
0.0
  0
LTYPE
  2
CONTINUOUS
 70
64
  3
Solid line
 72
65
 73
0
 40
0.0
  0
LTYPE
  2
CENTER
 70
64
  3
____ _ ____ _ ____ _ ____ _ ____ _ ____ _ ____
 72
65
 73
4
 40
0.6
 49
0.375
 49
-0.075
 49
0.075
 49
-0.075
  0
LTYPE
  2
HIDDEN
 70
64
  3
- - - - - - - - - - - - - - - - - - - -
 72
65
 73
2
 40
0.2
 49
0.1
 49
-0.1
  0
LTYPE
  2
PHANTOM
 70
64
  3
_____ _ _ _____ _ _ _____ _ _ _____
 72
65
 73
6
 40
0.8
 49
0.45
 49
-0.05
 49
0.1
 49
-0.05
 49
0.1
 49
-0.05
  0
LTYPE
  2
DOT
 70
64
  3
. . . . . . . . . . . . . . . . . . . .
 72
65
 73
2
 40
0.2
 49
0.1
 49
-0.1
  0
LTYPE
  2
DASHED
 70
64
  3
- - - - - - - - - - - - - - - - - - - -
 72
65
 73
2
 40
0.2
 49
0.1
 49
-0.1
  0
ENDTAB
  0
TABLE
  2
LAYER
 70
36
  0
LAYER
  2
0
 70
0
 62
7
  6
CONTINUOUS
  0
LAYER
  2
DEFAULT_1
 70
0
 62
7
  6
CENTER
  0
LAYER
  2
DEFAULT_2
 70
0
 62
8
  6
HIDDEN
  0
LAYER
  2
DEFAULT_3
 70
0
 62
7
  6
PHANTOM
  0
LAYER
  2
0000_BOM
 70
0
 62
7
  6
CONTINUOUS
  0
LAYER
  2
0000_REV_TABLE
 70
0
 62
7
  6
CONTINUOUS
  0
LAYER
  2
0000_STEVENS_NOTE
 70
0
 62
7
  6
CONTINUOUS
  0
LAYER
  2
01_DATUM_PLANES
 70
0
 62
7
  6
CONTINUOUS
  0
LAYER
  2
01_DEF_PLANES
 70
0
 62
7
  6
CONTINUOUS
  0
LAYER
  2
02_DATUM_COS
 70
0
 62
7
  6
CONTINUOUS
  0
LAYER
  2
90_IMP_FEAT
 70
0
 62
7
  6
CONTINUOUS
  0
LAYER
  2
95_STL
 70
0
 62
7
  6
CONTINUOUS
  0
LAYER
  2
99_SOLID
 70
0
 62
7
  6
CONTINUOUS
  0
LAYER
  2
CAD-MASTER_ZINC-PL
 70
0
 62
7
  6
CONTINUOUS
  0
LAYER
  2
CURVE
 70
0
 62
7
  6
CONTINUOUS
  0
LAYER
  2
SKEL
 70
0
 62
7
  6
CONTINUOUS
  0
LAYER
  2
SKETCH
 70
0
 62
7
  6
CONTINUOUS
  0
LAYER
  2
SURFACE
 70
0
 62
7
  6
CONTINUOUS
  0
ENDTAB
  0
TABLE
  2
STYLE
 70
1
  0
STYLE
  2
STANDARD
 70
0
 40
0.0
 41
0.75
 50
0.0
 71
0
 42
0.2
  3
txt
  4

  0
STYLE
  2
TEXTSTYLE_1
 70
0
 40
0.0
 41
0.8
 50
0.0
 71
0
 42
0.2
  3
gdt
  4

  0
ENDTAB
  0
ENDSEC
  0
SECTION
  2
BLOCKS
  0
ENDSEC
  0
SECTION
  2
ENTITIES
  0
POLYLINE
  8
0
 62
7
  6
CONTINUOUS
 66
1
 70
0
  0
VERTEX
  8
0
 62
7
  6
CONTINUOUS
 10
7.0663018059
 20
100.4620353322
  0
VERTEX
  8
0
 62
7
  6
CONTINUOUS
 10
7.0678268376
 20
100.4591494136
  0
VERTEX
  8
0
 62
7
  6
CONTINUOUS
 10
7.1326118232
 20
100.4431699379
  0
VERTEX
  8
0
 62
7
  6
CONTINUOUS
 10
7.2837162642
 20
100.4284419734
  0
VERTEX
  8
0
 62
7
  6
CONTINUOUS
 10
7.5158761807
 20
100.414896778
  0
VERTEX
  8
0
 62
7
  6
CONTINUOUS
 10
7.831094817
 20
100.402582812
  0
VERTEX
  8
0
 62
7
  6
CONTINUOUS
 10
8.2225691762
 20
100.3920528834
  0
VERTEX
  8
0
 62
7
  6
CONTINUOUS
 10
8.681763132
 20
100.3837514468
  0
VERTEX
  8
0
 62
7
  6
CONTINUOUS
 10
9.1963943116
 20
100.3780958239
  0
VERTEX
  8
0
 62
7
  6
CONTINUOUS
 10
9.7529208185
 20
100.3754338691
  0
VERTEX
  8
0
 62
7
  6
CONTINUOUS
 10
10.3146160911
 20
100.3759929168
  0
SEQEND
  0
POLYLINE
  8
0
 62
7
  6
CONTINUOUS
 66
1
 70
0
  0
VERTEX
  8
0
 62
7
  6
CONTINUOUS
 10
20.1179490314
 20
53.3437863476
  0
VERTEX
  8
0
 62
7
  6
CONTINUOUS
 10
23.6683674301
 20
46.2442696041
  0
VERTEX
  8
0
 62
7
  6
CONTINUOUS
 10
27.6928842628
 20
39.4501058502
  0
VERTEX
  8
0
 62
7
  6
CONTINUOUS
 10
32.2078017614
 20
32.9435648224
  0
VERTEX
  8
0
 62
7
  6
CONTINUOUS
 10
37.1650474862
 20
26.7788572193
  0
VERTEX
  8
0
 62
7
  6
CONTINUOUS
 10
42.5182886576
 20
21.0067501578
  0
VERTEX
  8
0
 62
7
  6
CONTINUOUS
 10
48.278362809
 20
15.6195437201
  0
VERTEX
  8
0
 62
7
  6
CONTINUOUS
 10
54.4669383451
 20
10.6047936811
  0
VERTEX
  8
0
 62
7
  6
CONTINUOUS
 10
61.0049174953
 20
6.0271670867
  0
VERTEX
  8
0
 62
7
  6
CONTINUOUS
 10
67.8199598452
 20
1.9478214347
  0
VERTEX
  8
0
 62
7
  6
CONTINUOUS
 10
74.9131538549
 20
-1.6355352452
  0
VERTEX
  8
0
 62
7
  6
CONTINUOUS
 10
82.258588388
 20
-4.7025571369
  0
VERTEX
  8
0
 62
7
  6
CONTINUOUS
 10
89.8646966459
 20
-7.2602753855
  0
SEQEND
  0
POLYLINE
  8
0
 62
7
  6
CONTINUOUS
 66
1
 70
0
  0
VERTEX
  8
0
 62
7
  6
CONTINUOUS
 10
8.197170719
 20
84.5427470134
  0
VERTEX
  8
0
 62
7
  6
CONTINUOUS
 10
9.0643538305
 20
78.8457328195
  0
VERTEX
  8
0
 62
7
  6
CONTINUOUS
 10
10.3277393669
 20
72.5892667696
  0
VERTEX
  8
0
 62
7
  6
CONTINUOUS
 10
11.8523630735
 20
66.6820917233
  0
VERTEX
  8
0
 62
7
  6
CONTINUOUS
 10
13.6075294014
 20
61.1233596454
  0
VERTEX
  8
0
 62
7
  6
CONTINUOUS
 10
15.5541865734
 20
55.9278394141
  0
VERTEX
  8
0
 62
7
  6
CONTINUOUS
 10
17.2447598306
 20
51.9924826105
  0
SEQEND
  0
POLYLINE
  8
0
 62
7
  6
CONTINUOUS
 66
1
 70
0
  0
VERTEX
  8
0
 62
7
  6
CONTINUOUS
 10
11.3913372896
 20
84.8836502839
  0
VERTEX
  8
0
 62
7
  6
CONTINUOUS
 10
12.2700425313
 20
79.097229799
  0
VERTEX
  8
0
 62
7
  6
CONTINUOUS
 10
13.3849366551
 20
73.5186025873
  0
VERTEX
  8
0
 62
7
  6
CONTINUOUS
 10
14.7415227888
 20
68.1438778734
  0
VERTEX
  8
0
 62
7
  6
CONTINUOUS
 10
16.3232250363
 20
62.984646672
  0
VERTEX
  8
0
 62
7
  6
CONTINUOUS
 10
18.1135068281
 20
58.0525480757
  0
VERTEX
  8
0
 62
7
  6
CONTINUOUS
 10
20.1179490314
 20
53.3437863476
  0
SEQEND
  0
POLYLINE
  8
0
 62
7
  6
CONTINUOUS
 66
1
 70
0
  0
VERTEX
  8
0
 62
7
  6
CONTINUOUS
 10
10.3145732825
 20
100.3759364713
  0
VERTEX
  8
0
 62
7
  6
CONTINUOUS
 10
10.3454408563
 20
97.9158211975
  0
VERTEX
  8
0
 62
7
  6
CONTINUOUS
 10
10.4365480367
 20
95.4066605862
  0
VERTEX
  8
0
 62
7
  6
CONTINUOUS
 10
10.5886248174
 20
92.8481721192
  0
VERTEX
  8
0
 62
7
  6
CONTINUOUS
 10
10.7994422417
 20
90.2411557024
  0
VERTEX
  8
0
 62
7
  6
CONTINUOUS
 10
11.0667705994
 20
87.5864103207
  0
VERTEX
  8
0
 62
7
  6
CONTINUOUS
 10
11.3913372896
 20
84.8836502839
  0
SEQEND
  0
POLYLINE
  8
0
 62
7
  6
CONTINUOUS
 66
1
 70
0
  0
VERTEX
  8
0
 62
7
  6
CONTINUOUS
 10
7.0663018108
 20
100.4620434178
  0
VERTEX
  8
0
 62
7
  6
CONTINUOUS
 10
7.0836969082
 20
98.7387551313
  0
VERTEX
  8
0
 62
7
  6
CONTINUOUS
 10
7.1723018826
 20
95.9749667121
  0
VERTEX
  8
0
 62
7
  6
CONTINUOUS
 10
7.3391890903
 20
93.074026402
  0
VERTEX
  8
0
 62
7
  6
CONTINUOUS
 10
7.584818807
 20
90.0384734697
  0
VERTEX
  8
0
 62
7
  6
CONTINUOUS
 10
7.9136107192
 20
86.8715730247
  0
VERTEX
  8
0
 62
7
  6
CONTINUOUS
 10
8.2004846374
 20
84.5431226799
  0
SEQEND
  0
POLYLINE
  8
0
 62
7
  6
CONTINUOUS
 66
1
 70
0
  0
VERTEX
  8
0
 62
7
  6
CONTINUOUS
 10
10.3243567557
 20
102.9382245682
  0
VERTEX
  8
0
 62
7
  6
CONTINUOUS
 10
10.3190038029
 20
102.0835803948
  0
VERTEX
  8
0
 62
7
  6
CONTINUOUS
 10
10.3157686149
 20
101.2294849336
  0
VERTEX
  8
0
 62
7
  6
CONTINUOUS
 10
10.3145732825
 20
100.3759364713
  0
SEQEND
  0
POLYLINE
  8
0
 62
7
  6
CONTINUOUS
 66
1
 70
0
  0
VERTEX
  8
0
 62
7
  6
CONTINUOUS
 10
7.0805818547
 20
104.0438741193
  0
VERTEX
  8
0
 62
7
  6
CONTINUOUS
 10
7.0718050084
 20
102.8415733484
  0
VERTEX
  8
0
 62
7
  6
CONTINUOUS
 10
7.067054433
 20
101.6941679341
  0
VERTEX
  8
0
 62
7
  6
CONTINUOUS
 10
7.0663018059
 20
100.4620353322
  0
SEQEND
  0
POLYLINE
  8
0
 62
7
  6
CONTINUOUS
 66
1
 70
0
  0
VERTEX
  8
0
 62
7
  6
CONTINUOUS
 10
10.8511637225
 20
151.7637159588
  0
VERTEX
  8
0
 62
7
  6
CONTINUOUS
 10
10.7858599682
 20
144.2716837572
  0
VERTEX
  8
0
 62
7
  6
CONTINUOUS
 10
10.7134700018
 20
136.6926697777
  0
VERTEX
  8
0
 62
7
  6
CONTINUOUS
 10
10.634017634
 20
129.0266410064
  0
VERTEX
  8
0
 62
7
  6
CONTINUOUS
 10
10.5472615876
 20
121.2734888953
  0
VERTEX
  8
0
 62
7
  6
CONTINUOUS
 10
10.4529570751
 20
113.4331006065
  0
VERTEX
  8
0
 62
7
  6
CONTINUOUS
 10
10.3404846549
 20
104.6491429016
  0
SEQEND
  0
LINE
  8
0
 62
7
  6
CONTINUOUS
 10
10.3404846549
 20
104.6491429016
 11
10.3243567557
 21
102.9382245682
  0
POLYLINE
  8
0
 62
7
  6
CONTINUOUS
 66
1
 70
0
  0
VERTEX
  8
0
 62
7
  6
CONTINUOUS
 10
12.6583287141
 20
327.2222795749
  0
VERTEX
  8
0
 62
7
  6
CONTINUOUS
 10
12.304654279
 20
295.8350684403
  0
VERTEX
  8
0
 62
7
  6
CONTINUOUS
 10
11.959136327
 20
265.3055625886
  0
VERTEX
  8
0
 62
7
  6
CONTINUOUS
 10
11.6105934869
 20
235.634994285
  0
VERTEX
  8
0
 62
7
  6
CONTINUOUS
 10
11.293367491
 20
206.8208980003
  0
VERTEX
  8
0
 62
7
  6
CONTINUOUS
 10
11.0436795126
 20
178.8630863451
  0
VERTEX
  8
0
 62
7
  6
CONTINUOUS
 10
10.8511317106
 20
151.7636831612
  0
SEQEND
  0
LINE
  8
0
 62
7
  6
CONTINUOUS
 10
7.0974885649
 20
105.6387362338
 11
7.0805818547
 21
104.0438741193
  0
LINE
  8
0
 62
7
  6
CONTINUOUS
 10
7.0974885594
 20
105.6387357867
 11
9.8299182852
 21
328.1000704085
  0
LINE
  8
0
 62
7
  6
CONTINUOUS
 10
12.6492925665
 20
327.2225671782
 11
12.6678828776
 21
328.1000728737
  0
LINE
  8
0
 62
7
  6
CONTINUOUS
 10
14.3309639925
 20
262.6996528975
 11
16.3853048626
 21
328.1000481602
  0
LINE
  8
0
 62
7
  6
CONTINUOUS
 10
10.8511637225
 20
151.7637159588
 11
14.3309639925
 21
262.6996528975
  0
POLYLINE
  8
0
 62
7
  6
CONTINUOUS
 66
1
 70
0
  0
VERTEX
  8
0
 62
7
  6
CONTINUOUS
 10
17.1433892968
 20
149.9372603628
  0
VERTEX
  8
0
 62
7
  6
CONTINUOUS
 10
17.8313407799
 20
154.6188638138
  0
VERTEX
  8
0
 62
7
  6
CONTINUOUS
 10
18.9082885528
 20
159.3600639902
  0
VERTEX
  8
0
 62
7
  6
CONTINUOUS
 10
20.3844177987
 20
164.1667171235
  0
VERTEX
  8
0
 62
7
  6
CONTINUOUS
 10
22.2289488138
 20
169.0209804137
  0
VERTEX
  8
0
 62
7
  6
CONTINUOUS
 10
24.4092224854
 20
173.9193367583
  0
VERTEX
  8
0
 62
7
  6
CONTINUOUS
 10
26.9411349717
 20
178.8247542281
  0
VERTEX
  8
0
 62
7
  6
CONTINUOUS
 10
29.8193128157
 20
183.7149552053
  0
VERTEX
  8
0
 62
7
  6
CONTINUOUS
 10
33.0750275198
 20
188.5423085351
  0
VERTEX
  8
0
 62
7
  6
CONTINUOUS
 10
36.741464646
 20
193.2448997361
  0
VERTEX
  8
0
 62
7
  6
CONTINUOUS
 10
40.8076060077
 20
197.8434203429
  0
SEQEND
  0
POLYLINE
  8
0
 62
7
  6
CONTINUOUS
 66
1
 70
0
  0
VERTEX
  8
0
 62
7
  6
CONTINUOUS
 10
196.0325754531
 20
-21.7388532906
  0
VERTEX
  8
0
 62
7
  6
CONTINUOUS
 10
194.4028949784
 20
-21.9229357552
  0
VERTEX
  8
0
 62
7
  6
CONTINUOUS
 10
192.7582924486
 20
-22.0962232428
  0
VERTEX
  8
0
 62
7
  6
CONTINUOUS
 10
191.0986312676
 20
-22.2571468955
  0
VERTEX
  8
0
 62
7
  6
CONTINUOUS
 10
189.4243338681
 20
-22.4083261305
  0
VERTEX
  8
0
 62
7
  6
CONTINUOUS
 10
187.7357585269
 20
-22.5524419132
  0
VERTEX
  8
0
 62
7
  6
CONTINUOUS
 10
186.0327044421
 20
-22.6880397225
  0
SEQEND
  0
POLYLINE
  8
0
 62
7
  6
CONTINUOUS
 66
1
 70
0
  0
VERTEX
  8
0
 62
7
  6
CONTINUOUS
 10
196.0695390964
 20
-21.7356526032
  0
VERTEX
  8
0
 62
7
  6
CONTINUOUS
 10
210.740255864
 20
-20.7505443969
  0
VERTEX
  8
0
 62
7
  6
CONTINUOUS
 10
225.2876595414
 20
-19.1941128404
  0
VERTEX
  8
0
 62
7
  6
CONTINUOUS
 10
239.7145686983
 20
-17.0661650873
  0
VERTEX
  8
0
 62
7
  6
CONTINUOUS
 10
254.0125525097
 20
-14.3673100985
  0
VERTEX
  8
0
 62
7
  6
CONTINUOUS
 10
268.1735548953
 20
-11.0986149733
  0
VERTEX
  8
0
 62
7
  6
CONTINUOUS
 10
282.2007122235
 20
-7.2602753855
  0
SEQEND
  0
LINE
  8
0
 62
7
  6
CONTINUOUS
 10
196.1857567031
 20
-24.4586796505
 11
196.032704439
 21
-24.4651646787
  0
LINE
  8
0
 62
7
  6
CONTINUOUS
 10
196.0328418285
 20
-19.34615367
 11
196.2227402779
 21
-19.339814593
  0
POLYLINE
  8
0
 62
7
  6
CONTINUOUS
 66
1
 70
0
  0
VERTEX
  8
0
 62
7
  6
CONTINUOUS
 10
196.0328417292
 20
-19.3461490084
  0
VERTEX
  8
0
 62
7
  6
CONTINUOUS
 10
192.7001016093
 20
-19.431878263
  0
VERTEX
  8
0
 62
7
  6
CONTINUOUS
 10
189.3666418741
 20
-19.4832940962
  0
VERTEX
  8
0
 62
7
  6
CONTINUOUS
 10
186.0327044252
 20
-19.5004291057
  0
VERTEX
  8
0
 62
7
  6
CONTINUOUS
 10
182.6987669784
 20
-19.4832940868
  0
VERTEX
  8
0
 62
7
  6
CONTINUOUS
 10
179.3653072496
 20
-19.4318782446
  0
VERTEX
  8
0
 62
7
  6
CONTINUOUS
 10
176.0325671402
 20
-19.3461489807
  0
SEQEND
  0
LINE
  8
0
 62
7
  6
CONTINUOUS
 10
175.8426466729
 20
-19.340225493
 11
176.0325689734
 21
-19.3461496662
  0
POLYLINE
  8
0
 62
7
  6
CONTINUOUS
 66
1
 70
0
  0
VERTEX
  8
0
 62
7
  6
CONTINUOUS
 10
175.8424860556
 20
-19.3400009172
  0
VERTEX
  8
0
 62
7
  6
CONTINUOUS
 10
161.1115731399
 20
-18.5918249479
  0
VERTEX
  8
0
 62
7
  6
CONTINUOUS
 10
147.350245343
 20
-17.357748756
  0
VERTEX
  8
0
 62
7
  6
CONTINUOUS
 10
134.5967037326
 20
-15.6152852984
  0
VERTEX
  8
0
 62
7
  6
CONTINUOUS
 10
122.7363334561
 20
-13.4319099456
  0
VERTEX
  8
0
 62
7
  6
CONTINUOUS
 10
111.6877715964
 20
-10.8584362079
  0
VERTEX
  8
0
 62
7
  6
CONTINUOUS
 10
101.3887745467
 20
-7.9232047873
  0
VERTEX
  8
0
 62
7
  6
CONTINUOUS
 10
91.7470049284
 20
-4.6680742174
  0
VERTEX
  8
0
 62
7
  6
CONTINUOUS
 10
82.7723279497
 20
-1.1021470041
  0
VERTEX
  8
0
 62
7
  6
CONTINUOUS
 10
74.4589448004
 20
2.7404841705
  0
VERTEX
  8
0
 62
7
  6
CONTINUOUS
 10
66.7617278725
 20
6.8931974677
  0
VERTEX
  8
0
 62
7
  6
CONTINUOUS
 10
59.639455465
 20
11.3654916334
  0
VERTEX
  8
0
 62
7
  6
CONTINUOUS
 10
53.0743037365
 20
16.1945365356
  0
VERTEX
  8
0
 62
7
  6
CONTINUOUS
 10
47.0256984528
 20
21.4292146512
  0
VERTEX
  8
0
 62
7
  6
CONTINUOUS
 10
41.5204098967
 20
27.0435700245
  0
VERTEX
  8
0
 62
7
  6
CONTINUOUS
 10
36.5885704513
 20
33.0153579047
  0
VERTEX
  8
0
 62
7
  6
CONTINUOUS
 10
32.1792355252
 20
39.3819798848
  0
VERTEX
  8
0
 62
7
  6
CONTINUOUS
 10
28.2449561728
 20
46.1903574296
  0
VERTEX
  8
0
 62
7
  6
CONTINUOUS
 10
24.8050726826
 20
53.3893131072
  0
VERTEX
  8
0
 62
7
  6
CONTINUOUS
 10
21.8668632885
 20
60.9184880386
  0
VERTEX
  8
0
 62
7
  6
CONTINUOUS
 10
19.4191250914
 20
68.8524212397
  0
VERTEX
  8
0
 62
7
  6
CONTINUOUS
 10
17.4438146565
 20
77.248897107
  0
VERTEX
  8
0
 62
7
  6
CONTINUOUS
 10
15.9690039763
 20
86.0981533305
  0
VERTEX
  8
0
 62
7
  6
CONTINUOUS
 10
15.0278604508
 20
95.3993058955
  0
VERTEX
  8
0
 62
7
  6
CONTINUOUS
 10
14.5877800712
 20
105.1843914366
  0
VERTEX
  8
0
 62
7
  6
CONTINUOUS
 10
14.6559651258
 20
115.4588282896
  0
VERTEX
  8
0
 62
7
  6
CONTINUOUS
 10
15.1464881383
 20
126.3019834353
  0
VERTEX
  8
0
 62
7
  6
CONTINUOUS
 10
15.9651128666
 20
137.8048480937
  0
VERTEX
  8
0
 62
7
  6
CONTINUOUS
 10
17.1433892968
 20
149.9372603628
  0
SEQEND
  0
POLYLINE
  8
0
 62
7
  6
CONTINUOUS
 66
1
 70
0
  0
VERTEX
  8
0
 62
7
  6
CONTINUOUS
 10
186.0327044273
 20
-22.6880397225
  0
VERTEX
  8
0
 62
7
  6
CONTINUOUS
 10
184.3296508864
 20
-22.5524419574
  0
VERTEX
  8
0
 62
7
  6
CONTINUOUS
 10
182.6410758709
 20
-22.4083262061
  0
VERTEX
  8
0
 62
7
  6
CONTINUOUS
 10
180.9667643337
 20
-22.2571455577
  0
VERTEX
  8
0
 62
7
  6
CONTINUOUS
 10
179.3071172871
 20
-22.0962233294
  0
VERTEX
  8
0
 62
7
  6
CONTINUOUS
 10
177.6625999013
 20
-21.9229451455
  0
VERTEX
  8
0
 62
7
  6
CONTINUOUS
 10
176.0330613472
 20
-21.7388791184
  0
SEQEND
  0
POLYLINE
  8
0
 62
7
  6
CONTINUOUS
 66
1
 70
0
  0
VERTEX
  8
0
 62
7
  6
CONTINUOUS
 10
89.8646966459
 20
-7.2602753855
  0
VERTEX
  8
0
 62
7
  6
CONTINUOUS
 10
103.8946091674
 20
-11.0992116772
  0
VERTEX
  8
0
 62
7
  6
CONTINUOUS
 10
118.0566869921
 20
-14.3681286123
  0
VERTEX
  8
0
 62
7
  6
CONTINUOUS
 10
132.3535255685
 20
-17.0667020213
  0
VERTEX
  8
0
 62
7
  6
CONTINUOUS
 10
146.7786927897
 20
-19.1942488077
  0
VERTEX
  8
0
 62
7
  6
CONTINUOUS
 10
161.3253817422
 20
-20.750544089
  0
VERTEX
  8
0
 62
7
  6
CONTINUOUS
 10
175.9958697085
 20
-21.7356526652
  0
SEQEND
  0
POLYLINE
  8
0
 62
7
  6
CONTINUOUS
 66
1
 70
0
  0
VERTEX
  8
0
 62
7
  6
CONTINUOUS
 10
24.9632722438
 20
149.1734201386
  0
VERTEX
  8
0
 62
7
  6
CONTINUOUS
 10
24.2554006842
 20
143.1575851913
  0
VERTEX
  8
0
 62
7
  6
CONTINUOUS
 10
23.6023441569
 20
137.1552362263
  0
VERTEX
  8
0
 62
7
  6
CONTINUOUS
 10
22.9995944537
 20
131.1082414885
  0
VERTEX
  8
0
 62
7
  6
CONTINUOUS
 10
22.4885380471
 20
125.234214495
  0
VERTEX
  8
0
 62
7
  6
CONTINUOUS
 10
22.1074259489
 20
119.8213646948
  0
VERTEX
  8
0
 62
7
  6
CONTINUOUS
 10
21.8429822884
 20
114.5715816417
  0
VERTEX
  8
0
 62
7
  6
CONTINUOUS
 10
21.6961733774
 20
109.204734335
  0
VERTEX
  8
0
 62
7
  6
CONTINUOUS
 10
21.6808254277
 20
103.9834828696
  0
VERTEX
  8
0
 62
7
  6
CONTINUOUS
 10
21.8005021583
 20
99.1484443825
  0
VERTEX
  8
0
 62
7
  6
CONTINUOUS
 10
22.0594452945
 20
94.4429410637
  0
VERTEX
  8
0
 62
7
  6
CONTINUOUS
 10
22.4772561252
 20
89.6221527087
  0
VERTEX
  8
0
 62
7
  6
CONTINUOUS
 10
23.0340651243
 20
84.9262504035
  0
VERTEX
  8
0
 62
7
  6
CONTINUOUS
 10
23.7002364268
 20
80.5640394641
  0
VERTEX
  8
0
 62
7
  6
CONTINUOUS
 10
24.4958274686
 20
76.3400570227
  0
VERTEX
  8
0
 62
7
  6
CONTINUOUS
 10
25.4490720998
 20
72.0849249686
  0
VERTEX
  8
0
 62
7
  6
CONTINUOUS
 10
26.5240498279
 20
67.9574947005
  0
VERTEX
  8
0
 62
7
  6
CONTINUOUS
 10
27.6745662595
 20
64.1019079251
  0
VERTEX
  8
0
 62
7
  6
CONTINUOUS
 10
28.941880837
 20
60.365310941
  0
VERTEX
  8
0
 62
7
  6
CONTINUOUS
 10
30.3693869247
 20
56.6145357486
  0
VERTEX
  8
0
 62
7
  6
CONTINUOUS
 10
31.9216967693
 20
52.9613600019
  0
VERTEX
  8
0
 62
7
  6
CONTINUOUS
 10
33.5649997337
 20
49.4883401277
  0
VERTEX
  8
0
 62
7
  6
CONTINUOUS
 10
35.3274463485
 20
46.1336668283
  0
VERTEX
  8
0
 62
7
  6
CONTINUOUS
 10
37.2346973471
 20
42.8528973933
  0
VERTEX
  8
0
 62
7
  6
CONTINUOUS
 10
39.2668139547
 20
39.6864197481
  0
VERTEX
  8
0
 62
7
  6
CONTINUOUS
 10
41.4043816405
 20
36.6679049583
  0
VERTEX
  8
0
 62
7
  6
CONTINUOUS
 10
43.6673813315
 20
33.7666899499
  0
VERTEX
  8
0
 62
7
  6
CONTINUOUS
 10
46.0731820296
 20
30.9615587695
  0
VERTEX
  8
0
 62
7
  6
CONTINUOUS
 10
48.6134120027
 20
28.2628157485
  0
VERTEX
  8
0
 62
7
  6
CONTINUOUS
 10
51.2889465184
 20
25.6717806304
  0
VERTEX
  8
0
 62
7
  6
CONTINUOUS
 10
54.0884775804
 20
23.1927394268
  0
VERTEX
  8
0
 62
7
  6
CONTINUOUS
 10
56.9960971213
 20
20.8351069381
  0
VERTEX
  8
0
 62
7
  6
CONTINUOUS
 10
60.0248635704
 20
18.582308613
  0
VERTEX
  8
0
 62
7
  6
CONTINUOUS
 10
63.1963654636
 20
16.4156175562
  0
VERTEX
  8
0
 62
7
  6
CONTINUOUS
 10
66.4708397023
 20
14.3535972011
  0
VERTEX
  8
0
 62
7
  6
CONTINUOUS
 10
69.783397393
 20
12.4255444004
  0
VERTEX
  8
0
 62
7
  6
CONTINUOUS
 10
73.2272689657
 20
10.5747374957
  0
VERTEX
  8
0
 62
7
  6
CONTINUOUS
 10
76.9180467695
 20
8.7393202905
  0
VERTEX
  8
0
 62
7
  6
CONTINUOUS
 10
80.7337235544
 20
6.9794543134
  0
VERTEX
  8
0
 62
7
  6
CONTINUOUS
 10
84.5320441014
 20
5.3544280732
  0
VERTEX
  8
0
 62
7
  6
CONTINUOUS
 10
88.4802415916
 20
3.790883646
  0
VERTEX
  8
0
 62
7
  6
CONTINUOUS
 10
92.7717457934
 20
2.2152349808
  0
VERTEX
  8
0
 62
7
  6
CONTINUOUS
 10
97.1985367264
 20
0.707348766
  0
VERTEX
  8
0
 62
7
  6
CONTINUOUS
 10
101.5289300974
 20
-0.6583706437
  0
VERTEX
  8
0
 62
7
  6
CONTINUOUS
 10
106.013747794
 20
-1.9602191791
  0
VERTEX
  8
0
 62
7
  6
CONTINUOUS
 10
110.9195260476
 20
-3.2695474655
  0
VERTEX
  8
0
 62
7
  6
CONTINUOUS
 10
115.9845813657
 20
-4.506194195
  0
VERTEX
  8
0
 62
7
  6
CONTINUOUS
 10
120.9263143465
 20
-5.6020139018
  0
VERTEX
  8
0
 62
7
  6
CONTINUOUS
 10
126.0566737115
 20
-6.6191992455
  0
VERTEX
  8
0
 62
7
  6
CONTINUOUS
 10
131.707841683
 20
-7.6108360869
  0
VERTEX
  8
0
 62
7
  6
CONTINUOUS
 10
137.5567922132
 20
-8.5046513608
  0
VERTEX
  8
0
 62
7
  6
CONTINUOUS
 10
143.2585992701
 20
-9.2420420868
  0
VERTEX
  8
0
 62
7
  6
CONTINUOUS
 10
149.1889380131
 20
-9.8695304635
  0
VERTEX
  8
0
 62
7
  6
CONTINUOUS
 10
155.7459836614
 20
-10.4150746308
  0
VERTEX
  8
0
 62
7
  6
CONTINUOUS
 10
162.5387085579
 20
-10.8425712399
  0
VERTEX
  8
0
 62
7
  6
CONTINUOUS
 10
169.2687680109
 20
-11.1339165104
  0
VERTEX
  8
0
 62
7
  6
CONTINUOUS
 10
176.0327052705
 20
-11.2996511356
  0
SEQEND
  0
POLYLINE
  8
0
 62
7
  6
CONTINUOUS
 66
1
 70
0
  0
VERTEX
  8
0
 62
7
  6
CONTINUOUS
 10
196.0327034897
 20
-11.2996216976
  0
VERTEX
  8
0
 62
7
  6
CONTINUOUS
 10
202.7641335797
 20
-11.1384732502
  0
VERTEX
  8
0
 62
7
  6
CONTINUOUS
 10
209.4879690513
 20
-10.8486347595
  0
VERTEX
  8
0
 62
7
  6
CONTINUOUS
 10
216.3043847744
 20
-10.4185143854
  0
VERTEX
  8
0
 62
7
  6
CONTINUOUS
 10
222.9027620885
 20
-9.8672301364
  0
VERTEX
  8
0
 62
7
  6
CONTINUOUS
 10
228.8793913859
 20
-9.2325331185
  0
VERTEX
  8
0
 62
7
  6
CONTINUOUS
 10
234.6382120092
 20
-8.4849226973
  0
VERTEX
  8
0
 62
7
  6
CONTINUOUS
 10
240.5630494859
 20
-7.5758543215
  0
VERTEX
  8
0
 62
7
  6
CONTINUOUS
 10
246.2887803221
 20
-6.5664647952
  0
VERTEX
  8
0
 62
7
  6
CONTINUOUS
 10
251.4729380566
 20
-5.5318717554
  0
VERTEX
  8
0
 62
7
  6
CONTINUOUS
 10
256.4554472431
 20
-4.4189248248
  0
VERTEX
  8
0
 62
7
  6
CONTINUOUS
 10
261.5476744843
 20
-3.1663060268
  0
VERTEX
  8
0
 62
7
  6
CONTINUOUS
 10
266.4722618559
 20
-1.8417356493
  0
VERTEX
  8
0
 62
7
  6
CONTINUOUS
 10
270.9747560913
 20
-0.5243666532
  0
VERTEX
  8
0
 62
7
  6
CONTINUOUS
 10
275.3147787747
 20
0.855095352
  0
VERTEX
  8
0
 62
7
  6
CONTINUOUS
 10
279.7318398625
 20
2.370484711
  0
VERTEX
  8
0
 62
7
  6
CONTINUOUS
 10
284.0150146946
 20
3.9550978656
  0
VERTEX
  8
0
 62
7
  6
CONTINUOUS
 10
287.9752117908
 20
5.5364818563
  0
VERTEX
  8
0
 62
7
  6
CONTINUOUS
 10
291.7983484964
 20
7.1872496519
  0
VERTEX
  8
0
 62
7
  6
CONTINUOUS
 10
295.6544559603
 20
8.9841715547
  0
VERTEX
  8
0
 62
7
  6
CONTINUOUS
 10
299.3891167936
 20
10.8624636712
  0
VERTEX
  8
0
 62
7
  6
CONTINUOUS
 10
302.869604351
 20
12.7569281949
  0
VERTEX
  8
0
 62
7
  6
CONTINUOUS
 10
306.2113064535
 20
14.7294002444
  0
VERTEX
  8
0
 62
7
  6
CONTINUOUS
 10
309.5038547218
 20
16.8355131969
  0
VERTEX
  8
0
 62
7
  6
CONTINUOUS
 10
312.682126415
 20
19.0436659829
  0
VERTEX
  8
0
 62
7
  6
CONTINUOUS
 10
315.7018248785
 20
21.3300550771
  0
VERTEX
  8
0
 62
7
  6
CONTINUOUS
 10
318.5943430657
 20
23.72034493
  0
VERTEX
  8
0
 62
7
  6
CONTINUOUS
 10
321.3829783208
 20
26.2391320875
  0
VERTEX
  8
0
 62
7
  6
CONTINUOUS
 10
324.044791829
 20
28.8703600741
  0
VERTEX
  8
0
 62
7
  6
CONTINUOUS
 10
326.5648710445
 20
31.6060009827
  0
VERTEX
  8
0
 62
7
  6
CONTINUOUS
 10
328.9447787927
 20
34.4429292823
  0
VERTEX
  8
0
 62
7
  6
CONTINUOUS
 10
331.1733499443
 20
37.3644468009
  0
VERTEX
  8
0
 62
7
  6
CONTINUOUS
 10
333.2752483008
 20
40.4010835869
  0
VERTEX
  8
0
 62
7
  6
CONTINUOUS
 10
335.2778514257
 20
43.5937142184
  0
VERTEX
  8
0
 62
7
  6
CONTINUOUS
 10
337.157159955
 20
46.9018864612
  0
VERTEX
  8
0
 62
7
  6
CONTINUOUS
 10
338.8913108463
 20
50.2813170223
  0
VERTEX
  8
0
 62
7
  6
CONTINUOUS
 10
340.5059437022
 20
53.7771281718
  0
VERTEX
  8
0
 62
7
  6
CONTINUOUS
 10
342.0284783437
 20
57.4513162146
  0
VERTEX
  8
0
 62
7
  6
CONTINUOUS
 10
343.425409989
 20
61.218749759
  0
VERTEX
  8
0
 62
7
  6
CONTINUOUS
 10
344.6620999383
 20
64.9662112182
  0
VERTEX
  8
0
 62
7
  6
CONTINUOUS
 10
345.7803150481
 20
68.822977575
  0
VERTEX
  8
0
 62
7
  6
CONTINUOUS
 10
346.8187353147
 20
72.9341632147
  0
VERTEX
  8
0
 62
7
  6
CONTINUOUS
 10
347.7356594735
 20
77.1643581922
  0
VERTEX
  8
0
 62
7
  6
CONTINUOUS
 10
348.4992366902
 20
81.3644189139
  0
VERTEX
  8
0
 62
7
  6
CONTINUOUS
 10
349.1350222748
 20
85.6951803773
  0
VERTEX
  8
0
 62
7
  6
CONTINUOUS
 10
349.6608391041
 20
90.341094815
  0
VERTEX
  8
0
 62
7
  6
CONTINUOUS
 10
350.050415415
 20
95.1094956603
  0
VERTEX
  8
0
 62
7
  6
CONTINUOUS
 10
350.2865615773
 20
99.7807350529
  0
VERTEX
  8
0
 62
7
  6
CONTINUOUS
 10
350.387141814
 20
104.5778813814
  0
VERTEX
  8
0
 62
7
  6
CONTINUOUS
 10
350.355957992
 20
109.7342298533
  0
VERTEX
  8
0
 62
7
  6
CONTINUOUS
 10
350.1987729872
 20
115.0292880835
  0
VERTEX
  8
0
 62
7
  6
CONTINUOUS
 10
349.9301952053
 20
120.2219881163
  0
VERTEX
  8
0
 62
7
  6
CONTINUOUS
 10
349.5493433235
 20
125.5734536977
  0
VERTEX
  8
0
 62
7
  6
CONTINUOUS
 10
349.0422220196
 20
131.363926971
  0
VERTEX
  8
0
 62
7
  6
CONTINUOUS
 10
348.4459066121
 20
137.3211607884
  0
VERTEX
  8
0
 62
7
  6
CONTINUOUS
 10
347.8006730351
 20
143.2380510865
  0
VERTEX
  8
0
 62
7
  6
CONTINUOUS
 10
347.1024575373
 20
149.169111253
  0
SEQEND
  0
LINE
  8
0
 62
7
  6
CONTINUOUS
 10
196.03271721
 20
-11.299510123
 11
192.5730591273
 21
-11.3470722469
  0
POLYLINE
  8
0
 62
7
  6
CONTINUOUS
 66
1
 70
0
  0
VERTEX
  8
0
 62
7
  6
CONTINUOUS
 10
176.0325600424
 20
-11.2995079375
  0
VERTEX
  8
0
 62
7
  6
CONTINUOUS
 10
179.4919632583
 20
-11.3470715057
  0
VERTEX
  8
0
 62
7
  6
CONTINUOUS
 10
182.7619987417
 20
-11.3745993133
  0
VERTEX
  8
0
 62
7
  6
CONTINUOUS
 10
186.032356593
 20
-11.383773856
  0
VERTEX
  8
0
 62
7
  6
CONTINUOUS
 10
189.3027917444
 20
-11.3746027764
  0
VERTEX
  8
0
 62
7
  6
CONTINUOUS
 10
192.5730591273
 20
-11.3470722469
  0
SEQEND
  0
POLYLINE
  8
0
 62
7
  6
CONTINUOUS
 66
1
 70
0
  0
VERTEX
  8
0
 62
7
  6
CONTINUOUS
 10
44.9035621777
 20
176.3740414141
  0
VERTEX
  8
0
 62
7
  6
CONTINUOUS
 10
44.7180492588
 20
174.3360485971
  0
VERTEX
  8
0
 62
7
  6
CONTINUOUS
 10
44.6318428587
 20
172.247522286
  0
VERTEX
  8
0
 62
7
  6
CONTINUOUS
 10
44.646179587
 20
170.1197339054
  0
VERTEX
  8
0
 62
7
  6
CONTINUOUS
 10
44.7649004458
 20
167.9283828514
  0
VERTEX
  8
0
 62
7
  6
CONTINUOUS
 10
44.9973248569
 20
165.6472213699
  0
VERTEX
  8
0
 62
7
  6
CONTINUOUS
 10
45.3417775118
 20
163.2875854508
  0
SEQEND
  0
POLYLINE
  8
0
 62
7
  6
CONTINUOUS
 66
1
 70
0
  0
VERTEX
  8
0
 62
7
  6
CONTINUOUS
 10
30.3144097766
 20
165.6764533078
  0
VERTEX
  8
0
 62
7
  6
CONTINUOUS
 10
29.0504613484
 20
162.7823936952
  0
VERTEX
  8
0
 62
7
  6
CONTINUOUS
 10
27.9300880847
 20
159.9447209554
  0
VERTEX
  8
0
 62
7
  6
CONTINUOUS
 10
26.9527632245
 20
157.1699736804
  0
VERTEX
  8
0
 62
7
  6
CONTINUOUS
 10
26.1285169006
 20
154.4517045381
  0
VERTEX
  8
0
 62
7
  6
CONTINUOUS
 10
25.4685608379
 20
151.7831320602
  0
VERTEX
  8
0
 62
7
  6
CONTINUOUS
 10
24.9652823454
 20
149.1733358073
  0
SEQEND
  0
POLYLINE
  8
0
 62
7
  6
CONTINUOUS
 66
1
 70
0
  0
VERTEX
  8
0
 62
7
  6
CONTINUOUS
 10
52.2990195092
 20
194.5771995184
  0
VERTEX
  8
0
 62
7
  6
CONTINUOUS
 10
50.4377193523
 20
192.05132324
  0
VERTEX
  8
0
 62
7
  6
CONTINUOUS
 10
48.8057037363
 20
189.2733285899
  0
VERTEX
  8
0
 62
7
  6
CONTINUOUS
 10
47.3966080956
 20
186.220591304
  0
VERTEX
  8
0
 62
7
  6
CONTINUOUS
 10
46.2628497575
 20
182.9971273361
  0
VERTEX
  8
0
 62
7
  6
CONTINUOUS
 10
45.4383793288
 20
179.7184685608
  0
VERTEX
  8
0
 62
7
  6
CONTINUOUS
 10
44.9035621777
 20
176.3740414141
  0
SEQEND
  0
POLYLINE
  8
0
 62
7
  6
CONTINUOUS
 66
1
 70
0
  0
VERTEX
  8
0
 62
7
  6
CONTINUOUS
 10
40.8076060077
 20
197.8434203429
  0
VERTEX
  8
0
 62
7
  6
CONTINUOUS
 10
44.2336682989
 20
201.2522127396
  0
VERTEX
  8
0
 62
7
  6
CONTINUOUS
 10
47.7577445431
 20
204.5098734316
  0
VERTEX
  8
0
 62
7
  6
CONTINUOUS
 10
51.3190943671
 20
207.5806990363
  0
VERTEX
  8
0
 62
7
  6
CONTINUOUS
 10
55.0998466545
 20
210.5716869301
  0
VERTEX
  8
0
 62
7
  6
CONTINUOUS
 10
59.3315282423
 20
213.6377673615
  0
VERTEX
  8
0
 62
7
  6
CONTINUOUS
 10
63.8050964051
 20
216.599305629
  0
VERTEX
  8
0
 62
7
  6
CONTINUOUS
 10
68.3181589192
 20
219.2914427772
  0
VERTEX
  8
0
 62
7
  6
CONTINUOUS
 10
73.0824016796
 20
221.8249171244
  0
VERTEX
  8
0
 62
7
  6
CONTINUOUS
 10
78.3281623431
 20
224.2957702622
  0
VERTEX
  8
0
 62
7
  6
CONTINUOUS
 10
83.797018209
 20
226.5831414444
  0
VERTEX
  8
0
 62
7
  6
CONTINUOUS
 10
89.2328495898
 20
228.5656714017
  0
VERTEX
  8
0
 62
7
  6
CONTINUOUS
 10
94.8593758954
 20
230.3412529066
  0
VERTEX
  8
0
 62
7
  6
CONTINUOUS
 10
100.8901244867
 20
231.9839778223
  0
VERTEX
  8
0
 62
7
  6
CONTINUOUS
 10
107.0994766686
 20
233.4437976679
  0
VERTEX
  8
0
 62
7
  6
CONTINUOUS
 10
113.2647965191
 20
234.6773758107
  0
VERTEX
  8
0
 62
7
  6
CONTINUOUS
 10
119.5906738269
 20
235.738681728
  0
VERTEX
  8
0
 62
7
  6
CONTINUOUS
 10
126.2856240059
 20
236.6766309665
  0
VERTEX
  8
0
 62
7
  6
CONTINUOUS
 10
133.1151604339
 20
237.4629583921
  0
VERTEX
  8
0
 62
7
  6
CONTINUOUS
 10
139.8302861907
 20
238.0789073
  0
VERTEX
  8
0
 62
7
  6
CONTINUOUS
 10
146.6830383139
 20
238.5448566167
  0
VERTEX
  8
0
 62
7
  6
CONTINUOUS
 10
153.9236177651
 20
238.8821311322
  0
VERTEX
  8
0
 62
7
  6
CONTINUOUS
 10
161.3087094494
 20
239.0693487627
  0
VERTEX
  8
0
 62
7
  6
CONTINUOUS
 10
168.6584027226
 20
239.0904434819
  0
VERTEX
  8
0
 62
7
  6
CONTINUOUS
 10
176.0327689579
 20
238.9508943082
  0
SEQEND
  0
POLYLINE
  8
0
 62
7
  6
CONTINUOUS
 66
1
 70
0
  0
VERTEX
  8
0
 62
7
  6
CONTINUOUS
 10
176.0328110883
 20
300.098040921
  0
VERTEX
  8
0
 62
7
  6
CONTINUOUS
 10
177.9262301764
 20
300.9819538723
  0
VERTEX
  8
0
 62
7
  6
CONTINUOUS
 10
179.877752746
 20
301.6728191523
  0
VERTEX
  8
0
 62
7
  6
CONTINUOUS
 10
181.8969211258
 20
302.1725534952
  0
VERTEX
  8
0
 62
7
  6
CONTINUOUS
 10
183.9549274205
 20
302.4754459802
  0
VERTEX
  8
0
 62
7
  6
CONTINUOUS
 10
186.0327202251
 20
302.5757843726
  0
VERTEX
  8
0
 62
7
  6
CONTINUOUS
 10
188.1105147515
 20
302.4754759379
  0
VERTEX
  8
0
 62
7
  6
CONTINUOUS
 10
190.1685420604
 20
302.1726066524
  0
VERTEX
  8
0
 62
7
  6
CONTINUOUS
 10
192.1877031985
 20
301.6729078211
  0
VERTEX
  8
0
 62
7
  6
CONTINUOUS
 10
194.1391427397
 20
300.9821092899
  0
VERTEX
  8
0
 62
7
  6
CONTINUOUS
 10
196.0324188885
 20
300.0982880252
  0
SEQEND
  0
POLYLINE
  8
0
 62
7
  6
CONTINUOUS
 66
1
 70
0
  0
VERTEX
  8
0
 62
7
  6
CONTINUOUS
 10
47.6026178928
 20
191.3397421108
  0
VERTEX
  8
0
 62
7
  6
CONTINUOUS
 10
46.0446159348
 20
189.7223644668
  0
VERTEX
  8
0
 62
7
  6
CONTINUOUS
 10
44.5181733143
 20
188.023314318
  0
VERTEX
  8
0
 62
7
  6
CONTINUOUS
 10
43.0241053896
 20
186.262610463
  0
VERTEX
  8
0
 62
7
  6
CONTINUOUS
 10
41.5289351347
 20
184.4020708394
  0
VERTEX
  8
0
 62
7
  6
CONTINUOUS
 10
39.9967702937
 20
182.3768565047
  0
VERTEX
  8
0
 62
7
  6
CONTINUOUS
 10
38.4918035429
 20
180.2504024138
  0
VERTEX
  8
0
 62
7
  6
CONTINUOUS
 10
37.0731763743
 20
178.1052615288
  0
VERTEX
  8
0
 62
7
  6
CONTINUOUS
 10
35.6773382137
 20
175.854711719
  0
VERTEX
  8
0
 62
7
  6
CONTINUOUS
 10
34.2458165545
 20
173.3954870951
  0
VERTEX
  8
0
 62
7
  6
CONTINUOUS
 10
32.8521477257
 20
170.8385715855
  0
VERTEX
  8
0
 62
7
  6
CONTINUOUS
 10
31.5467112128
 20
168.2751060116
  0
VERTEX
  8
0
 62
7
  6
CONTINUOUS
 10
30.3145346476
 20
165.6763946765
  0
SEQEND
  0
POLYLINE
  8
0
 62
7
  6
CONTINUOUS
 66
1
 70
0
  0
VERTEX
  8
0
 62
7
  6
CONTINUOUS
 10
75.866981973
 20
193.4632459474
  0
VERTEX
  8
0
 62
7
  6
CONTINUOUS
 10
75.8730815626
 20
191.4076543033
  0
VERTEX
  8
0
 62
7
  6
CONTINUOUS
 10
75.9959125249
 20
189.2290859711
  0
VERTEX
  8
0
 62
7
  6
CONTINUOUS
 10
76.2336909009
 20
186.9306218912
  0
VERTEX
  8
0
 62
7
  6
CONTINUOUS
 10
76.573555112
 20
184.5195081647
  0
SEQEND
  0
POLYLINE
  8
0
 62
7
  6
CONTINUOUS
 66
1
 70
0
  0
VERTEX
  8
0
 62
7
  6
CONTINUOUS
 10
83.8283006714
 20
209.5746323156
  0
VERTEX
  8
0
 62
7
  6
CONTINUOUS
 10
82.3068058778
 20
208.4634657747
  0
VERTEX
  8
0
 62
7
  6
CONTINUOUS
 10
80.9581144825
 20
207.2466395864
  0
VERTEX
  8
0
 62
7
  6
CONTINUOUS
 10
79.7773969597
 20
205.9122482582
  0
VERTEX
  8
0
 62
7
  6
CONTINUOUS
 10
78.7655722999
 20
204.4674660415
  0
VERTEX
  8
0
 62
7
  6
CONTINUOUS
 10
77.9247850598
 20
202.9353226508
  0
VERTEX
  8
0
 62
7
  6
CONTINUOUS
 10
77.2354447928
 20
201.3030023457
  0
VERTEX
  8
0
 62
7
  6
CONTINUOUS
 10
76.6896712466
 20
199.5657625713
  0
VERTEX
  8
0
 62
7
  6
CONTINUOUS
 10
76.2785596054
 20
197.6988271648
  0
VERTEX
  8
0
 62
7
  6
CONTINUOUS
 10
76.0007164695
 20
195.6608470619
  0
VERTEX
  8
0
 62
7
  6
CONTINUOUS
 10
75.866981973
 20
193.4632459474
  0
SEQEND
  0
POLYLINE
  8
0
 62
7
  6
CONTINUOUS
 66
1
 70
0
  0
VERTEX
  8
0
 62
7
  6
CONTINUOUS
 10
44.9035621777
 20
176.3740414141
  0
VERTEX
  8
0
 62
7
  6
CONTINUOUS
 10
42.4938360408
 20
174.6597278733
  0
VERTEX
  8
0
 62
7
  6
CONTINUOUS
 10
40.0819945185
 20
172.910330398
  0
VERTEX
  8
0
 62
7
  6
CONTINUOUS
 10
37.6624114233
 20
171.1315159274
  0
VERTEX
  8
0
 62
7
  6
CONTINUOUS
 10
35.2300622559
 20
169.3289797956
  0
VERTEX
  8
0
 62
7
  6
CONTINUOUS
 10
32.7822799603
 20
167.5083386207
  0
VERTEX
  8
0
 62
7
  6
CONTINUOUS
 10
30.3144097766
 20
165.6764533078
  0
SEQEND
  0
POLYLINE
  8
0
 62
7
  6
CONTINUOUS
 66
1
 70
0
  0
VERTEX
  8
0
 62
7
  6
CONTINUOUS
 10
52.2990195092
 20
194.5771995184
  0
VERTEX
  8
0
 62
7
  6
CONTINUOUS
 10
51.5182407144
 20
194.0545320039
  0
VERTEX
  8
0
 62
7
  6
CONTINUOUS
 10
50.7362383522
 20
193.5247422197
  0
VERTEX
  8
0
 62
7
  6
CONTINUOUS
 10
49.9524360225
 20
192.9875085914
  0
VERTEX
  8
0
 62
7
  6
CONTINUOUS
 10
49.168272307
 20
192.4438418359
  0
VERTEX
  8
0
 62
7
  6
CONTINUOUS
 10
48.3852025498
 20
191.894711139
  0
VERTEX
  8
0
 62
7
  6
CONTINUOUS
 10
47.6026178928
 20
191.3397421108
  0
SEQEND
  0
POLYLINE
  8
0
 62
7
  6
CONTINUOUS
 66
1
 70
0
  0
VERTEX
  8
0
 62
7
  6
CONTINUOUS
 10
65.4352799238
 20
202.3368184065
  0
VERTEX
  8
0
 62
7
  6
CONTINUOUS
 10
63.0726236485
 20
201.0916653125
  0
VERTEX
  8
0
 62
7
  6
CONTINUOUS
 10
60.7516334853
 20
199.8033068635
  0
VERTEX
  8
0
 62
7
  6
CONTINUOUS
 10
58.4388325555
 20
198.4546788796
  0
VERTEX
  8
0
 62
7
  6
CONTINUOUS
 10
56.2232878571
 20
197.1045392705
  0
VERTEX
  8
0
 62
7
  6
CONTINUOUS
 10
54.188910689
 20
195.816486041
  0
VERTEX
  8
0
 62
7
  6
CONTINUOUS
 10
52.2991474232
 20
194.5769779475
  0
SEQEND
  0
LINE
  8
0
 62
7
  6
CONTINUOUS
 10
65.4933642364
 20
202.3615842551
 11
65.5637285713
 21
202.3977309816
  0
LINE
  8
0
 62
7
  6
CONTINUOUS
 10
65.5637285713
 20
202.3977309816
 11
65.6994784639
 21
202.4673086094
  0
LINE
  8
0
 62
7
  6
CONTINUOUS
 10
65.6994784639
 20
202.4673086094
 11
65.7969386038
 21
202.5171324486
  0
LINE
  8
0
 62
7
  6
CONTINUOUS
 10
65.7969386038
 20
202.5171324486
 11
65.8753173665
 21
202.557123352
  0
LINE
  8
0
 62
7
  6
CONTINUOUS
 10
65.8753173665
 20
202.557123352
 11
65.9511412227
 21
202.5957443603
  0
LINE
  8
0
 62
7
  6
CONTINUOUS
 10
65.9511412227
 20
202.5957443603
 11
66.0099756938
 21
202.6256668304
  0
LINE
  8
0
 62
7
  6
CONTINUOUS
 10
66.0099756938
 20
202.6256668304
 11
66.0671992203
 21
202.6547322764
  0
LINE
  8
0
 62
7
  6
CONTINUOUS
 10
66.0671992203
 20
202.6547322764
 11
66.1228226977
 21
202.6829493431
  0
LINE
  8
0
 62
7
  6
CONTINUOUS
 10
66.1228226977
 20
202.6829493431
 11
66.163490228
 21
202.7035571872
  0
LINE
  8
0
 62
7
  6
CONTINUOUS
 10
66.163490228
 20
202.7035571872
 11
66.2032581352
 21
202.7236909602
  0
LINE
  8
0
 62
7
  6
CONTINUOUS
 10
66.2032581352
 20
202.7236909602
 11
66.2421138434
 21
202.7433455142
  0
LINE
  8
0
 62
7
  6
CONTINUOUS
 10
66.2421138434
 20
202.7433455142
 11
66.2800565586
 21
202.7625216518
  0
LINE
  8
0
 62
7
  6
CONTINUOUS
 10
66.2800565586
 20
202.7625216518
 11
66.3170753373
 21
202.781215024
  0
LINE
  8
0
 62
7
  6
CONTINUOUS
 10
66.3170753373
 20
202.781215024
 11
66.3531715535
 21
202.7994274882
  0
LINE
  8
0
 62
7
  6
CONTINUOUS
 10
66.3531715535
 20
202.7994274882
 11
66.3767173845
 21
202.8112996061
  0
LINE
  8
0
 62
7
  6
CONTINUOUS
 10
66.3767173845
 20
202.8112996061
 11
66.4112636176
 21
202.8287068268
  0
LINE
  8
0
 62
7
  6
CONTINUOUS
 10
66.4112636176
 20
202.8287068268
 11
66.4337758715
 21
202.8400430144
  0
LINE
  8
0
 62
7
  6
CONTINUOUS
 10
66.4337758715
 20
202.8400430144
 11
66.4558703421
 21
202.8511631996
  0
LINE
  8
0
 62
7
  6
CONTINUOUS
 10
66.4558703421
 20
202.8511631996
 11
66.4882344238
 21
202.867442038
  0
LINE
  8
0
 62
7
  6
CONTINUOUS
 10
66.4882344238
 20
202.867442038
 11
66.5092993204
 21
202.8780310645
  0
LINE
  8
0
 62
7
  6
CONTINUOUS
 10
66.5092993204
 20
202.8780310645
 11
66.5299545423
 21
202.8884092324
  0
LINE
  8
0
 62
7
  6
CONTINUOUS
 10
66.5299545423
 20
202.8884092324
 11
66.5501998157
 21
202.8985766941
  0
LINE
  8
0
 62
7
  6
CONTINUOUS
 10
66.5501998157
 20
202.8985766941
 11
66.570047982
 21
202.90854018
  0
LINE
  8
0
 62
7
  6
CONTINUOUS
 10
66.570047982
 20
202.90854018
 11
66.5895096017
 21
202.9183052577
  0
LINE
  8
0
 62
7
  6
CONTINUOUS
 10
66.5895096017
 20
202.9183052577
 11
66.6085765079
 21
202.9278680873
  0
LINE
  8
0
 62
7
  6
CONTINUOUS
 10
66.6085765079
 20
202.9278680873
 11
66.627252724
 21
202.9372309436
  0
LINE
  8
0
 62
7
  6
CONTINUOUS
 10
66.627252724
 20
202.9372309436
 11
66.6455481534
 21
202.9463990395
  0
LINE
  8
0
 62
7
  6
CONTINUOUS
 10
66.6455481534
 20
202.9463990395
 11
66.6634692747
 21
202.9553758582
  0
LINE
  8
0
 62
7
  6
CONTINUOUS
 10
66.6634692747
 20
202.9553758582
 11
66.6810064528
 21
202.9641568026
  0
LINE
  8
0
 62
7
  6
CONTINUOUS
 10
66.6810064528
 20
202.9641568026
 11
66.6981636706
 21
202.9727440973
  0
POLYLINE
  8
0
 62
7
  6
CONTINUOUS
 66
1
 70
0
  0
VERTEX
  8
0
 62
7
  6
CONTINUOUS
 10
66.6981636706
 20
202.9727440973
  0
VERTEX
  8
0
 62
7
  6
CONTINUOUS
 10
66.7149477702
 20
202.9811413894
  0
VERTEX
  8
0
 62
7
  6
CONTINUOUS
 10
66.7232023909
 20
202.9852700975
  0
SEQEND
  0
LINE
  8
0
 62
7
  6
CONTINUOUS
 10
66.7232023909
 20
202.9852700975
 11
66.7394315276
 21
202.9933851422
  0
POLYLINE
  8
0
 62
7
  6
CONTINUOUS
 66
1
 70
0
  0
VERTEX
  8
0
 62
7
  6
CONTINUOUS
 10
66.7394315276
 20
202.9933851422
  0
VERTEX
  8
0
 62
7
  6
CONTINUOUS
 10
66.7552839767
 20
203.0013089228
  0
VERTEX
  8
0
 62
7
  6
CONTINUOUS
 10
66.7630694031
 20
203.0051993831
  0
SEQEND
  0
LINE
  8
0
 62
7
  6
CONTINUOUS
 10
66.7630694031
 20
203.0051993831
 11
66.7783615531
 21
203.012839015
  0
POLYLINE
  8
0
 62
7
  6
CONTINUOUS
 66
1
 70
0
  0
VERTEX
  8
0
 62
7
  6
CONTINUOUS
 10
66.7783615531
 20
203.012839015
  0
VERTEX
  8
0
 62
7
  6
CONTINUOUS
 10
66.7932847632
 20
203.0202917545
  0
VERTEX
  8
0
 62
7
  6
CONTINUOUS
 10
66.8006089884
 20
203.0239485844
  0
SEQEND
  0
LINE
  8
0
 62
7
  6
CONTINUOUS
 10
66.8006089884
 20
203.0239485844
 11
66.8149802946
 21
203.0311220881
  0
POLYLINE
  8
0
 62
7
  6
CONTINUOUS
 66
1
 70
0
  0
VERTEX
  8
0
 62
7
  6
CONTINUOUS
 10
66.8149802946
 20
203.0311220881
  0
VERTEX
  8
0
 62
7
  6
CONTINUOUS
 10
66.8291664735
 20
203.038167828
  0
VERTEX
  8
0
 62
7
  6
CONTINUOUS
 10
66.835836704
 20
203.0415284538
  0
VERTEX
  8
0
 62
7
  6
CONTINUOUS
 10
66.8414728412
 20
203.0445379624
  0
VERTEX
  8
0
 62
7
  6
CONTINUOUS
 10
66.8462628984
 20
203.0472572757
  0
SEQEND
  0
POLYLINE
  8
0
 62
7
  6
CONTINUOUS
 66
1
 70
0
  0
VERTEX
  8
0
 62
7
  6
CONTINUOUS
 10
7.0974884654
 20
105.6387270794
  0
VERTEX
  8
0
 62
7
  6
CONTINUOUS
 10
7.1380917795
 20
105.6228446983
  0
VERTEX
  8
0
 62
7
  6
CONTINUOUS
 10
7.2591272909
 20
105.6063886786
  0
VERTEX
  8
0
 62
7
  6
CONTINUOUS
 10
7.4495358929
 20
105.5903582114
  0
VERTEX
  8
0
 62
7
  6
CONTINUOUS
 10
7.7056425435
 20
105.5747051323
  0
VERTEX
  8
0
 62
7
  6
CONTINUOUS
 10
8.0291481919
 20
105.5594284701
  0
VERTEX
  8
0
 62
7
  6
CONTINUOUS
 10
8.4128935842
 20
105.5450620933
  0
VERTEX
  8
0
 62
7
  6
CONTINUOUS
 10
8.8491229183
 20
105.5320435145
  0
VERTEX
  8
0
 62
7
  6
CONTINUOUS
 10
9.3275013835
 20
105.5208176495
  0
VERTEX
  8
0
 62
7
  6
CONTINUOUS
 10
9.8374455722
 20
105.5117762787
  0
VERTEX
  8
0
 62
7
  6
CONTINUOUS
 10
10.3511407586
 20
105.5054569226
  0
SEQEND
  0
POLYLINE
  8
0
 62
7
  6
CONTINUOUS
 66
1
 70
0
  0
VERTEX
  8
0
 62
7
  6
CONTINUOUS
 10
45.3381830718
 20
163.2879111755
  0
VERTEX
  8
0
 62
7
  6
CONTINUOUS
 10
43.4086855721
 20
161.8140770916
  0
VERTEX
  8
0
 62
7
  6
CONTINUOUS
 10
41.528847087
 20
160.4078063295
  0
VERTEX
  8
0
 62
7
  6
CONTINUOUS
 10
39.6890130142
 20
159.0627077496
  0
VERTEX
  8
0
 62
7
  6
CONTINUOUS
 10
37.9149993663
 20
157.7930720308
  0
VERTEX
  8
0
 62
7
  6
CONTINUOUS
 10
36.2527199589
 20
156.6283153624
  0
VERTEX
  8
0
 62
7
  6
CONTINUOUS
 10
34.6301090222
 20
155.5133850867
  0
VERTEX
  8
0
 62
7
  6
CONTINUOUS
 10
32.9405895943
 20
154.3716122078
  0
VERTEX
  8
0
 62
7
  6
CONTINUOUS
 10
31.3378506593
 20
153.3038413285
  0
VERTEX
  8
0
 62
7
  6
CONTINUOUS
 10
29.9231813983
 20
152.3741255361
  0
VERTEX
  8
0
 62
7
  6
CONTINUOUS
 10
28.7398746777
 20
151.6048010105
  0
SEQEND
  0
LINE
  8
0
 62
7
  6
CONTINUOUS
 10
28.7398746777
 20
151.6048010105
 11
24.9632722438
 21
149.1734201386
  0
POLYLINE
  8
0
 62
7
  6
CONTINUOUS
 66
1
 70
0
  0
VERTEX
  8
0
 62
7
  6
CONTINUOUS
 10
66.8462628984
 20
203.0472572757
  0
VERTEX
  8
0
 62
7
  6
CONTINUOUS
 10
68.0436013924
 20
203.6272227416
  0
VERTEX
  8
0
 62
7
  6
CONTINUOUS
 10
69.2759037611
 20
204.2055199917
  0
VERTEX
  8
0
 62
7
  6
CONTINUOUS
 10
70.5836112041
 20
204.7984393926
  0
VERTEX
  8
0
 62
7
  6
CONTINUOUS
 10
71.846040548
 20
205.3501846921
  0
VERTEX
  8
0
 62
7
  6
CONTINUOUS
 10
72.8684797692
 20
205.7816170119
  0
VERTEX
  8
0
 62
7
  6
CONTINUOUS
 10
73.9081235388
 20
206.2062274144
  0
VERTEX
  8
0
 62
7
  6
CONTINUOUS
 10
75.2303209062
 20
206.7262675669
  0
VERTEX
  8
0
 62
7
  6
CONTINUOUS
 10
76.6244306939
 20
207.250480567
  0
VERTEX
  8
0
 62
7
  6
CONTINUOUS
 10
77.9811663685
 20
207.737008721
  0
VERTEX
  8
0
 62
7
  6
CONTINUOUS
 10
79.2559127818
 20
208.1730208516
  0
VERTEX
  8
0
 62
7
  6
CONTINUOUS
 10
80.2923746463
 20
208.5126374614
  0
VERTEX
  8
0
 62
7
  6
CONTINUOUS
 10
81.3134942438
 20
208.8345980484
  0
VERTEX
  8
0
 62
7
  6
CONTINUOUS
 10
82.5133776952
 20
209.1970941633
  0
VERTEX
  8
0
 62
7
  6
CONTINUOUS
 10
83.8280124245
 20
209.5744372817
  0
SEQEND
  0
POLYLINE
  8
0
 62
7
  6
CONTINUOUS
 66
1
 70
0
  0
VERTEX
  8
0
 62
7
  6
CONTINUOUS
 10
196.0331930028
 20
262.7146624669
  0
VERTEX
  8
0
 62
7
  6
CONTINUOUS
 10
194.1408479092
 20
261.8345067676
  0
VERTEX
  8
0
 62
7
  6
CONTINUOUS
 10
192.1934923811
 20
261.1460097977
  0
VERTEX
  8
0
 62
7
  6
CONTINUOUS
 10
190.1830565143
 20
260.6470448892
  0
VERTEX
  8
0
 62
7
  6
CONTINUOUS
 10
188.133847991
 20
260.3439420536
  0
VERTEX
  8
0
 62
7
  6
CONTINUOUS
 10
186.060127149
 20
260.2434349166
  0
VERTEX
  8
0
 62
7
  6
CONTINUOUS
 10
183.9840056988
 20
260.3422195779
  0
VERTEX
  8
0
 62
7
  6
CONTINUOUS
 10
181.9272267395
 20
260.6395239309
  0
VERTEX
  8
0
 62
7
  6
CONTINUOUS
 10
179.905158202
 20
261.1345312966
  0
VERTEX
  8
0
 62
7
  6
CONTINUOUS
 10
177.943215614
 20
261.8260410653
  0
VERTEX
  8
0
 62
7
  6
CONTINUOUS
 10
176.032961495
 20
262.7144684391
  0
SEQEND
  0
POLYLINE
  8
0
 62
7
  6
CONTINUOUS
 66
1
 70
0
  0
VERTEX
  8
0
 62
7
  6
CONTINUOUS
 10
75.866981973
 20
193.4632459474
  0
VERTEX
  8
0
 62
7
  6
CONTINUOUS
 10
70.4146893463
 20
191.1126844175
  0
VERTEX
  8
0
 62
7
  6
CONTINUOUS
 10
65.0996191939
 20
188.5780927257
  0
VERTEX
  8
0
 62
7
  6
CONTINUOUS
 10
59.9661888879
 20
185.8788354643
  0
VERTEX
  8
0
 62
7
  6
CONTINUOUS
 10
54.9237410484
 20
182.9599081777
  0
VERTEX
  8
0
 62
7
  6
CONTINUOUS
 10
49.8949888737
 20
179.7782418529
  0
VERTEX
  8
0
 62
7
  6
CONTINUOUS
 10
44.9035621777
 20
176.3740414141
  0
SEQEND
  0
POLYLINE
  8
0
 62
7
  6
CONTINUOUS
 66
1
 70
0
  0
VERTEX
  8
0
 62
7
  6
CONTINUOUS
 10
65.426881507
 20
202.329493132
  0
VERTEX
  8
0
 62
7
  6
CONTINUOUS
 10
65.4415798271
 20
202.335738523
  0
VERTEX
  8
0
 62
7
  6
CONTINUOUS
 10
65.4575597935
 20
202.3431697539
  0
VERTEX
  8
0
 62
7
  6
CONTINUOUS
 10
65.475167569
 20
202.3520954657
  0
VERTEX
  8
0
 62
7
  6
CONTINUOUS
 10
65.4933642364
 20
202.3615842551
  0
SEQEND
  0
POLYLINE
  8
0
 62
7
  6
CONTINUOUS
 66
1
 70
0
  0
VERTEX
  8
0
 62
7
  6
CONTINUOUS
 10
194.58051061
 20
297.423963834
  0
VERTEX
  8
0
 62
7
  6
CONTINUOUS
 10
194.6015930949
 20
297.4548833928
  0
VERTEX
  8
0
 62
7
  6
CONTINUOUS
 10
194.6581048254
 20
297.552505428
  0
VERTEX
  8
0
 62
7
  6
CONTINUOUS
 10
194.7476817844
 20
297.7127935175
  0
VERTEX
  8
0
 62
7
  6
CONTINUOUS
 10
195.0166491652
 20
298.204332493
  0
SEQEND
  0
POLYLINE
  8
0
 62
7
  6
CONTINUOUS
 66
1
 70
0
  0
VERTEX
  8
0
 62
7
  6
CONTINUOUS
 10
76.5733765694
 20
184.5195144438
  0
VERTEX
  8
0
 62
7
  6
CONTINUOUS
 10
72.9396454468
 20
182.6541184435
  0
VERTEX
  8
0
 62
7
  6
CONTINUOUS
 10
69.4686506829
 20
180.715292169
  0
VERTEX
  8
0
 62
7
  6
CONTINUOUS
 10
66.1654985838
 20
178.68628693
  0
VERTEX
  8
0
 62
7
  6
CONTINUOUS
 10
62.9987397231
 20
176.592327759
  0
VERTEX
  8
0
 62
7
  6
CONTINUOUS
 10
59.9694073653
 20
174.4681553789
  0
VERTEX
  8
0
 62
7
  6
CONTINUOUS
 10
56.9914460154
 20
172.2782250568
  0
VERTEX
  8
0
 62
7
  6
CONTINUOUS
 10
53.9418960661
 20
169.9643018465
  0
VERTEX
  8
0
 62
7
  6
CONTINUOUS
 10
50.9440271892
 20
167.6470728165
  0
VERTEX
  8
0
 62
7
  6
CONTINUOUS
 10
48.0869628452
 20
165.4351289545
  0
VERTEX
  8
0
 62
7
  6
CONTINUOUS
 10
45.3381830718
 20
163.2879111755
  0
SEQEND
  0
POLYLINE
  8
0
 62
7
  6
CONTINUOUS
 66
1
 70
0
  0
VERTEX
  8
0
 62
7
  6
CONTINUOUS
 10
76.5736087663
 20
184.5194872867
  0
VERTEX
  8
0
 62
7
  6
CONTINUOUS
 10
79.373086371
 20
185.8094563194
  0
VERTEX
  8
0
 62
7
  6
CONTINUOUS
 10
82.0049245205
 20
186.9324173319
  0
VERTEX
  8
0
 62
7
  6
CONTINUOUS
 10
84.4585193421
 20
187.8881894561
  0
VERTEX
  8
0
 62
7
  6
CONTINUOUS
 10
86.7432499083
 20
188.7037843855
  0
VERTEX
  8
0
 62
7
  6
CONTINUOUS
 10
88.8235287734
 20
189.3867307764
  0
VERTEX
  8
0
 62
7
  6
CONTINUOUS
 10
90.8290453018
 20
189.989091041
  0
VERTEX
  8
0
 62
7
  6
CONTINUOUS
 10
92.9369305302
 20
190.5711406527
  0
VERTEX
  8
0
 62
7
  6
CONTINUOUS
 10
94.9921905885
 20
191.0920740105
  0
VERTEX
  8
0
 62
7
  6
CONTINUOUS
 10
96.7911013339
 20
191.5117080974
  0
VERTEX
  8
0
 62
7
  6
CONTINUOUS
 10
98.6372366499
 20
191.9096973428
  0
VERTEX
  8
0
 62
7
  6
CONTINUOUS
 10
100.9070242124
 20
192.3626315214
  0
VERTEX
  8
0
 62
7
  6
CONTINUOUS
 10
103.2296815107
 20
192.7890770235
  0
VERTEX
  8
0
 62
7
  6
CONTINUOUS
 10
105.2323982364
 20
193.1307342998
  0
VERTEX
  8
0
 62
7
  6
CONTINUOUS
 10
107.2346864713
 20
193.4558853428
  0
VERTEX
  8
0
 62
7
  6
CONTINUOUS
 10
109.5161068637
 20
193.8079542564
  0
VERTEX
  8
0
 62
7
  6
CONTINUOUS
 10
111.8716755251
 20
194.1527604368
  0
VERTEX
  8
0
 62
7
  6
CONTINUOUS
 10
116.4403716992
 20
194.7934160784
  0
SEQEND
  0
POLYLINE
  8
0
 62
7
  6
CONTINUOUS
 66
1
 70
0
  0
VERTEX
  8
0
 62
7
  6
CONTINUOUS
 10
172.2243857652
 20
226.3486395356
  0
VERTEX
  8
0
 62
7
  6
CONTINUOUS
 10
171.53722207
 20
226.0856285162
  0
VERTEX
  8
0
 62
7
  6
CONTINUOUS
 10
171.0785685685
 20
225.8112413803
  0
VERTEX
  8
0
 62
7
  6
CONTINUOUS
 10
170.8639179619
 20
225.5335121994
  0
VERTEX
  8
0
 62
7
  6
CONTINUOUS
 10
170.885948985
 20
225.2935500503
  0
SEQEND
  0
POLYLINE
  8
0
 62
7
  6
CONTINUOUS
 66
1
 70
0
  0
VERTEX
  8
0
 62
7
  6
CONTINUOUS
 10
171.3473368613
 20
227.1458661039
  0
VERTEX
  8
0
 62
7
  6
CONTINUOUS
 10
171.8766222083
 20
227.3276444983
  0
VERTEX
  8
0
 62
7
  6
CONTINUOUS
 10
172.4885771266
 20
227.5009821199
  0
VERTEX
  8
0
 62
7
  6
CONTINUOUS
 10
173.1837074158
 20
227.6653885369
  0
VERTEX
  8
0
 62
7
  6
CONTINUOUS
 10
173.9597112243
 20
227.8186005538
  0
VERTEX
  8
0
 62
7
  6
CONTINUOUS
 10
174.8142891859
 20
227.9582723576
  0
VERTEX
  8
0
 62
7
  6
CONTINUOUS
 10
175.747860265
 20
228.0836918965
  0
SEQEND
  0
LINE
  8
0
 62
7
  6
CONTINUOUS
 10
47.6003425172
 20
191.3459120396
 11
40.8451428013
 21
197.8833839926
  0
POLYLINE
  8
0
 62
7
  6
CONTINUOUS
 66
1
 70
0
  0
VERTEX
  8
0
 62
7
  6
CONTINUOUS
 10
176.0326941545
 20
262.7145458382
  0
VERTEX
  8
0
 62
7
  6
CONTINUOUS
 10
176.3040122341
 20
263.221307274
  0
VERTEX
  8
0
 62
7
  6
CONTINUOUS
 10
176.5723665195
 20
263.7150740721
  0
VERTEX
  8
0
 62
7
  6
CONTINUOUS
 10
176.8190261388
 20
264.1613082892
  0
VERTEX
  8
0
 62
7
  6
CONTINUOUS
 10
177.037830412
 20
264.5490659079
  0
VERTEX
  8
0
 62
7
  6
CONTINUOUS
 10
177.2212896342
 20
264.8651091408
  0
VERTEX
  8
0
 62
7
  6
CONTINUOUS
 10
177.3628608205
 20
265.0981240385
  0
VERTEX
  8
0
 62
7
  6
CONTINUOUS
 10
177.4575995093
 20
265.2396338498
  0
VERTEX
  8
0
 62
7
  6
CONTINUOUS
 10
177.4993461202
 20
265.2806039337
  0
SEQEND
  0
LINE
  8
0
 62
7
  6
CONTINUOUS
 10
195.382236925
 20
298.8814337507
 11
196.0325957661
 21
300.0982307594
  0
LINE
  8
0
 62
7
  6
CONTINUOUS
 10
195.0166491652
 20
298.204332493
 11
195.382236925
 21
298.8814337507
  0
POLYLINE
  8
0
 62
7
  6
CONTINUOUS
 66
1
 70
0
  0
VERTEX
  8
0
 62
7
  6
CONTINUOUS
 10
361.71426811
 20
105.5054569226
  0
VERTEX
  8
0
 62
7
  6
CONTINUOUS
 10
362.2081806882
 20
105.5114818945
  0
VERTEX
  8
0
 62
7
  6
CONTINUOUS
 10
362.6958835105
 20
105.5199637913
  0
VERTEX
  8
0
 62
7
  6
CONTINUOUS
 10
363.1489941187
 20
105.5302874974
  0
VERTEX
  8
0
 62
7
  6
CONTINUOUS
 10
363.5700023845
 20
105.5423627269
  0
VERTEX
  8
0
 62
7
  6
CONTINUOUS
 10
363.958243711
 20
105.5562335235
  0
VERTEX
  8
0
 62
7
  6
CONTINUOUS
 10
364.298938768
 20
105.5715343467
  0
VERTEX
  8
0
 62
7
  6
CONTINUOUS
 10
364.5804778484
 20
105.5879088342
  0
VERTEX
  8
0
 62
7
  6
CONTINUOUS
 10
364.7919264183
 20
105.6049333986
  0
VERTEX
  8
0
 62
7
  6
CONTINUOUS
 10
364.9239956369
 20
105.6221926226
  0
VERTEX
  8
0
 62
7
  6
CONTINUOUS
 10
364.967920404
 20
105.6387270794
  0
SEQEND
  0
LINE
  8
0
 62
7
  6
CONTINUOUS
 10
362.5319387844
 20
100.3760886168
 11
361.8335028502
 21
100.3757105138
  0
LINE
  8
0
 62
7
  6
CONTINUOUS
 10
361.8335028502
 20
100.3757105138
 11
361.7507894022
 21
100.3759929298
  0
LINE
  8
0
 62
7
  6
CONTINUOUS
 10
89.5258349461
 20
-8.4151291742
 11
89.8646918248
 21
-7.260266855
  0
POLYLINE
  8
0
 62
7
  6
CONTINUOUS
 66
1
 70
0
  0
VERTEX
  8
0
 62
7
  6
CONTINUOUS
 10
88.9947678491
 20
-10.1555264678
  0
VERTEX
  8
0
 62
7
  6
CONTINUOUS
 10
89.0147547366
 20
-10.1037527232
  0
VERTEX
  8
0
 62
7
  6
CONTINUOUS
 10
89.0659783865
 20
-9.9444931957
  0
VERTEX
  8
0
 62
7
  6
CONTINUOUS
 10
89.1443137621
 20
-9.6906856953
  0
VERTEX
  8
0
 62
7
  6
CONTINUOUS
 10
89.2482037308
 20
-9.3475594871
  0
VERTEX
  8
0
 62
7
  6
CONTINUOUS
 10
89.5258349461
 20
-8.4151291742
  0
SEQEND
  0
POLYLINE
  8
0
 62
7
  6
CONTINUOUS
 66
1
 70
0
  0
VERTEX
  8
0
 62
7
  6
CONTINUOUS
 10
168.7663570588
 20
188.7154381725
  0
VERTEX
  8
0
 62
7
  6
CONTINUOUS
 10
166.0960857204
 20
186.7798368763
  0
VERTEX
  8
0
 62
7
  6
CONTINUOUS
 10
163.6452498999
 20
184.5835542416
  0
VERTEX
  8
0
 62
7
  6
CONTINUOUS
 10
161.444085199
 20
182.1537860815
  0
VERTEX
  8
0
 62
7
  6
CONTINUOUS
 10
159.5049223938
 20
179.5079496066
  0
VERTEX
  8
0
 62
7
  6
CONTINUOUS
 10
157.8414513927
 20
176.6590019869
  0
VERTEX
  8
0
 62
7
  6
CONTINUOUS
 10
156.4815419367
 20
173.6474912623
  0
VERTEX
  8
0
 62
7
  6
CONTINUOUS
 10
155.4429331505
 20
170.511146899
  0
VERTEX
  8
0
 62
7
  6
CONTINUOUS
 10
154.7374973979
 20
167.2878131928
  0
VERTEX
  8
0
 62
7
  6
CONTINUOUS
 10
154.3708664765
 20
164.0189314836
  0
VERTEX
  8
0
 62
7
  6
CONTINUOUS
 10
154.3467787585
 20
160.7365665763
  0
SEQEND
  0
POLYLINE
  8
0
 62
7
  6
CONTINUOUS
 66
1
 70
0
  0
VERTEX
  8
0
 62
7
  6
CONTINUOUS
 10
11.389640675
 20
84.8841754961
  0
VERTEX
  8
0
 62
7
  6
CONTINUOUS
 10
10.8891325956
 20
84.8188023186
  0
VERTEX
  8
0
 62
7
  6
CONTINUOUS
 10
10.3875396143
 20
84.7555265175
  0
VERTEX
  8
0
 62
7
  6
CONTINUOUS
 10
9.9138463054
 20
84.6980154598
  0
VERTEX
  8
0
 62
7
  6
CONTINUOUS
 10
9.4778215083
 20
84.6474095624
  0
VERTEX
  8
0
 62
7
  6
CONTINUOUS
 10
9.0900036991
 20
84.6049224307
  0
VERTEX
  8
0
 62
7
  6
CONTINUOUS
 10
8.7620549472
 20
84.5718276127
  0
VERTEX
  8
0
 62
7
  6
CONTINUOUS
 10
8.5028350673
 20
84.5490159121
  0
VERTEX
  8
0
 62
7
  6
CONTINUOUS
 10
8.3196520742
 20
84.5371371315
  0
VERTEX
  8
0
 62
7
  6
CONTINUOUS
 10
8.2181217358
 20
84.5365583539
  0
VERTEX
  8
0
 62
7
  6
CONTINUOUS
 10
8.1971744654
 20
84.5427080565
  0
SEQEND
  0
POLYLINE
  8
0
 62
7
  6
CONTINUOUS
 66
1
 70
0
  0
VERTEX
  8
0
 62
7
  6
CONTINUOUS
 10
360.6722958265
 20
84.8832343015
  0
VERTEX
  8
0
 62
7
  6
CONTINUOUS
 10
361.1743756164
 20
84.8178941497
  0
VERTEX
  8
0
 62
7
  6
CONTINUOUS
 10
361.6767924779
 20
84.7547311017
  0
VERTEX
  8
0
 62
7
  6
CONTINUOUS
 10
362.1500773168
 20
84.6974794135
  0
VERTEX
  8
0
 62
7
  6
CONTINUOUS
 10
362.5853153706
 20
84.647152697
  0
VERTEX
  8
0
 62
7
  6
CONTINUOUS
 10
362.9728724462
 20
84.6048527043
  0
VERTEX
  8
0
 62
7
  6
CONTINUOUS
 10
363.3006124713
 20
84.5719085036
  0
VERTEX
  8
0
 62
7
  6
CONTINUOUS
 10
363.5595564507
 20
84.5492153139
  0
VERTEX
  8
0
 62
7
  6
CONTINUOUS
 10
363.7425273664
 20
84.5374083644
  0
VERTEX
  8
0
 62
7
  6
CONTINUOUS
 10
363.8438700123
 20
84.5368388966
  0
VERTEX
  8
0
 62
7
  6
CONTINUOUS
 10
363.8649029167
 20
84.5429585845
  0
SEQEND
  0
POLYLINE
  8
0
 62
7
  6
CONTINUOUS
 66
1
 70
0
  0
VERTEX
  8
0
 62
7
  6
CONTINUOUS
 10
154.3467653525
 20
160.7365665915
  0
VERTEX
  8
0
 62
7
  6
CONTINUOUS
 10
154.6676719114
 20
157.4253877192
  0
VERTEX
  8
0
 62
7
  6
CONTINUOUS
 10
155.3333641469
 20
154.1687459485
  0
VERTEX
  8
0
 62
7
  6
CONTINUOUS
 10
156.3393645701
 20
151.0008396949
  0
VERTEX
  8
0
 62
7
  6
CONTINUOUS
 10
157.6711927426
 20
147.9568214925
  0
VERTEX
  8
0
 62
7
  6
CONTINUOUS
 10
159.3110248143
 20
145.0675599026
  0
VERTEX
  8
0
 62
7
  6
CONTINUOUS
 10
161.2443067591
 20
142.3661335168
  0
VERTEX
  8
0
 62
7
  6
CONTINUOUS
 10
163.4517987919
 20
139.8838330384
  0
VERTEX
  8
0
 62
7
  6
CONTINUOUS
 10
165.9075949046
 20
137.6470948064
  0
VERTEX
  8
0
 62
7
  6
CONTINUOUS
 10
168.5837777801
 20
135.6791324569
  0
VERTEX
  8
0
 62
7
  6
CONTINUOUS
 10
171.4516401237
 20
134.0019379021
  0
VERTEX
  8
0
 62
7
  6
CONTINUOUS
 10
174.4794278896
 20
132.6329790772
  0
VERTEX
  8
0
 62
7
  6
CONTINUOUS
 10
177.6351440216
 20
131.5890548788
  0
VERTEX
  8
0
 62
7
  6
CONTINUOUS
 10
180.8841684996
 20
130.8837095783
  0
VERTEX
  8
0
 62
7
  6
CONTINUOUS
 10
184.1903894474
 20
130.5229608428
  0
VERTEX
  8
0
 62
7
  6
CONTINUOUS
 10
187.5173622918
 20
130.508341058
  0
VERTEX
  8
0
 62
7
  6
CONTINUOUS
 10
190.8293611364
 20
130.8429643302
  0
VERTEX
  8
0
 62
7
  6
CONTINUOUS
 10
194.0891998339
 20
131.525030034
  0
VERTEX
  8
0
 62
7
  6
CONTINUOUS
 10
197.2610979051
 20
132.5470040674
  0
VERTEX
  8
0
 62
7
  6
CONTINUOUS
 10
200.3089041449
 20
133.8984658395
  0
VERTEX
  8
0
 62
7
  6
CONTINUOUS
 10
203.2008420456
 20
135.5628705536
  0
SEQEND
  0
LINE
  8
0
 62
7
  6
CONTINUOUS
 10
201.1756611676
 20
225.2870542547
 11
201.1779529606
 21
225.2915074012
  0
LINE
  8
0
 62
7
  6
CONTINUOUS
 10
201.176648852
 20
225.2867849983
 11
201.1943706763
 21
225.3189688619
  0
POLYLINE
  8
0
 62
7
  6
CONTINUOUS
 66
1
 70
0
  0
VERTEX
  8
0
 62
7
  6
CONTINUOUS
 10
354.9224172499
 20
149.9323349695
  0
VERTEX
  8
0
 62
7
  6
CONTINUOUS
 10
353.7584611156
 20
149.8080768856
  0
VERTEX
  8
0
 62
7
  6
CONTINUOUS
 10
352.6137653314
 20
149.6885813736
  0
VERTEX
  8
0
 62
7
  6
CONTINUOUS
 10
351.5191349709
 20
149.57704883
  0
VERTEX
  8
0
 62
7
  6
CONTINUOUS
 10
350.4781702047
 20
149.4738169062
  0
VERTEX
  8
0
 62
7
  6
CONTINUOUS
 10
349.4986297496
 20
149.3797035338
  0
VERTEX
  8
0
 62
7
  6
CONTINUOUS
 10
348.5995165048
 20
149.2966053467
  0
VERTEX
  8
0
 62
7
  6
CONTINUOUS
 10
347.7938916329
 20
149.2257973626
  0
VERTEX
  8
0
 62
7
  6
CONTINUOUS
 10
347.1024777395
 20
149.1691216852
  0
SEQEND
  0
POLYLINE
  8
0
 62
7
  6
CONTINUOUS
 66
1
 70
0
  0
VERTEX
  8
0
 62
7
  6
CONTINUOUS
 10
17.1436594383
 20
149.9380541881
  0
VERTEX
  8
0
 62
7
  6
CONTINUOUS
 10
18.3075506386
 20
149.8136238713
  0
VERTEX
  8
0
 62
7
  6
CONTINUOUS
 10
19.452206623
 20
149.6939547988
  0
VERTEX
  8
0
 62
7
  6
CONTINUOUS
 10
20.5468291777
 20
149.5822516381
  0
VERTEX
  8
0
 62
7
  6
CONTINUOUS
 10
21.5877977951
 20
149.478854862
  0
VERTEX
  8
0
 62
7
  6
CONTINUOUS
 10
22.567389651
 20
149.3845803288
  0
VERTEX
  8
0
 62
7
  6
CONTINUOUS
 10
23.4664436445
 20
149.3013425838
  0
VERTEX
  8
0
 62
7
  6
CONTINUOUS
 10
24.2718104152
 20
149.2304247432
  0
VERTEX
  8
0
 62
7
  6
CONTINUOUS
 10
24.9629144731
 20
149.173656417
  0
SEQEND
  0
LINE
  8
0
 62
7
  6
CONTINUOUS
 10
352.8607322351
 20
52.9266695684
 11
351.9474349664
 21
53.3438000371
  0
LINE
  8
0
 62
7
  6
CONTINUOUS
 10
353.6705125564
 20
52.5519852183
 11
352.8607322351
 21
52.9266695684
  0
POLYLINE
  8
0
 62
7
  6
CONTINUOUS
 66
1
 70
0
  0
VERTEX
  8
0
 62
7
  6
CONTINUOUS
 10
175.9384621698
 20
210.5298761946
  0
VERTEX
  8
0
 62
7
  6
CONTINUOUS
 10
175.9097388337
 20
211.7997216749
  0
VERTEX
  8
0
 62
7
  6
CONTINUOUS
 10
175.8931251766
 20
212.948387131
  0
VERTEX
  8
0
 62
7
  6
CONTINUOUS
 10
175.8935450832
 20
213.9668633558
  0
VERTEX
  8
0
 62
7
  6
CONTINUOUS
 10
175.9181223071
 20
214.760957424
  0
VERTEX
  8
0
 62
7
  6
CONTINUOUS
 10
175.9676273424
 20
215.2508007997
  0
VERTEX
  8
0
 62
7
  6
CONTINUOUS
 10
176.0323100379
 20
215.4878479095
  0
SEQEND
  0
LINE
  8
0
 62
7
  6
CONTINUOUS
 10
176.0325671402
 20
-19.3461489807
 11
176.0325944215
 21
-21.7388285829
  0
LINE
  8
0
 62
7
  6
CONTINUOUS
 10
176.0327004702
 20
228.1168238663
 11
176.0327008329
 21
228.9036612372
  0
LINE
  8
0
 62
7
  6
CONTINUOUS
 10
176.0327044365
 20
195.6194322686
 11
176.0327044361
 21
198.3599976281
  0
LINE
  8
0
 62
7
  6
CONTINUOUS
 10
176.0327052705
 20
-11.2996511356
 11
176.0327400938
 21
128.5400195659
  0
LINE
  8
0
 62
7
  6
CONTINUOUS
 10
176.0325697669
 20
300.09766365
 11
176.0327044711
 21
328.100070444
  0
LINE
  8
0
 62
7
  6
CONTINUOUS
 10
176.032685711
 20
238.949387089
 11
176.032961495
 21
262.7144684391
  0
POLYLINE
  8
0
 62
7
  6
CONTINUOUS
 66
1
 70
0
  0
VERTEX
  8
0
 62
7
  6
CONTINUOUS
 10
186.0327044154
 20
-24.6756185111
  0
VERTEX
  8
0
 62
7
  6
CONTINUOUS
 10
186.0326146759
 20
-23.5928751929
  0
VERTEX
  8
0
 62
7
  6
CONTINUOUS
 10
186.0327044273
 20
-22.6880397225
  0
SEQEND
  0
LINE
  8
0
 62
7
  6
CONTINUOUS
 10
176.0327043983
 20
215.4883725724
 11
176.0397407528
 21
223.1000704085
  0
POLYLINE
  8
0
 62
7
  6
CONTINUOUS
 66
1
 70
0
  0
VERTEX
  8
0
 62
7
  6
CONTINUOUS
 10
175.8426466729
 20
-19.340225493
  0
VERTEX
  8
0
 62
7
  6
CONTINUOUS
 10
175.8621255987
 20
-18.2360289216
  0
VERTEX
  8
0
 62
7
  6
CONTINUOUS
 10
175.8833211958
 20
-17.1372439716
  0
VERTEX
  8
0
 62
7
  6
CONTINUOUS
 10
175.9059252681
 20
-16.0592790292
  0
VERTEX
  8
0
 62
7
  6
CONTINUOUS
 10
175.9297712196
 20
-15.008652313
  0
VERTEX
  8
0
 62
7
  6
CONTINUOUS
 10
175.9547170634
 20
-13.99183155
  0
VERTEX
  8
0
 62
7
  6
CONTINUOUS
 10
175.9803914615
 20
-13.0257371021
  0
VERTEX
  8
0
 62
7
  6
CONTINUOUS
 10
176.006442293
 20
-12.1244745157
  0
VERTEX
  8
0
 62
7
  6
CONTINUOUS
 10
176.0325600424
 20
-11.2995079375
  0
SEQEND
  0
POLYLINE
  8
0
 62
7
  6
CONTINUOUS
 66
1
 70
0
  0
VERTEX
  8
0
 62
7
  6
CONTINUOUS
 10
176.0325689734
 20
-19.3461496662
  0
VERTEX
  8
0
 62
7
  6
CONTINUOUS
 10
176.0520486358
 20
-18.2416819584
  0
VERTEX
  8
0
 62
7
  6
CONTINUOUS
 10
176.0732218105
 20
-17.1424953086
  0
VERTEX
  8
0
 62
7
  6
CONTINUOUS
 10
176.0957734335
 20
-16.0639927584
  0
VERTEX
  8
0
 62
7
  6
CONTINUOUS
 10
176.1195582006
 20
-15.0127841195
  0
VERTEX
  8
0
 62
7
  6
CONTINUOUS
 10
176.1444546097
 20
-13.995424377
  0
VERTEX
  8
0
 62
7
  6
CONTINUOUS
 10
176.1700850246
 20
-13.028835519
  0
VERTEX
  8
0
 62
7
  6
CONTINUOUS
 10
176.19609806
 20
-12.1271461215
  0
VERTEX
  8
0
 62
7
  6
CONTINUOUS
 10
176.2221832867
 20
-11.3018388985
  0
SEQEND
  0
POLYLINE
  8
0
 62
7
  6
CONTINUOUS
 66
1
 70
0
  0
VERTEX
  8
0
 62
7
  6
CONTINUOUS
 10
176.0454167848
 20
198.7136379839
  0
VERTEX
  8
0
 62
7
  6
CONTINUOUS
 10
176.0786296937
 20
199.9483606551
  0
VERTEX
  8
0
 62
7
  6
CONTINUOUS
 10
176.0922989094
 20
201.3550669075
  0
VERTEX
  8
0
 62
7
  6
CONTINUOUS
 10
176.0887464518
 20
202.938046363
  0
VERTEX
  8
0
 62
7
  6
CONTINUOUS
 10
176.0727840743
 20
204.5700139727
  0
VERTEX
  8
0
 62
7
  6
CONTINUOUS
 10
176.0434065045
 20
206.1700081916
  0
VERTEX
  8
0
 62
7
  6
CONTINUOUS
 10
176.008681659
 20
207.7196326578
  0
VERTEX
  8
0
 62
7
  6
CONTINUOUS
 10
175.9384621698
 20
210.5298761946
  0
SEQEND
  0
POLYLINE
  8
0
 62
7
  6
CONTINUOUS
 66
1
 70
0
  0
VERTEX
  8
0
 62
7
  6
CONTINUOUS
 10
176.0326935554
 20
238.9508905374
  0
VERTEX
  8
0
 62
7
  6
CONTINUOUS
 10
175.9905322943
 20
237.5465112119
  0
VERTEX
  8
0
 62
7
  6
CONTINUOUS
 10
175.9541898545
 20
236.1830390057
  0
VERTEX
  8
0
 62
7
  6
CONTINUOUS
 10
175.9243094311
 20
234.8925612625
  0
VERTEX
  8
0
 62
7
  6
CONTINUOUS
 10
175.9007486559
 20
233.6754245875
  0
VERTEX
  8
0
 62
7
  6
CONTINUOUS
 10
175.8836789918
 20
232.5356184835
  0
VERTEX
  8
0
 62
7
  6
CONTINUOUS
 10
175.8737617111
 20
231.5038841997
  0
VERTEX
  8
0
 62
7
  6
CONTINUOUS
 10
175.8714146647
 20
230.6028497643
  0
VERTEX
  8
0
 62
7
  6
CONTINUOUS
 10
175.8769318201
 20
229.856846605
  0
VERTEX
  8
0
 62
7
  6
CONTINUOUS
 10
175.8903951774
 20
229.2865607591
  0
VERTEX
  8
0
 62
7
  6
CONTINUOUS
 10
175.9117347142
 20
228.9080476352
  0
SEQEND
  0
POLYLINE
  8
0
 62
7
  6
CONTINUOUS
 66
1
 70
0
  0
VERTEX
  8
0
 62
7
  6
CONTINUOUS
 10
176.1599740629
 20
238.9475228221
  0
VERTEX
  8
0
 62
7
  6
CONTINUOUS
 10
176.1171281418
 20
237.5427985874
  0
VERTEX
  8
0
 62
7
  6
CONTINUOUS
 10
176.0801192923
 20
236.1789983742
  0
VERTEX
  8
0
 62
7
  6
CONTINUOUS
 10
176.0495987546
 20
234.8882333052
  0
VERTEX
  8
0
 62
7
  6
CONTINUOUS
 10
176.0254013047
 20
233.6708513701
  0
VERTEX
  8
0
 62
7
  6
CONTINUOUS
 10
176.0076696691
 20
232.5308476671
  0
VERTEX
  8
0
 62
7
  6
CONTINUOUS
 10
175.9970917519
 20
231.498985699
  0
VERTEX
  8
0
 62
7
  6
CONTINUOUS
 10
175.994097122
 20
230.5979104411
  0
VERTEX
  8
0
 62
7
  6
CONTINUOUS
 10
175.9989951395
 20
229.8519719735
  0
VERTEX
  8
0
 62
7
  6
CONTINUOUS
 10
176.011889118
 20
229.2818697393
  0
VERTEX
  8
0
 62
7
  6
CONTINUOUS
 10
176.0327015862
 20
228.9036675903
  0
SEQEND
  0
POLYLINE
  8
0
 62
7
  6
CONTINUOUS
 66
1
 70
0
  0
VERTEX
  8
0
 62
7
  6
CONTINUOUS
 10
176.0325477826
 20
198.3599506336
  0
VERTEX
  8
0
 62
7
  6
CONTINUOUS
 10
176.0348472908
 20
198.4195871933
  0
VERTEX
  8
0
 62
7
  6
CONTINUOUS
 10
176.0453799486
 20
198.7136451841
  0
SEQEND
  0
POLYLINE
  8
0
 62
7
  6
CONTINUOUS
 66
1
 70
0
  0
VERTEX
  8
0
 62
7
  6
CONTINUOUS
 10
195.4475903699
 20
227.133344481
  0
VERTEX
  8
0
 62
7
  6
CONTINUOUS
 10
195.4803595831
 20
227.3628535715
  0
VERTEX
  8
0
 62
7
  6
CONTINUOUS
 10
195.5464783215
 20
227.5857948713
  0
VERTEX
  8
0
 62
7
  6
CONTINUOUS
 10
195.6398779808
 20
227.7798918488
  0
VERTEX
  8
0
 62
7
  6
CONTINUOUS
 10
195.7562900797
 20
227.938465679
  0
VERTEX
  8
0
 62
7
  6
CONTINUOUS
 10
195.8917494216
 20
228.0543787031
  0
VERTEX
  8
0
 62
7
  6
CONTINUOUS
 10
196.0326985834
 20
228.116932016
  0
SEQEND
  0
POLYLINE
  8
0
 62
7
  6
CONTINUOUS
 66
1
 70
0
  0
VERTEX
  8
0
 62
7
  6
CONTINUOUS
 10
195.7140438425
 20
227.1000704097
  0
VERTEX
  8
0
 62
7
  6
CONTINUOUS
 10
195.7468207181
 20
227.3252157242
  0
VERTEX
  8
0
 62
7
  6
CONTINUOUS
 10
195.8131766888
 20
227.5457018259
  0
VERTEX
  8
0
 62
7
  6
CONTINUOUS
 10
195.9076743905
 20
227.7394914065
  0
VERTEX
  8
0
 62
7
  6
CONTINUOUS
 10
196.027151217
 20
227.9001359752
  0
VERTEX
  8
0
 62
7
  6
CONTINUOUS
 10
196.1685743706
 20
228.019299953
  0
VERTEX
  8
0
 62
7
  6
CONTINUOUS
 10
196.3175486049
 20
228.0836918966
  0
SEQEND
  0
POLYLINE
  8
0
 62
7
  6
CONTINUOUS
 66
1
 70
0
  0
VERTEX
  8
0
 62
7
  6
CONTINUOUS
 10
199.8410231042
 20
226.3486395356
  0
VERTEX
  8
0
 62
7
  6
CONTINUOUS
 10
199.6742305328
 20
225.6910776802
  0
VERTEX
  8
0
 62
7
  6
CONTINUOUS
 10
199.4101575584
 20
225.076653391
  0
VERTEX
  8
0
 62
7
  6
CONTINUOUS
 10
199.0590939041
 20
224.5248472663
  0
VERTEX
  8
0
 62
7
  6
CONTINUOUS
 10
198.6270616597
 20
224.0443123472
  0
VERTEX
  8
0
 62
7
  6
CONTINUOUS
 10
198.1179335566
 20
223.6452336413
  0
VERTEX
  8
0
 62
7
  6
CONTINUOUS
 10
197.5484640207
 20
223.3470537687
  0
VERTEX
  8
0
 62
7
  6
CONTINUOUS
 10
196.9373084148
 20
223.1627487491
  0
VERTEX
  8
0
 62
7
  6
CONTINUOUS
 10
196.3019353454
 20
223.1000704085
  0
SEQEND
  0
POLYLINE
  8
0
 62
7
  6
CONTINUOUS
 66
1
 70
0
  0
VERTEX
  8
0
 62
7
  6
CONTINUOUS
 10
199.8410231042
 20
226.3486395356
  0
VERTEX
  8
0
 62
7
  6
CONTINUOUS
 10
199.9100279638
 20
226.5478283784
  0
VERTEX
  8
0
 62
7
  6
CONTINUOUS
 10
200.0187717154
 20
226.7346519606
  0
VERTEX
  8
0
 62
7
  6
CONTINUOUS
 10
200.1591711501
 20
226.8930530144
  0
VERTEX
  8
0
 62
7
  6
CONTINUOUS
 10
200.3272134823
 20
227.0186432483
  0
VERTEX
  8
0
 62
7
  6
CONTINUOUS
 10
200.5190135879
 20
227.1056898076
  0
VERTEX
  8
0
 62
7
  6
CONTINUOUS
 10
200.7180720081
 20
227.1458661039
  0
SEQEND
  0
POLYLINE
  8
0
 62
7
  6
CONTINUOUS
 66
1
 70
0
  0
VERTEX
  8
0
 62
7
  6
CONTINUOUS
 10
17.2447598306
 20
51.9924826105
  0
VERTEX
  8
0
 62
7
  6
CONTINUOUS
 10
17.2779385431
 20
52.0147107704
  0
VERTEX
  8
0
 62
7
  6
CONTINUOUS
 10
17.3820354657
 20
52.0690434712
  0
VERTEX
  8
0
 62
7
  6
CONTINUOUS
 10
17.5478465075
 20
52.1508772794
  0
VERTEX
  8
0
 62
7
  6
CONTINUOUS
 10
17.7722415347
 20
52.2588278568
  0
SEQEND
  0
POLYLINE
  8
0
 62
7
  6
CONTINUOUS
 66
1
 70
0
  0
VERTEX
  8
0
 62
7
  6
CONTINUOUS
 10
176.351365027
 20
227.1000704085
  0
VERTEX
  8
0
 62
7
  6
CONTINUOUS
 10
176.3185881514
 20
227.3252157237
  0
VERTEX
  8
0
 62
7
  6
CONTINUOUS
 10
176.2522321807
 20
227.5457018259
  0
VERTEX
  8
0
 62
7
  6
CONTINUOUS
 10
176.1577344788
 20
227.7394914066
  0
VERTEX
  8
0
 62
7
  6
CONTINUOUS
 10
176.0382576524
 20
227.9001359752
  0
VERTEX
  8
0
 62
7
  6
CONTINUOUS
 10
175.896834499
 20
228.0192999529
  0
VERTEX
  8
0
 62
7
  6
CONTINUOUS
 10
175.747860265
 20
228.0836918965
  0
SEQEND
  0
POLYLINE
  8
0
 62
7
  6
CONTINUOUS
 66
1
 70
0
  0
VERTEX
  8
0
 62
7
  6
CONTINUOUS
 10
176.6182833081
 20
227.1266965601
  0
VERTEX
  8
0
 62
7
  6
CONTINUOUS
 10
176.586610337
 20
227.3555922932
  0
VERTEX
  8
0
 62
7
  6
CONTINUOUS
 10
176.5217520653
 20
227.5784095828
  0
VERTEX
  8
0
 62
7
  6
CONTINUOUS
 10
176.4299527753
 20
227.7724113928
  0
VERTEX
  8
0
 62
7
  6
CONTINUOUS
 10
176.3143487808
 20
227.9327036446
  0
VERTEX
  8
0
 62
7
  6
CONTINUOUS
 10
176.1772282899
 20
228.0520882073
  0
VERTEX
  8
0
 62
7
  6
CONTINUOUS
 10
176.0327041189
 20
228.1169436238
  0
SEQEND
  0
POLYLINE
  8
0
 62
7
  6
CONTINUOUS
 66
1
 70
0
  0
VERTEX
  8
0
 62
7
  6
CONTINUOUS
 10
196.0327604687
 20
198.3636580588
  0
VERTEX
  8
0
 62
7
  6
CONTINUOUS
 10
196.0055196792
 20
199.1934983906
  0
VERTEX
  8
0
 62
7
  6
CONTINUOUS
 10
195.9868378497
 20
200.0460205124
  0
VERTEX
  8
0
 62
7
  6
CONTINUOUS
 10
195.9758342736
 20
200.9153550947
  0
VERTEX
  8
0
 62
7
  6
CONTINUOUS
 10
195.9716135524
 20
201.7991280785
  0
VERTEX
  8
0
 62
7
  6
CONTINUOUS
 10
195.9733644306
 20
202.6951746246
  0
VERTEX
  8
0
 62
7
  6
CONTINUOUS
 10
195.9803008066
 20
203.5978955271
  0
SEQEND
  0
LINE
  8
0
 62
7
  6
CONTINUOUS
 10
195.9960521986
 20
-19.3473391739
 11
196.0695390964
 21
-21.7356526032
  0
POLYLINE
  8
0
 62
7
  6
CONTINUOUS
 66
1
 70
0
  0
VERTEX
  8
0
 62
7
  6
CONTINUOUS
 10
195.9054338937
 20
238.9475227976
  0
VERTEX
  8
0
 62
7
  6
CONTINUOUS
 10
195.948179375
 20
237.5427859711
  0
VERTEX
  8
0
 62
7
  6
CONTINUOUS
 10
195.9851282058
 20
236.1789774704
  0
VERTEX
  8
0
 62
7
  6
CONTINUOUS
 10
196.0156394054
 20
234.8882090576
  0
VERTEX
  8
0
 62
7
  6
CONTINUOUS
 10
196.0398477601
 20
233.6708271616
  0
VERTEX
  8
0
 62
7
  6
CONTINUOUS
 10
196.0575801313
 20
232.5308253407
  0
VERTEX
  8
0
 62
7
  6
CONTINUOUS
 10
196.0681587733
 20
231.4989666882
  0
VERTEX
  8
0
 62
7
  6
CONTINUOUS
 10
196.0711541343
 20
230.5978954054
  0
VERTEX
  8
0
 62
7
  6
CONTINUOUS
 10
196.0662568554
 20
229.851960904
  0
VERTEX
  8
0
 62
7
  6
CONTINUOUS
 10
196.0533635777
 20
229.2818619628
  0
VERTEX
  8
0
 62
7
  6
CONTINUOUS
 10
196.0325518847
 20
228.9036620987
  0
SEQEND
  0
POLYLINE
  8
0
 62
7
  6
CONTINUOUS
 66
1
 70
0
  0
VERTEX
  8
0
 62
7
  6
CONTINUOUS
 10
196.0327044356
 20
238.9512758555
  0
VERTEX
  8
0
 62
7
  6
CONTINUOUS
 10
196.0751148142
 20
237.5466852356
  0
VERTEX
  8
0
 62
7
  6
CONTINUOUS
 10
196.1116053369
 20
236.183093071
  0
VERTEX
  8
0
 62
7
  6
CONTINUOUS
 10
196.141509037
 20
234.8926087939
  0
VERTEX
  8
0
 62
7
  6
CONTINUOUS
 10
196.1650438617
 20
233.6755019836
  0
VERTEX
  8
0
 62
7
  6
CONTINUOUS
 10
196.1821126658
 20
232.5356963593
  0
VERTEX
  8
0
 62
7
  6
CONTINUOUS
 10
196.192029335
 20
231.503955233
  0
VERTEX
  8
0
 62
7
  6
CONTINUOUS
 10
196.1943759328
 20
230.6029078485
  0
VERTEX
  8
0
 62
7
  6
CONTINUOUS
 10
196.1888583704
 20
229.8568883915
  0
VERTEX
  8
0
 62
7
  6
CONTINUOUS
 10
196.1753944973
 20
229.2865862382
  0
VERTEX
  8
0
 62
7
  6
CONTINUOUS
 10
196.1540542789
 20
228.9080611838
  0
SEQEND
  0
POLYLINE
  8
0
 62
7
  6
CONTINUOUS
 66
1
 70
0
  0
VERTEX
  8
0
 62
7
  6
CONTINUOUS
 10
196.0328418285
 20
-19.34615367
  0
VERTEX
  8
0
 62
7
  6
CONTINUOUS
 10
196.0133643748
 20
-18.2416861771
  0
VERTEX
  8
0
 62
7
  6
CONTINUOUS
 10
195.992192532
 20
-17.1424998132
  0
VERTEX
  8
0
 62
7
  6
CONTINUOUS
 10
195.9696411441
 20
-16.0639976088
  0
VERTEX
  8
0
 62
7
  6
CONTINUOUS
 10
195.9458561747
 20
-15.0127893438
  0
VERTEX
  8
0
 62
7
  6
CONTINUOUS
 10
195.9209597852
 20
-13.9954299619
  0
VERTEX
  8
0
 62
7
  6
CONTINUOUS
 10
195.8953293915
 20
-13.028841421
  0
VERTEX
  8
0
 62
7
  6
CONTINUOUS
 10
195.8693163785
 20
-12.1271522581
  0
VERTEX
  8
0
 62
7
  6
CONTINUOUS
 10
195.8432311742
 20
-11.3018451415
  0
SEQEND
  0
POLYLINE
  8
0
 62
7
  6
CONTINUOUS
 66
1
 70
0
  0
VERTEX
  8
0
 62
7
  6
CONTINUOUS
 10
196.2227402779
 20
-19.339814593
  0
VERTEX
  8
0
 62
7
  6
CONTINUOUS
 10
196.203192842
 20
-18.2358930887
  0
VERTEX
  8
0
 62
7
  6
CONTINUOUS
 10
196.1819566283
 20
-17.1372752903
  0
VERTEX
  8
0
 62
7
  6
CONTINUOUS
 10
196.1593459807
 20
-16.0593408763
  0
VERTEX
  8
0
 62
7
  6
CONTINUOUS
 10
196.1355068389
 20
-15.0086889809
  0
VERTEX
  8
0
 62
7
  6
CONTINUOUS
 10
196.1105609558
 20
-13.991863947
  0
VERTEX
  8
0
 62
7
  6
CONTINUOUS
 10
196.0848864064
 20
-13.025761584
  0
VERTEX
  8
0
 62
7
  6
CONTINUOUS
 10
196.0588353172
 20
-12.1244885588
  0
VERTEX
  8
0
 62
7
  6
CONTINUOUS
 10
196.03271721
 20
-11.299510123
  0
SEQEND
  0
POLYLINE
  8
0
 62
7
  6
CONTINUOUS
 66
1
 70
0
  0
VERTEX
  8
0
 62
7
  6
CONTINUOUS
 10
196.1734203635
 20
213.2173453949
  0
VERTEX
  8
0
 62
7
  6
CONTINUOUS
 10
196.1729483898
 20
213.8069753205
  0
VERTEX
  8
0
 62
7
  6
CONTINUOUS
 10
196.1647612838
 20
214.3199309499
  0
VERTEX
  8
0
 62
7
  6
CONTINUOUS
 10
196.1478509275
 20
214.7495990668
  0
VERTEX
  8
0
 62
7
  6
CONTINUOUS
 10
196.1210772035
 20
215.0918832505
  0
VERTEX
  8
0
 62
7
  6
CONTINUOUS
 10
196.0831037421
 20
215.3409601029
  0
VERTEX
  8
0
 62
7
  6
CONTINUOUS
 10
196.0327067567
 20
215.4883726173
  0
SEQEND
  0
LINE
  8
0
 62
7
  6
CONTINUOUS
 10
196.0326688285
 20
128.5400188157
 11
196.0327034897
 21
-11.2996216976
  0
LINE
  8
0
 62
7
  6
CONTINUOUS
 10
196.0327044351
 20
198.3636598622
 11
196.0327044333
 21
195.6194322917
  0
LINE
  8
0
 62
7
  6
CONTINUOUS
 10
196.0327043983
 20
328.1000704441
 11
196.032560437
 21
300.0978116848
  0
LINE
  8
0
 62
7
  6
CONTINUOUS
 10
196.0331930028
 20
262.7146624669
 11
196.0331830073
 21
238.9511100961
  0
LINE
  8
0
 62
7
  6
CONTINUOUS
 10
196.0327075066
 20
228.9036800325
 11
196.0326360361
 21
228.1168216753
  0
LINE
  8
0
 62
7
  6
CONTINUOUS
 10
196.0290474125
 20
223.1000704085
 11
196.0327044348
 21
215.4883725714
  0
POLYLINE
  8
0
 62
7
  6
CONTINUOUS
 66
1
 70
0
  0
VERTEX
  8
0
 62
7
  6
CONTINUOUS
 10
195.9803008066
 20
203.5978955271
  0
VERTEX
  8
0
 62
7
  6
CONTINUOUS
 10
196.0058208177
 20
205.3649439042
  0
VERTEX
  8
0
 62
7
  6
CONTINUOUS
 10
196.042895022
 20
207.1370790592
  0
SEQEND
  0
POLYLINE
  8
0
 62
7
  6
CONTINUOUS
 66
1
 70
0
  0
VERTEX
  8
0
 62
7
  6
CONTINUOUS
 10
195.8111770894
 20
210.5301021919
  0
VERTEX
  8
0
 62
7
  6
CONTINUOUS
 10
195.7495171884
 20
207.9301585465
  0
VERTEX
  8
0
 62
7
  6
CONTINUOUS
 10
195.7185466047
 20
206.5364927834
  0
VERTEX
  8
0
 62
7
  6
CONTINUOUS
 10
195.6920834556
 20
205.1340409514
  0
VERTEX
  8
0
 62
7
  6
CONTINUOUS
 10
195.6724963049
 20
203.7202753891
  0
VERTEX
  8
0
 62
7
  6
CONTINUOUS
 10
195.6625844703
 20
202.284889666
  0
VERTEX
  8
0
 62
7
  6
CONTINUOUS
 10
195.6660171047
 20
200.8882314918
  0
VERTEX
  8
0
 62
7
  6
CONTINUOUS
 10
195.6848179166
 20
199.5814840779
  0
VERTEX
  8
0
 62
7
  6
CONTINUOUS
 10
195.7202898486
 20
198.3645444881
  0
SEQEND
  0
POLYLINE
  8
0
 62
7
  6
CONTINUOUS
 66
1
 70
0
  0
VERTEX
  8
0
 62
7
  6
CONTINUOUS
 10
196.042895022
 20
207.1370790592
  0
VERTEX
  8
0
 62
7
  6
CONTINUOUS
 10
196.1268786387
 20
210.5249318771
  0
VERTEX
  8
0
 62
7
  6
CONTINUOUS
 10
196.1580505638
 20
211.975237753
  0
VERTEX
  8
0
 62
7
  6
CONTINUOUS
 10
196.1734203635
 20
213.2173453949
  0
SEQEND
  0
POLYLINE
  8
0
 62
7
  6
CONTINUOUS
 66
1
 70
0
  0
VERTEX
  8
0
 62
7
  6
CONTINUOUS
 10
201.1779529606
 20
225.2915074012
  0
VERTEX
  8
0
 62
7
  6
CONTINUOUS
 10
201.2053665698
 20
225.5167229758
  0
VERTEX
  8
0
 62
7
  6
CONTINUOUS
 10
201.0040224828
 20
225.7974018855
  0
VERTEX
  8
0
 62
7
  6
CONTINUOUS
 10
200.5476658601
 20
226.0765601341
  0
VERTEX
  8
0
 62
7
  6
CONTINUOUS
 10
199.8410231042
 20
226.3486395356
  0
SEQEND
  0
LINE
  8
0
 62
7
  6
CONTINUOUS
 10
17.7722415347
 20
52.2588278568
 11
18.3948963131
 21
52.5519852183
  0
POLYLINE
  8
0
 62
7
  6
CONTINUOUS
 66
1
 70
0
  0
VERTEX
  8
0
 62
7
  6
CONTINUOUS
 10
354.8206472963
 20
51.9924783146
  0
VERTEX
  8
0
 62
7
  6
CONTINUOUS
 10
354.7874682059
 20
52.0147119535
  0
VERTEX
  8
0
 62
7
  6
CONTINUOUS
 10
354.6833734038
 20
52.0690434712
  0
VERTEX
  8
0
 62
7
  6
CONTINUOUS
 10
354.5175634898
 20
52.1508767309
  0
VERTEX
  8
0
 62
7
  6
CONTINUOUS
 10
354.2931673347
 20
52.2588278568
  0
VERTEX
  8
0
 62
7
  6
CONTINUOUS
 10
353.6705125564
 20
52.5519852183
  0
SEQEND
  0
LINE
  8
0
 62
7
  6
CONTINUOUS
 10
205.0639832253
 20
132.704765405
 11
205.0304376267
 21
132.753700082
  0
LINE
  8
0
 62
7
  6
CONTINUOUS
 10
205.0304376267
 20
132.753700082
 11
204.7748131922
 21
133.1428308674
  0
LINE
  8
0
 62
7
  6
CONTINUOUS
 10
204.7748131922
 20
133.1428308674
 11
203.966203482
 21
134.3843050146
  0
LINE
  8
0
 62
7
  6
CONTINUOUS
 10
203.966203482
 20
134.3843050146
 11
203.200802739
 21
135.5629311434
  0
POLYLINE
  8
0
 62
7
  6
CONTINUOUS
 66
1
 70
0
  0
VERTEX
  8
0
 62
7
  6
CONTINUOUS
 10
167.001413855
 20
191.4520273955
  0
VERTEX
  8
0
 62
7
  6
CONTINUOUS
 10
167.0308455564
 20
191.4038012556
  0
VERTEX
  8
0
 62
7
  6
CONTINUOUS
 10
167.1216710055
 20
191.2608619901
  0
VERTEX
  8
0
 62
7
  6
CONTINUOUS
 10
168.7639993688
 20
188.7140505255
  0
SEQEND
  0
POLYLINE
  8
0
 62
7
  6
CONTINUOUS
 66
1
 70
0
  0
VERTEX
  8
0
 62
7
  6
CONTINUOUS
 10
172.2243857652
 20
226.3486395356
  0
VERTEX
  8
0
 62
7
  6
CONTINUOUS
 10
172.1553809056
 20
226.5478283784
  0
VERTEX
  8
0
 62
7
  6
CONTINUOUS
 10
172.046637154
 20
226.7346519606
  0
VERTEX
  8
0
 62
7
  6
CONTINUOUS
 10
171.9062377194
 20
226.8930530144
  0
VERTEX
  8
0
 62
7
  6
CONTINUOUS
 10
171.7381953871
 20
227.0186432483
  0
VERTEX
  8
0
 62
7
  6
CONTINUOUS
 10
171.5463952815
 20
227.1056898076
  0
VERTEX
  8
0
 62
7
  6
CONTINUOUS
 10
171.3473368613
 20
227.1458661039
  0
SEQEND
  0
POLYLINE
  8
0
 62
7
  6
CONTINUOUS
 66
1
 70
0
  0
VERTEX
  8
0
 62
7
  6
CONTINUOUS
 10
217.6192084139
 20
160.7345021417
  0
VERTEX
  8
0
 62
7
  6
CONTINUOUS
 10
217.6036715346
 20
163.863963022
  0
VERTEX
  8
0
 62
7
  6
CONTINUOUS
 10
217.2769412617
 20
166.9849743703
  0
VERTEX
  8
0
 62
7
  6
CONTINUOUS
 10
216.6415401147
 20
170.0663600612
  0
VERTEX
  8
0
 62
7
  6
CONTINUOUS
 10
215.7018869659
 20
173.0739076744
  0
VERTEX
  8
0
 62
7
  6
CONTINUOUS
 10
214.4660122161
 20
175.9753911811
  0
VERTEX
  8
0
 62
7
  6
CONTINUOUS
 10
212.9495572137
 20
178.7372107929
  0
VERTEX
  8
0
 62
7
  6
CONTINUOUS
 10
211.1756702331
 20
181.3242443989
  0
VERTEX
  8
0
 62
7
  6
CONTINUOUS
 10
209.1546863229
 20
183.72298465
  0
VERTEX
  8
0
 62
7
  6
CONTINUOUS
 10
206.8966545173
 20
185.9169385239
  0
VERTEX
  8
0
 62
7
  6
CONTINUOUS
 10
204.4268665263
 20
187.8792671469
  0
VERTEX
  8
0
 62
7
  6
CONTINUOUS
 10
201.7690695506
 20
189.5890914308
  0
VERTEX
  8
0
 62
7
  6
CONTINUOUS
 10
198.9526417144
 20
191.0264589255
  0
VERTEX
  8
0
 62
7
  6
CONTINUOUS
 10
196.0096254107
 20
192.175101733
  0
VERTEX
  8
0
 62
7
  6
CONTINUOUS
 10
192.9685115778
 20
193.0245545114
  0
VERTEX
  8
0
 62
7
  6
CONTINUOUS
 10
189.8602513146
 20
193.5662626971
  0
VERTEX
  8
0
 62
7
  6
CONTINUOUS
 10
186.7150378027
 20
193.796037796
  0
VERTEX
  8
0
 62
7
  6
CONTINUOUS
 10
183.5636267428
 20
193.7120497229
  0
VERTEX
  8
0
 62
7
  6
CONTINUOUS
 10
180.4362944103
 20
193.3153668969
  0
VERTEX
  8
0
 62
7
  6
CONTINUOUS
 10
177.3629335404
 20
192.6096422276
  0
VERTEX
  8
0
 62
7
  6
CONTINUOUS
 10
174.3739524239
 20
191.60121141
  0
VERTEX
  8
0
 62
7
  6
CONTINUOUS
 10
171.4979462754
 20
190.2992914061
  0
VERTEX
  8
0
 62
7
  6
CONTINUOUS
 10
168.7663570588
 20
188.7154381725
  0
SEQEND
  0
POLYLINE
  8
0
 62
7
  6
CONTINUOUS
 66
1
 70
0
  0
VERTEX
  8
0
 62
7
  6
CONTINUOUS
 10
208.3705858435
 20
139.7440761606
  0
VERTEX
  8
0
 62
7
  6
CONTINUOUS
 10
210.3426912429
 20
141.9039423009
  0
VERTEX
  8
0
 62
7
  6
CONTINUOUS
 10
212.1071501863
 20
144.2398888172
  0
VERTEX
  8
0
 62
7
  6
CONTINUOUS
 10
213.6495778489
 20
146.7304949792
  0
VERTEX
  8
0
 62
7
  6
CONTINUOUS
 10
214.9558850949
 20
149.355288128
  0
VERTEX
  8
0
 62
7
  6
CONTINUOUS
 10
216.0139853525
 20
152.091891601
  0
VERTEX
  8
0
 62
7
  6
CONTINUOUS
 10
216.8149665553
 20
154.9168380779
  0
VERTEX
  8
0
 62
7
  6
CONTINUOUS
 10
217.3514340141
 20
157.8063453504
  0
VERTEX
  8
0
 62
7
  6
CONTINUOUS
 10
217.6195944885
 20
160.7345025494
  0
SEQEND
  0
POLYLINE
  8
0
 62
7
  6
CONTINUOUS
 66
1
 70
0
  0
VERTEX
  8
0
 62
7
  6
CONTINUOUS
 10
203.2008420456
 20
135.5628705536
  0
VERTEX
  8
0
 62
7
  6
CONTINUOUS
 10
204.1215050672
 20
136.1810578711
  0
VERTEX
  8
0
 62
7
  6
CONTINUOUS
 10
205.0200632099
 20
136.8318360719
  0
VERTEX
  8
0
 62
7
  6
CONTINUOUS
 10
205.8954350429
 20
137.5143116638
  0
VERTEX
  8
0
 62
7
  6
CONTINUOUS
 10
206.7464093386
 20
138.2277442266
  0
VERTEX
  8
0
 62
7
  6
CONTINUOUS
 10
207.5717907908
 20
138.971339347
  0
VERTEX
  8
0
 62
7
  6
CONTINUOUS
 10
208.3705858435
 20
139.7440761606
  0
SEQEND
  0
LINE
  8
0
 62
7
  6
CONTINUOUS
 10
18.3948963131
 20
52.5519852183
 11
19.2046766343
 21
52.9266695684
  0
LINE
  8
0
 62
7
  6
CONTINUOUS
 10
19.2046766343
 20
52.9266695684
 11
20.1179525862
 21
53.3437903597
  0
POLYLINE
  8
0
 62
7
  6
CONTINUOUS
 66
1
 70
0
  0
VERTEX
  8
0
 62
7
  6
CONTINUOUS
 10
170.885948985
 20
225.2935500503
  0
VERTEX
  8
0
 62
7
  6
CONTINUOUS
 10
171.0976431423
 20
224.9252862159
  0
VERTEX
  8
0
 62
7
  6
CONTINUOUS
 10
171.5032074787
 20
224.4003944613
  0
VERTEX
  8
0
 62
7
  6
CONTINUOUS
 10
171.989330675
 20
223.9502178829
  0
VERTEX
  8
0
 62
7
  6
CONTINUOUS
 10
172.5433911706
 20
223.5862988344
  0
VERTEX
  8
0
 62
7
  6
CONTINUOUS
 10
173.1503996514
 20
223.3187236414
  0
VERTEX
  8
0
 62
7
  6
CONTINUOUS
 10
173.7982359802
 20
223.1543205107
  0
VERTEX
  8
0
 62
7
  6
CONTINUOUS
 10
174.4547882021
 20
223.1000704085
  0
SEQEND
  0
LINE
  8
0
 62
7
  6
CONTINUOUS
 10
170.885948985
 20
225.2935500503
 11
170.8891577757
 21
225.2873445302
  0
POLYLINE
  8
0
 62
7
  6
CONTINUOUS
 66
1
 70
0
  0
VERTEX
  8
0
 62
7
  6
CONTINUOUS
 10
283.0706407348
 20
-10.1555265509
  0
VERTEX
  8
0
 62
7
  6
CONTINUOUS
 10
283.0506532386
 20
-10.103750076
  0
VERTEX
  8
0
 62
7
  6
CONTINUOUS
 10
282.9994304829
 20
-9.9444931957
  0
VERTEX
  8
0
 62
7
  6
CONTINUOUS
 10
282.9210955281
 20
-9.6906870735
  0
SEQEND
  0
POLYLINE
  8
0
 62
7
  6
CONTINUOUS
 66
1
 70
0
  0
VERTEX
  8
0
 62
7
  6
CONTINUOUS
 10
195.7203497
 20
215.4814382986
  0
VERTEX
  8
0
 62
7
  6
CONTINUOUS
 10
195.7814430937
 20
215.2689631897
  0
VERTEX
  8
0
 62
7
  6
CONTINUOUS
 10
195.8234820587
 20
214.8737349912
  0
VERTEX
  8
0
 62
7
  6
CONTINUOUS
 10
195.8478147084
 20
214.2933973663
  0
VERTEX
  8
0
 62
7
  6
CONTINUOUS
 10
195.8558607575
 20
213.5475025243
  0
VERTEX
  8
0
 62
7
  6
CONTINUOUS
 10
195.8507104736
 20
212.6773891674
  0
VERTEX
  8
0
 62
7
  6
CONTINUOUS
 10
195.8352254827
 20
211.6770485686
  0
VERTEX
  8
0
 62
7
  6
CONTINUOUS
 10
195.8111770894
 20
210.5301021919
  0
SEQEND
  0
POLYLINE
  8
0
 62
7
  6
CONTINUOUS
 66
1
 70
0
  0
VERTEX
  8
0
 62
7
  6
CONTINUOUS
 10
116.4403716992
 20
194.7934160784
  0
VERTEX
  8
0
 62
7
  6
CONTINUOUS
 10
119.1998029901
 20
195.1786081949
  0
VERTEX
  8
0
 62
7
  6
CONTINUOUS
 10
122.1538704507
 20
195.5779701645
  0
VERTEX
  8
0
 62
7
  6
CONTINUOUS
 10
125.18007387
 20
195.9846061
  0
VERTEX
  8
0
 62
7
  6
CONTINUOUS
 10
128.2413387487
 20
196.3771331385
  0
VERTEX
  8
0
 62
7
  6
CONTINUOUS
 10
131.1945432068
 20
196.7396009375
  0
VERTEX
  8
0
 62
7
  6
CONTINUOUS
 10
134.1966947875
 20
197.0895836323
  0
VERTEX
  8
0
 62
7
  6
CONTINUOUS
 10
137.427290742
 20
197.4329409541
  0
VERTEX
  8
0
 62
7
  6
CONTINUOUS
 10
140.7116818042
 20
197.7400762915
  0
VERTEX
  8
0
 62
7
  6
CONTINUOUS
 10
143.950631299
 20
198.0025796238
  0
VERTEX
  8
0
 62
7
  6
CONTINUOUS
 10
147.0627409564
 20
198.2115659968
  0
VERTEX
  8
0
 62
7
  6
CONTINUOUS
 10
149.8990900722
 20
198.3641403953
  0
VERTEX
  8
0
 62
7
  6
CONTINUOUS
 10
152.5387587929
 20
198.4743269261
  0
VERTEX
  8
0
 62
7
  6
CONTINUOUS
 10
154.9791501873
 20
198.5480957404
  0
VERTEX
  8
0
 62
7
  6
CONTINUOUS
 10
157.327373742
 20
198.59799489
  0
VERTEX
  8
0
 62
7
  6
CONTINUOUS
 10
159.7480944702
 20
198.6264090203
  0
VERTEX
  8
0
 62
7
  6
CONTINUOUS
 10
162.084059251
 20
198.6336917425
  0
VERTEX
  8
0
 62
7
  6
CONTINUOUS
 10
164.1853788585
 20
198.6248246994
  0
VERTEX
  8
0
 62
7
  6
CONTINUOUS
 10
166.1884012673
 20
198.6043251088
  0
VERTEX
  8
0
 62
7
  6
CONTINUOUS
 10
168.1641266444
 20
198.5738723252
  0
VERTEX
  8
0
 62
7
  6
CONTINUOUS
 10
170.1661662353
 20
198.5318129806
  0
VERTEX
  8
0
 62
7
  6
CONTINUOUS
 10
172.4751760011
 20
198.4699992746
  0
SEQEND
  0
POLYLINE
  8
0
 62
7
  6
CONTINUOUS
 66
1
 70
0
  0
VERTEX
  8
0
 62
7
  6
CONTINUOUS
 10
192.4400955215
 20
198.3711640685
  0
VERTEX
  8
0
 62
7
  6
CONTINUOUS
 10
189.1590304525
 20
198.3749001369
  0
VERTEX
  8
0
 62
7
  6
CONTINUOUS
 10
185.8768944351
 20
198.3758251407
  0
VERTEX
  8
0
 62
7
  6
CONTINUOUS
 10
182.5946699707
 20
198.3737374748
  0
VERTEX
  8
0
 62
7
  6
CONTINUOUS
 10
179.3133395717
 20
198.368438886
  0
VERTEX
  8
0
 62
7
  6
CONTINUOUS
 10
176.0327044361
 20
198.3599976281
  0
SEQEND
  0
LINE
  8
0
 62
7
  6
CONTINUOUS
 10
196.0327044351
 20
198.3636598622
 11
192.4400955215
 21
198.3711640685
  0
POLYLINE
  8
0
 62
7
  6
CONTINUOUS
 66
1
 70
0
  0
VERTEX
  8
0
 62
7
  6
CONTINUOUS
 10
172.4751760011
 20
198.4699992746
  0
VERTEX
  8
0
 62
7
  6
CONTINUOUS
 10
175.6023718909
 20
198.3739426791
  0
VERTEX
  8
0
 62
7
  6
CONTINUOUS
 10
176.0325477826
 20
198.3599506336
  0
SEQEND
  0
POLYLINE
  8
0
 62
7
  6
CONTINUOUS
 66
1
 70
0
  0
VERTEX
  8
0
 62
7
  6
CONTINUOUS
 10
250.8734304305
 20
195.4442413971
  0
VERTEX
  8
0
 62
7
  6
CONTINUOUS
 10
248.5971202618
 20
195.7531281202
  0
VERTEX
  8
0
 62
7
  6
CONTINUOUS
 10
246.3717526494
 20
196.0483337719
  0
VERTEX
  8
0
 62
7
  6
CONTINUOUS
 10
244.1568632295
 20
196.3339722567
  0
VERTEX
  8
0
 62
7
  6
CONTINUOUS
 10
241.9464056882
 20
196.6097604185
  0
VERTEX
  8
0
 62
7
  6
CONTINUOUS
 10
239.7185490849
 20
196.8747865167
  0
VERTEX
  8
0
 62
7
  6
CONTINUOUS
 10
237.4476728219
 20
197.1308711435
  0
VERTEX
  8
0
 62
7
  6
CONTINUOUS
 10
235.135704115
 20
197.3748010268
  0
VERTEX
  8
0
 62
7
  6
CONTINUOUS
 10
232.7603489204
 20
197.6059990772
  0
VERTEX
  8
0
 62
7
  6
CONTINUOUS
 10
230.3678214836
 20
197.8196631545
  0
VERTEX
  8
0
 62
7
  6
CONTINUOUS
 10
228.0134374452
 20
198.0075599175
  0
VERTEX
  8
0
 62
7
  6
CONTINUOUS
 10
225.6531102964
 20
198.1708563062
  0
VERTEX
  8
0
 62
7
  6
CONTINUOUS
 10
223.2557503883
 20
198.3097771177
  0
VERTEX
  8
0
 62
7
  6
CONTINUOUS
 10
220.8343685534
 20
198.4240563452
  0
VERTEX
  8
0
 62
7
  6
CONTINUOUS
 10
218.3871527693
 20
198.5125875133
  0
VERTEX
  8
0
 62
7
  6
CONTINUOUS
 10
215.928359237
 20
198.576756014
  0
VERTEX
  8
0
 62
7
  6
CONTINUOUS
 10
213.4762800249
 20
198.615947713
  0
VERTEX
  8
0
 62
7
  6
CONTINUOUS
 10
211.0185616338
 20
198.6326254009
  0
VERTEX
  8
0
 62
7
  6
CONTINUOUS
 10
208.5496378447
 20
198.6290959811
  0
VERTEX
  8
0
 62
7
  6
CONTINUOUS
 10
206.0665465508
 20
198.6065971394
  0
VERTEX
  8
0
 62
7
  6
CONTINUOUS
 10
203.5583962482
 20
198.5668155373
  0
VERTEX
  8
0
 62
7
  6
CONTINUOUS
 10
201.0428168106
 20
198.5116295936
  0
VERTEX
  8
0
 62
7
  6
CONTINUOUS
 10
198.5357543126
 20
198.4434797885
  0
VERTEX
  8
0
 62
7
  6
CONTINUOUS
 10
196.0327310633
 20
198.3602532704
  0
SEQEND
  0
POLYLINE
  8
0
 62
7
  6
CONTINUOUS
 66
1
 70
0
  0
VERTEX
  8
0
 62
7
  6
CONTINUOUS
 10
176.0453799486
 20
198.7136451841
  0
VERTEX
  8
0
 62
7
  6
CONTINUOUS
 10
166.9035368846
 20
200.5886600527
  0
VERTEX
  8
0
 62
7
  6
CONTINUOUS
 10
158.0380679612
 20
202.2527242363
  0
VERTEX
  8
0
 62
7
  6
CONTINUOUS
 10
149.5526327296
 20
203.5167799057
  0
VERTEX
  8
0
 62
7
  6
CONTINUOUS
 10
141.3588596942
 20
204.2919773999
  0
VERTEX
  8
0
 62
7
  6
CONTINUOUS
 10
133.4363685078
 20
204.5739704398
  0
VERTEX
  8
0
 62
7
  6
CONTINUOUS
 10
125.6248522477
 20
204.3996283294
  0
VERTEX
  8
0
 62
7
  6
CONTINUOUS
 10
117.8386111635
 20
203.8063890186
  0
VERTEX
  8
0
 62
7
  6
CONTINUOUS
 10
109.8923985758
 20
202.7920876471
  0
VERTEX
  8
0
 62
7
  6
CONTINUOUS
 10
101.5668642113
 20
201.2981949743
  0
VERTEX
  8
0
 62
7
  6
CONTINUOUS
 10
93.0908914648
 20
199.2929046632
  0
VERTEX
  8
0
 62
7
  6
CONTINUOUS
 10
84.5245644476
 20
196.6974606118
  0
VERTEX
  8
0
 62
7
  6
CONTINUOUS
 10
75.866981973
 20
193.4632459474
  0
SEQEND
  0
POLYLINE
  8
0
 62
7
  6
CONTINUOUS
 66
1
 70
0
  0
VERTEX
  8
0
 62
7
  6
CONTINUOUS
 10
170.3696843981
 20
225.445276648
  0
VERTEX
  8
0
 62
7
  6
CONTINUOUS
 10
170.0638401024
 20
225.7207773001
  0
VERTEX
  8
0
 62
7
  6
CONTINUOUS
 10
169.9439171111
 20
226.0036815845
  0
VERTEX
  8
0
 62
7
  6
CONTINUOUS
 10
170.0132091036
 20
226.2906221314
  0
VERTEX
  8
0
 62
7
  6
CONTINUOUS
 10
170.2703455251
 20
226.5790612142
  0
VERTEX
  8
0
 62
7
  6
CONTINUOUS
 10
170.7153210809
 20
226.8640569844
  0
VERTEX
  8
0
 62
7
  6
CONTINUOUS
 10
171.3473368613
 20
227.1458661039
  0
SEQEND
  0
LINE
  8
0
 62
7
  6
CONTINUOUS
 10
282.9210955281
 20
-9.6906870735
 11
282.6888323602
 21
-8.9184588198
  0
POLYLINE
  8
0
 62
7
  6
CONTINUOUS
 66
1
 70
0
  0
VERTEX
  8
0
 62
7
  6
CONTINUOUS
 10
282.6888323602
 20
-8.9184588198
  0
VERTEX
  8
0
 62
7
  6
CONTINUOUS
 10
282.3726371027
 20
-7.8480715102
  0
VERTEX
  8
0
 62
7
  6
CONTINUOUS
 10
282.2007112522
 20
-7.2602469879
  0
SEQEND
  0
LINE
  8
0
 62
7
  6
CONTINUOUS
 10
331.2192034645
 20
197.8823553073
 11
324.4638034483
 21
191.344655223
  0
POLYLINE
  8
0
 62
7
  6
CONTINUOUS
 66
1
 70
0
  0
VERTEX
  8
0
 62
7
  6
CONTINUOUS
 10
196.0327044348
 20
215.4883725714
  0
VERTEX
  8
0
 62
7
  6
CONTINUOUS
 10
198.5711274774
 20
215.56078067
  0
VERTEX
  8
0
 62
7
  6
CONTINUOUS
 10
201.4422651016
 20
215.6399524116
  0
VERTEX
  8
0
 62
7
  6
CONTINUOUS
 10
204.6583155232
 20
215.7192566591
  0
VERTEX
  8
0
 62
7
  6
CONTINUOUS
 10
208.1811442619
 20
215.792742552
  0
VERTEX
  8
0
 62
7
  6
CONTINUOUS
 10
212.0169906032
 20
215.8515768488
  0
VERTEX
  8
0
 62
7
  6
CONTINUOUS
 10
216.0414196976
 20
215.8853544855
  0
VERTEX
  8
0
 62
7
  6
CONTINUOUS
 10
220.0843746487
 20
215.8866166417
  0
VERTEX
  8
0
 62
7
  6
CONTINUOUS
 10
224.2870622306
 20
215.8525619761
  0
VERTEX
  8
0
 62
7
  6
CONTINUOUS
 10
228.7534598484
 20
215.7744686908
  0
VERTEX
  8
0
 62
7
  6
CONTINUOUS
 10
233.4186770064
 20
215.6469180443
  0
VERTEX
  8
0
 62
7
  6
CONTINUOUS
 10
238.2822003528
 20
215.4666010021
  0
VERTEX
  8
0
 62
7
  6
CONTINUOUS
 10
243.2536451454
 20
215.2328398757
  0
VERTEX
  8
0
 62
7
  6
CONTINUOUS
 10
248.2679960839
 20
214.9532555732
  0
VERTEX
  8
0
 62
7
  6
CONTINUOUS
 10
253.2590605309
 20
214.6267537729
  0
VERTEX
  8
0
 62
7
  6
CONTINUOUS
 10
258.1132306882
 20
214.2621183147
  0
VERTEX
  8
0
 62
7
  6
CONTINUOUS
 10
262.9221636315
 20
213.8431448424
  0
VERTEX
  8
0
 62
7
  6
CONTINUOUS
 10
267.7163131332
 20
213.34728407
  0
VERTEX
  8
0
 62
7
  6
CONTINUOUS
 10
272.5630302562
 20
212.7392067393
  0
VERTEX
  8
0
 62
7
  6
CONTINUOUS
 10
277.5462160371
 20
211.9624018576
  0
VERTEX
  8
0
 62
7
  6
CONTINUOUS
 10
282.6349119979
 20
210.9674045316
  0
SEQEND
  0
POLYLINE
  8
0
 62
7
  6
CONTINUOUS
 66
1
 70
0
  0
VERTEX
  8
0
 62
7
  6
CONTINUOUS
 10
196.0327067567
 20
215.4883726173
  0
VERTEX
  8
0
 62
7
  6
CONTINUOUS
 10
192.4405634137
 20
215.4219289587
  0
VERTEX
  8
0
 62
7
  6
CONTINUOUS
 10
189.1593034695
 20
215.3866762545
  0
VERTEX
  8
0
 62
7
  6
CONTINUOUS
 10
185.8769124768
 20
215.3756903591
  0
VERTEX
  8
0
 62
7
  6
CONTINUOUS
 10
182.5944318983
 20
215.3889813761
  0
VERTEX
  8
0
 62
7
  6
CONTINUOUS
 10
179.3129032893
 20
215.4265439114
  0
VERTEX
  8
0
 62
7
  6
CONTINUOUS
 10
176.0326694651
 20
215.4883728169
  0
SEQEND
  0
POLYLINE
  8
0
 62
7
  6
CONTINUOUS
 66
1
 70
0
  0
VERTEX
  8
0
 62
7
  6
CONTINUOUS
 10
176.0323100379
 20
215.4878479095
  0
VERTEX
  8
0
 62
7
  6
CONTINUOUS
 10
173.7012005534
 20
215.5549753298
  0
VERTEX
  8
0
 62
7
  6
CONTINUOUS
 10
170.9912760362
 20
215.6265001097
  0
VERTEX
  8
0
 62
7
  6
CONTINUOUS
 10
167.8782090781
 20
215.7059893353
  0
VERTEX
  8
0
 62
7
  6
CONTINUOUS
 10
164.449501997
 20
215.7833935202
  0
VERTEX
  8
0
 62
7
  6
CONTINUOUS
 10
160.7597396667
 20
215.8455600333
  0
VERTEX
  8
0
 62
7
  6
CONTINUOUS
 10
156.8963752324
 20
215.8821150402
  0
VERTEX
  8
0
 62
7
  6
CONTINUOUS
 10
153.0311432789
 20
215.8895013739
  0
VERTEX
  8
0
 62
7
  6
CONTINUOUS
 10
148.9950086525
 20
215.8659997889
  0
VERTEX
  8
0
 62
7
  6
CONTINUOUS
 10
144.6059663932
 20
215.8012576021
  0
VERTEX
  8
0
 62
7
  6
CONTINUOUS
 10
140.082885611
 20
215.6908211294
  0
VERTEX
  8
0
 62
7
  6
CONTINUOUS
 10
135.5876676163
 20
215.53844064
  0
VERTEX
  8
0
 62
7
  6
CONTINUOUS
 10
131.0822120959
 20
215.3442572242
  0
VERTEX
  8
0
 62
7
  6
CONTINUOUS
 10
126.565755833
 20
215.1126149701
  0
VERTEX
  8
0
 62
7
  6
CONTINUOUS
 10
122.0954268562
 20
214.8454297987
  0
VERTEX
  8
0
 62
7
  6
CONTINUOUS
 10
117.7392227445
 20
214.5506270065
  0
VERTEX
  8
0
 62
7
  6
CONTINUOUS
 10
113.4418596702
 20
214.2207892373
  0
VERTEX
  8
0
 62
7
  6
CONTINUOUS
 10
109.1015122645
 20
213.8406176575
  0
VERTEX
  8
0
 62
7
  6
CONTINUOUS
 10
104.9223250873
 20
213.4116539418
  0
VERTEX
  8
0
 62
7
  6
CONTINUOUS
 10
101.1501511674
 20
212.9596995937
  0
VERTEX
  8
0
 62
7
  6
CONTINUOUS
 10
97.5496485523
 20
212.4561575694
  0
VERTEX
  8
0
 62
7
  6
CONTINUOUS
 10
93.9400100641
 20
211.8626464151
  0
VERTEX
  8
0
 62
7
  6
CONTINUOUS
 10
90.4337211775
 20
211.184344972
  0
VERTEX
  8
0
 62
7
  6
CONTINUOUS
 10
87.0700949634
 20
210.420396182
  0
VERTEX
  8
0
 62
7
  6
CONTINUOUS
 10
83.8282049815
 20
209.5745896116
  0
SEQEND
  0
POLYLINE
  8
0
 62
7
  6
CONTINUOUS
 66
1
 70
0
  0
VERTEX
  8
0
 62
7
  6
CONTINUOUS
 10
171.5306082453
 20
224.9267226718
  0
VERTEX
  8
0
 62
7
  6
CONTINUOUS
 10
170.8613874172
 20
225.1800361245
  0
VERTEX
  8
0
 62
7
  6
CONTINUOUS
 10
170.3696843981
 20
225.445276648
  0
SEQEND
  0
LINE
  8
0
 62
7
  6
CONTINUOUS
 10
177.3176279521
 20
297.7128032501
 11
177.0486303678
 21
298.2043331822
  0
LINE
  8
0
 62
7
  6
CONTINUOUS
 10
177.0486303678
 20
298.2043331822
 11
176.6830206773
 21
298.8814313831
  0
POLYLINE
  8
0
 62
7
  6
CONTINUOUS
 66
1
 70
0
  0
VERTEX
  8
0
 62
7
  6
CONTINUOUS
 10
196.0329705335
 20
262.7147033156
  0
VERTEX
  8
0
 62
7
  6
CONTINUOUS
 10
195.761672034
 20
263.2214610481
  0
VERTEX
  8
0
 62
7
  6
CONTINUOUS
 10
195.4933368781
 20
263.7152302651
  0
VERTEX
  8
0
 62
7
  6
CONTINUOUS
 10
195.246695874
 20
264.161475383
  0
VERTEX
  8
0
 62
7
  6
CONTINUOUS
 10
195.0279100795
 20
264.549248245
  0
VERTEX
  8
0
 62
7
  6
CONTINUOUS
 10
194.8444710249
 20
264.865306477
  0
VERTEX
  8
0
 62
7
  6
CONTINUOUS
 10
194.7029177814
 20
265.0983409154
  0
VERTEX
  8
0
 62
7
  6
CONTINUOUS
 10
194.6081942202
 20
265.2398722256
  0
VERTEX
  8
0
 62
7
  6
CONTINUOUS
 10
194.5664648632
 20
265.2808581479
  0
SEQEND
  0
POLYLINE
  8
0
 62
7
  6
CONTINUOUS
 66
1
 70
0
  0
VERTEX
  8
0
 62
7
  6
CONTINUOUS
 10
176.6830206773
 20
298.8814313831
  0
VERTEX
  8
0
 62
7
  6
CONTINUOUS
 10
176.2544765284
 20
299.6817862681
  0
VERTEX
  8
0
 62
7
  6
CONTINUOUS
 10
176.032834011
 20
300.0978886803
  0
SEQEND
  0
LINE
  8
0
 62
7
  6
CONTINUOUS
 10
175.747860265
 20
228.0836918965
 11
175.9371853321
 21
228.1060317524
  0
POLYLINE
  8
0
 62
7
  6
CONTINUOUS
 66
1
 70
0
  0
VERTEX
  8
0
 62
7
  6
CONTINUOUS
 10
176.351365027
 20
227.1000704085
  0
VERTEX
  8
0
 62
7
  6
CONTINUOUS
 10
175.4852858929
 20
226.9999719601
  0
VERTEX
  8
0
 62
7
  6
CONTINUOUS
 10
174.6859854065
 20
226.8889166065
  0
VERTEX
  8
0
 62
7
  6
CONTINUOUS
 10
173.9586648399
 20
226.7663891046
  0
VERTEX
  8
0
 62
7
  6
CONTINUOUS
 10
173.3044050039
 20
226.6344873882
  0
VERTEX
  8
0
 62
7
  6
CONTINUOUS
 10
172.7246968023
 20
226.4953529771
  0
VERTEX
  8
0
 62
7
  6
CONTINUOUS
 10
172.2243857652
 20
226.3486395356
  0
SEQEND
  0
LINE
  8
0
 62
7
  6
CONTINUOUS
 10
175.9371853321
 20
228.1060317524
 11
176.0327046485
 21
228.116943684
  0
POLYLINE
  8
0
 62
7
  6
CONTINUOUS
 66
1
 70
0
  0
VERTEX
  8
0
 62
7
  6
CONTINUOUS
 10
176.5719120813
 20
227.1144296299
  0
VERTEX
  8
0
 62
7
  6
CONTINUOUS
 10
177.9892075702
 20
227.2726609518
  0
VERTEX
  8
0
 62
7
  6
CONTINUOUS
 10
179.4942186698
 20
227.3981584878
  0
VERTEX
  8
0
 62
7
  6
CONTINUOUS
 10
181.0627027655
 20
227.4892147018
  0
VERTEX
  8
0
 62
7
  6
CONTINUOUS
 10
182.6841261119
 20
227.5509522026
  0
VERTEX
  8
0
 62
7
  6
CONTINUOUS
 10
184.3492519961
 20
227.5881782103
  0
VERTEX
  8
0
 62
7
  6
CONTINUOUS
 10
186.0346812791
 20
227.6001313554
  0
VERTEX
  8
0
 62
7
  6
CONTINUOUS
 10
187.720339981
 20
227.588054274
  0
VERTEX
  8
0
 62
7
  6
CONTINUOUS
 10
189.3855322048
 20
227.5507421691
  0
VERTEX
  8
0
 62
7
  6
CONTINUOUS
 10
191.0098396594
 20
227.4878504978
  0
VERTEX
  8
0
 62
7
  6
CONTINUOUS
 10
192.5739777251
 20
227.3980411341
  0
VERTEX
  8
0
 62
7
  6
CONTINUOUS
 10
194.0592613251
 20
227.2796794828
  0
VERTEX
  8
0
 62
7
  6
CONTINUOUS
 10
195.4479352409
 20
227.133310409
  0
SEQEND
  0
POLYLINE
  8
0
 62
7
  6
CONTINUOUS
 66
1
 70
0
  0
VERTEX
  8
0
 62
7
  6
CONTINUOUS
 10
176.0327004702
 20
228.1168238663
  0
VERTEX
  8
0
 62
7
  6
CONTINUOUS
 10
177.5256973119
 20
228.2612836766
  0
VERTEX
  8
0
 62
7
  6
CONTINUOUS
 10
179.0984492932
 20
228.3804845948
  0
VERTEX
  8
0
 62
7
  6
CONTINUOUS
 10
180.760818196
 20
228.4747221447
  0
VERTEX
  8
0
 62
7
  6
CONTINUOUS
 10
182.4831700209
 20
228.5429311653
  0
VERTEX
  8
0
 62
7
  6
CONTINUOUS
 10
184.2457725017
 20
228.583802977
  0
VERTEX
  8
0
 62
7
  6
CONTINUOUS
 10
186.0286892774
 20
228.5976259776
  0
VERTEX
  8
0
 62
7
  6
CONTINUOUS
 10
187.8121228215
 20
228.5838369186
  0
VERTEX
  8
0
 62
7
  6
CONTINUOUS
 10
189.5758893403
 20
228.5430173472
  0
VERTEX
  8
0
 62
7
  6
CONTINUOUS
 10
191.2999208754
 20
228.4749330578
  0
VERTEX
  8
0
 62
7
  6
CONTINUOUS
 10
192.9641068555
 20
228.3807753523
  0
VERTEX
  8
0
 62
7
  6
CONTINUOUS
 10
194.538338586
 20
228.2614892374
  0
VERTEX
  8
0
 62
7
  6
CONTINUOUS
 10
196.0326360361
 20
228.1168216753
  0
SEQEND
  0
POLYLINE
  8
0
 62
7
  6
CONTINUOUS
 66
1
 70
0
  0
VERTEX
  8
0
 62
7
  6
CONTINUOUS
 10
197.6106139993
 20
223.1000704085
  0
VERTEX
  8
0
 62
7
  6
CONTINUOUS
 10
198.2666053516
 20
223.1542438477
  0
VERTEX
  8
0
 62
7
  6
CONTINUOUS
 10
198.9139236439
 20
223.3184185492
  0
VERTEX
  8
0
 62
7
  6
CONTINUOUS
 10
199.5205215465
 20
223.5856399337
  0
VERTEX
  8
0
 62
7
  6
CONTINUOUS
 10
200.0742987635
 20
223.949104062
  0
VERTEX
  8
0
 62
7
  6
CONTINUOUS
 10
200.5602857068
 20
224.3987524471
  0
VERTEX
  8
0
 62
7
  6
CONTINUOUS
 10
200.9658803473
 20
224.9230789737
  0
VERTEX
  8
0
 62
7
  6
CONTINUOUS
 10
201.1779529606
 20
225.2915074012
  0
SEQEND
  0
LINE
  8
0
 62
7
  6
CONTINUOUS
 10
196.0325518847
 20
228.9036620987
 11
196.1540542789
 21
228.9080611838
  0
LINE
  8
0
 62
7
  6
CONTINUOUS
 10
197.6102838636
 20
223.1000704085
 11
174.4550229636
 21
223.1000704085
  0
POLYLINE
  8
0
 62
7
  6
CONTINUOUS
 66
1
 70
0
  0
VERTEX
  8
0
 62
7
  6
CONTINUOUS
 10
195.7140438424
 20
227.1000704085
  0
VERTEX
  8
0
 62
7
  6
CONTINUOUS
 10
179.4939317409
 20
227.1000704085
  0
VERTEX
  8
0
 62
7
  6
CONTINUOUS
 10
177.9891140502
 20
227.1054551165
  0
VERTEX
  8
0
 62
7
  6
CONTINUOUS
 10
176.5719120813
 20
227.1144296299
  0
SEQEND
  0
POLYLINE
  8
0
 62
7
  6
CONTINUOUS
 66
1
 70
0
  0
VERTEX
  8
0
 62
7
  6
CONTINUOUS
 10
175.9117650087
 20
228.9080059173
  0
VERTEX
  8
0
 62
7
  6
CONTINUOUS
 10
168.9109587727
 20
229.0811471882
  0
VERTEX
  8
0
 62
7
  6
CONTINUOUS
 10
161.9009389952
 20
229.1063123847
  0
VERTEX
  8
0
 62
7
  6
CONTINUOUS
 10
154.8507480345
 20
228.9779869302
  0
VERTEX
  8
0
 62
7
  6
CONTINUOUS
 10
147.9382026504
 20
228.7045117241
  0
VERTEX
  8
0
 62
7
  6
CONTINUOUS
 10
141.3970041999
 20
228.3093165818
  0
VERTEX
  8
0
 62
7
  6
CONTINUOUS
 10
134.9989725889
 20
227.7879757517
  0
VERTEX
  8
0
 62
7
  6
CONTINUOUS
 10
128.5208146128
 20
227.1158021129
  0
VERTEX
  8
0
 62
7
  6
CONTINUOUS
 10
122.1712013252
 20
226.3001319397
  0
VERTEX
  8
0
 62
7
  6
CONTINUOUS
 10
116.1271941667
 20
225.3603498955
  0
VERTEX
  8
0
 62
7
  6
CONTINUOUS
 10
110.2388988988
 20
224.2681433058
  0
VERTEX
  8
0
 62
7
  6
CONTINUOUS
 10
104.3625611191
 20
222.9773378008
  0
VERTEX
  8
0
 62
7
  6
CONTINUOUS
 10
98.6609787391
 20
221.5027291149
  0
VERTEX
  8
0
 62
7
  6
CONTINUOUS
 10
93.2975753776
 20
219.8849309234
  0
VERTEX
  8
0
 62
7
  6
CONTINUOUS
 10
88.1130624059
 20
218.0770234436
  0
VERTEX
  8
0
 62
7
  6
CONTINUOUS
 10
82.9349205479
 20
215.9992032779
  0
VERTEX
  8
0
 62
7
  6
CONTINUOUS
 10
77.978226263
 20
213.7225505475
  0
VERTEX
  8
0
 62
7
  6
CONTINUOUS
 10
73.4628845005
 20
211.3743424631
  0
VERTEX
  8
0
 62
7
  6
CONTINUOUS
 10
69.1849418154
 20
208.8810390267
  0
VERTEX
  8
0
 62
7
  6
CONTINUOUS
 10
64.9534894395
 20
206.1320257529
  0
VERTEX
  8
0
 62
7
  6
CONTINUOUS
 10
60.9651338623
 20
203.2609471721
  0
VERTEX
  8
0
 62
7
  6
CONTINUOUS
 10
57.4260914478
 20
200.465715767
  0
VERTEX
  8
0
 62
7
  6
CONTINUOUS
 10
54.0994225536
 20
197.6098067534
  0
VERTEX
  8
0
 62
7
  6
CONTINUOUS
 10
50.8037377305
 20
194.5497147274
  0
VERTEX
  8
0
 62
7
  6
CONTINUOUS
 10
47.6015961647
 20
191.3446390474
  0
SEQEND
  0
POLYLINE
  8
0
 62
7
  6
CONTINUOUS
 66
1
 70
0
  0
VERTEX
  8
0
 62
7
  6
CONTINUOUS
 10
176.6178371378
 20
227.1133603887
  0
VERTEX
  8
0
 62
7
  6
CONTINUOUS
 10
176.550792137
 20
227.1151386668
  0
VERTEX
  8
0
 62
7
  6
CONTINUOUS
 10
176.4840278947
 20
227.1135164395
  0
VERTEX
  8
0
 62
7
  6
CONTINUOUS
 10
176.4175488674
 20
227.1084936939
  0
VERTEX
  8
0
 62
7
  6
CONTINUOUS
 10
176.351365027
 20
227.1000704085
  0
SEQEND
  0
POLYLINE
  8
0
 62
7
  6
CONTINUOUS
 66
1
 70
0
  0
VERTEX
  8
0
 62
7
  6
CONTINUOUS
 10
176.0327008329
 20
228.9036612372
  0
VERTEX
  8
0
 62
7
  6
CONTINUOUS
 10
179.3322574901
 20
228.8163743693
  0
VERTEX
  8
0
 62
7
  6
CONTINUOUS
 10
182.6474010395
 20
228.7634486785
  0
VERTEX
  8
0
 62
7
  6
CONTINUOUS
 10
185.9793093912
 20
228.7453359433
  0
VERTEX
  8
0
 62
7
  6
CONTINUOUS
 10
189.3230882532
 20
228.7624918573
  0
VERTEX
  8
0
 62
7
  6
CONTINUOUS
 10
192.6738358104
 20
228.8151862306
  0
VERTEX
  8
0
 62
7
  6
CONTINUOUS
 10
196.0327075066
 20
228.9036800325
  0
SEQEND
  0
LINE
  8
0
 62
7
  6
CONTINUOUS
 10
175.9117347142
 20
228.9080476352
 11
176.0327015862
 21
228.9036675903
  0
POLYLINE
  8
0
 62
7
  6
CONTINUOUS
 66
1
 70
0
  0
VERTEX
  8
0
 62
7
  6
CONTINUOUS
 10
175.7634735241
 20
223.1000704085
  0
VERTEX
  8
0
 62
7
  6
CONTINUOUS
 10
175.147090811
 20
223.1590303956
  0
VERTEX
  8
0
 62
7
  6
CONTINUOUS
 10
174.5527585654
 20
223.3326330331
  0
VERTEX
  8
0
 62
7
  6
CONTINUOUS
 10
173.9999709106
 20
223.6118809862
  0
VERTEX
  8
0
 62
7
  6
CONTINUOUS
 10
173.4956091982
 20
223.9917316431
  0
VERTEX
  8
0
 62
7
  6
CONTINUOUS
 10
173.0480364656
 20
224.4707833781
  0
VERTEX
  8
0
 62
7
  6
CONTINUOUS
 10
172.6777024081
 20
225.0347400878
  0
VERTEX
  8
0
 62
7
  6
CONTINUOUS
 10
172.3995837383
 20
225.666530541
  0
VERTEX
  8
0
 62
7
  6
CONTINUOUS
 10
172.2243857652
 20
226.3486395356
  0
SEQEND
  0
LINE
  8
0
 62
7
  6
CONTINUOUS
 10
196.0327047416
 20
228.1169436246
 11
196.2231731683
 21
228.0949473266
  0
LINE
  8
0
 62
7
  6
CONTINUOUS
 10
196.2231731683
 20
228.0949473266
 11
196.3175486044
 21
228.0836918965
  0
LINE
  8
0
 62
7
  6
CONTINUOUS
 10
195.6257321511
 20
227.1113404328
 11
195.4479352409
 21
227.133310409
  0
LINE
  8
0
 62
7
  6
CONTINUOUS
 10
195.7140438424
 20
227.1000704085
 11
195.6257321511
 21
227.1113404328
  0
POLYLINE
  8
0
 62
7
  6
CONTINUOUS
 66
1
 70
0
  0
VERTEX
  8
0
 62
7
  6
CONTINUOUS
 10
196.3175486044
 20
228.0836918965
  0
VERTEX
  8
0
 62
7
  6
CONTINUOUS
 10
197.2475171319
 20
227.9585545515
  0
VERTEX
  8
0
 62
7
  6
CONTINUOUS
 10
198.1004803819
 20
227.819172725
  0
VERTEX
  8
0
 62
7
  6
CONTINUOUS
 10
198.8773929169
 20
227.6663319937
  0
VERTEX
  8
0
 62
7
  6
CONTINUOUS
 10
199.574390378
 20
227.5020736361
  0
VERTEX
  8
0
 62
7
  6
CONTINUOUS
 10
200.1876042652
 20
227.3283852663
  0
VERTEX
  8
0
 62
7
  6
CONTINUOUS
 10
200.7180720081
 20
227.1458661039
  0
SEQEND
  0
POLYLINE
  8
0
 62
7
  6
CONTINUOUS
 66
1
 70
0
  0
VERTEX
  8
0
 62
7
  6
CONTINUOUS
 10
282.6349119979
 20
210.9674045316
  0
VERTEX
  8
0
 62
7
  6
CONTINUOUS
 10
283.4752276942
 20
210.7796267268
  0
VERTEX
  8
0
 62
7
  6
CONTINUOUS
 10
284.32420108
 20
210.5826037759
  0
VERTEX
  8
0
 62
7
  6
CONTINUOUS
 10
285.1819974214
 20
210.3759287484
  0
VERTEX
  8
0
 62
7
  6
CONTINUOUS
 10
286.0479005232
 20
210.1593046238
  0
VERTEX
  8
0
 62
7
  6
CONTINUOUS
 10
286.9259508415
 20
209.9312378164
  0
VERTEX
  8
0
 62
7
  6
CONTINUOUS
 10
287.8020317541
 20
209.6950504379
  0
VERTEX
  8
0
 62
7
  6
CONTINUOUS
 10
288.6771181321
 20
209.4504109128
  0
VERTEX
  8
0
 62
7
  6
CONTINUOUS
 10
289.5102370077
 20
209.2092106254
  0
VERTEX
  8
0
 62
7
  6
CONTINUOUS
 10
290.2432671124
 20
208.9902479255
  0
VERTEX
  8
0
 62
7
  6
CONTINUOUS
 10
290.929518105
 20
208.7795174902
  0
VERTEX
  8
0
 62
7
  6
CONTINUOUS
 10
291.6064743936
 20
208.5660894835
  0
VERTEX
  8
0
 62
7
  6
CONTINUOUS
 10
292.2628021575
 20
208.3538538322
  0
VERTEX
  8
0
 62
7
  6
CONTINUOUS
 10
292.8762840594
 20
208.1506631813
  0
VERTEX
  8
0
 62
7
  6
CONTINUOUS
 10
293.5170412335
 20
207.9334845611
  0
VERTEX
  8
0
 62
7
  6
CONTINUOUS
 10
294.2552834556
 20
207.676902578
  0
VERTEX
  8
0
 62
7
  6
CONTINUOUS
 10
295.0671895567
 20
207.3868218193
  0
SEQEND
  0
POLYLINE
  8
0
 62
7
  6
CONTINUOUS
 66
1
 70
0
  0
VERTEX
  8
0
 62
7
  6
CONTINUOUS
 10
199.8410231042
 20
226.3486395356
  0
VERTEX
  8
0
 62
7
  6
CONTINUOUS
 10
199.343169933
 20
226.4949630358
  0
VERTEX
  8
0
 62
7
  6
CONTINUOUS
 10
198.7654843507
 20
226.6337845473
  0
VERTEX
  8
0
 62
7
  6
CONTINUOUS
 10
198.1124295986
 20
226.7653813884
  0
VERTEX
  8
0
 62
7
  6
CONTINUOUS
 10
197.3850470187
 20
226.8878280117
  0
VERTEX
  8
0
 62
7
  6
CONTINUOUS
 10
196.5839535428
 20
226.9992430554
  0
VERTEX
  8
0
 62
7
  6
CONTINUOUS
 10
195.7140438424
 20
227.1000704085
  0
SEQEND
  0
POLYLINE
  8
0
 62
7
  6
CONTINUOUS
 66
1
 70
0
  0
VERTEX
  8
0
 62
7
  6
CONTINUOUS
 10
200.7180720081
 20
227.1458661039
  0
VERTEX
  8
0
 62
7
  6
CONTINUOUS
 10
201.4512663726
 20
226.8078860966
  0
VERTEX
  8
0
 62
7
  6
CONTINUOUS
 10
201.9174428718
 20
226.4668045074
  0
VERTEX
  8
0
 62
7
  6
CONTINUOUS
 10
202.1156620083
 20
226.1216683815
  0
VERTEX
  8
0
 62
7
  6
CONTINUOUS
 10
202.0447421786
 20
225.7810795126
  0
VERTEX
  8
0
 62
7
  6
CONTINUOUS
 10
201.6989838917
 20
225.4494713855
  0
VERTEX
  8
0
 62
7
  6
CONTINUOUS
 10
201.090908266
 20
225.1316322296
  0
SEQEND
  0
POLYLINE
  8
0
 62
7
  6
CONTINUOUS
 66
1
 70
0
  0
VERTEX
  8
0
 62
7
  6
CONTINUOUS
 10
297.1383196976
 20
183.7024434154
  0
VERTEX
  8
0
 62
7
  6
CONTINUOUS
 10
295.5327489626
 20
184.498309076
  0
VERTEX
  8
0
 62
7
  6
CONTINUOUS
 10
293.9109774867
 20
185.2634941106
  0
VERTEX
  8
0
 62
7
  6
CONTINUOUS
 10
292.2710550506
 20
185.9994309994
  0
VERTEX
  8
0
 62
7
  6
CONTINUOUS
 10
290.6178854427
 20
186.7032910504
  0
VERTEX
  8
0
 62
7
  6
CONTINUOUS
 10
288.9547487985
 20
187.3728487704
  0
VERTEX
  8
0
 62
7
  6
CONTINUOUS
 10
287.284874455
 20
188.0072483569
  0
VERTEX
  8
0
 62
7
  6
CONTINUOUS
 10
285.6189296872
 20
188.6030303784
  0
VERTEX
  8
0
 62
7
  6
CONTINUOUS
 10
283.9379767945
 20
189.1656313506
  0
VERTEX
  8
0
 62
7
  6
CONTINUOUS
 10
282.2295434482
 20
189.6995575501
  0
VERTEX
  8
0
 62
7
  6
CONTINUOUS
 10
280.4834768764
 20
190.206349011
  0
VERTEX
  8
0
 62
7
  6
CONTINUOUS
 10
278.6760090217
 20
190.6913486763
  0
VERTEX
  8
0
 62
7
  6
CONTINUOUS
 10
276.8340094232
 20
191.1499870286
  0
VERTEX
  8
0
 62
7
  6
CONTINUOUS
 10
274.9773007853
 20
191.5771541871
  0
VERTEX
  8
0
 62
7
  6
CONTINUOUS
 10
273.1051225435
 20
191.9769181805
  0
VERTEX
  8
0
 62
7
  6
CONTINUOUS
 10
271.2321573405
 20
192.3489070628
  0
VERTEX
  8
0
 62
7
  6
CONTINUOUS
 10
269.3325566713
 20
192.7003095711
  0
VERTEX
  8
0
 62
7
  6
CONTINUOUS
 10
267.3761823984
 20
193.0400306619
  0
VERTEX
  8
0
 62
7
  6
CONTINUOUS
 10
265.3880960984
 20
193.3664120679
  0
VERTEX
  8
0
 62
7
  6
CONTINUOUS
 10
263.3825422655
 20
193.6785353565
  0
VERTEX
  8
0
 62
7
  6
CONTINUOUS
 10
261.3639000199
 20
193.9798812638
  0
VERTEX
  8
0
 62
7
  6
CONTINUOUS
 10
259.3506333007
 20
194.271214047
  0
VERTEX
  8
0
 62
7
  6
CONTINUOUS
 10
257.3160036919
 20
194.5577923345
  0
VERTEX
  8
0
 62
7
  6
CONTINUOUS
 10
255.2464011485
 20
194.8456702755
  0
VERTEX
  8
0
 62
7
  6
CONTINUOUS
 10
250.8734304305
 20
195.4442413971
  0
SEQEND
  0
LINE
  8
0
 62
7
  6
CONTINUOUS
 10
347.1024575373
 20
149.169111253
 11
345.009660339
 21
150.5166533171
  0
LINE
  8
0
 62
7
  6
CONTINUOUS
 10
345.009660339
 20
150.5166533171
 11
342.9264346675
 21
151.8628142806
  0
POLYLINE
  8
0
 62
7
  6
CONTINUOUS
 66
1
 70
0
  0
VERTEX
  8
0
 62
7
  6
CONTINUOUS
 10
342.9264346675
 20
151.8628142806
  0
VERTEX
  8
0
 62
7
  6
CONTINUOUS
 10
341.7352273976
 20
152.6396702059
  0
VERTEX
  8
0
 62
7
  6
CONTINUOUS
 10
340.5019626835
 20
153.45302322
  0
VERTEX
  8
0
 62
7
  6
CONTINUOUS
 10
339.2007152593
 20
154.320517708
  0
VERTEX
  8
0
 62
7
  6
CONTINUOUS
 10
337.9072215078
 20
155.192383978
  0
VERTEX
  8
0
 62
7
  6
CONTINUOUS
 10
336.6981648658
 20
156.0173833031
  0
VERTEX
  8
0
 62
7
  6
CONTINUOUS
 10
335.5485497394
 20
156.8117179964
  0
SEQEND
  0
POLYLINE
  8
0
 62
7
  6
CONTINUOUS
 66
1
 70
0
  0
VERTEX
  8
0
 62
7
  6
CONTINUOUS
 10
177.4848925047
 20
297.4239288037
  0
VERTEX
  8
0
 62
7
  6
CONTINUOUS
 10
177.4637824038
 20
297.454854044
  0
VERTEX
  8
0
 62
7
  6
CONTINUOUS
 10
177.4072333447
 20
297.5525014354
  0
VERTEX
  8
0
 62
7
  6
CONTINUOUS
 10
177.3176279521
 20
297.7128032501
  0
SEQEND
  0
LINE
  8
0
 62
7
  6
CONTINUOUS
 10
196.0327044356
 20
238.9512758555
 11
195.9054338937
 21
238.9475227976
  0
POLYLINE
  8
0
 62
7
  6
CONTINUOUS
 66
1
 70
0
  0
VERTEX
  8
0
 62
7
  6
CONTINUOUS
 10
196.0331025238
 20
238.9509080949
  0
VERTEX
  8
0
 62
7
  6
CONTINUOUS
 10
203.4457335516
 20
239.0906564671
  0
VERTEX
  8
0
 62
7
  6
CONTINUOUS
 10
210.8314766633
 20
239.0682887713
  0
VERTEX
  8
0
 62
7
  6
CONTINUOUS
 10
218.2517920924
 20
238.8781584255
  0
VERTEX
  8
0
 62
7
  6
CONTINUOUS
 10
225.522607252
 20
238.5368284764
  0
VERTEX
  8
0
 62
7
  6
CONTINUOUS
 10
232.3953864217
 20
238.0660726994
  0
VERTEX
  8
0
 62
7
  6
CONTINUOUS
 10
239.1248918341
 20
237.4447191736
  0
VERTEX
  8
0
 62
7
  6
CONTINUOUS
 10
245.9666690868
 20
236.6526508088
  0
VERTEX
  8
0
 62
7
  6
CONTINUOUS
 10
252.669659911
 20
235.708687703
  0
VERTEX
  8
0
 62
7
  6
CONTINUOUS
 10
258.99540455
 20
234.6419454524
  0
VERTEX
  8
0
 62
7
  6
CONTINUOUS
 10
265.1616630863
 20
233.4014082231
  0
VERTEX
  8
0
 62
7
  6
CONTINUOUS
 10
271.389221239
 20
231.9287243561
  0
VERTEX
  8
0
 62
7
  6
CONTINUOUS
 10
277.4306184403
 20
230.2749238473
  0
VERTEX
  8
0
 62
7
  6
CONTINUOUS
 10
283.0355033157
 20
228.496704059
  0
VERTEX
  8
0
 62
7
  6
CONTINUOUS
 10
288.4333144325
 20
226.5187351868
  0
VERTEX
  8
0
 62
7
  6
CONTINUOUS
 10
293.8481146894
 20
224.2484173805
  0
VERTEX
  8
0
 62
7
  6
CONTINUOUS
 10
299.0457547443
 20
221.7941663595
  0
VERTEX
  8
0
 62
7
  6
CONTINUOUS
 10
303.797206387
 20
219.2625609704
  0
VERTEX
  8
0
 62
7
  6
CONTINUOUS
 10
308.3108983852
 20
216.5668430589
  0
VERTEX
  8
0
 62
7
  6
CONTINUOUS
 10
312.7878672013
 20
213.5992993902
  0
VERTEX
  8
0
 62
7
  6
CONTINUOUS
 10
317.0213268193
 20
210.5292942043
  0
VERTEX
  8
0
 62
7
  6
CONTINUOUS
 10
320.7941545626
 20
207.5410066443
  0
VERTEX
  8
0
 62
7
  6
CONTINUOUS
 10
324.338281746
 20
204.4824196627
  0
VERTEX
  8
0
 62
7
  6
CONTINUOUS
 10
327.8332629278
 20
201.2515166435
  0
VERTEX
  8
0
 62
7
  6
CONTINUOUS
 10
331.219216153
 20
197.8823403386
  0
SEQEND
  0
POLYLINE
  8
0
 62
7
  6
CONTINUOUS
 66
1
 70
0
  0
VERTEX
  8
0
 62
7
  6
CONTINUOUS
 10
179.4501250571
 20
238.8661682556
  0
VERTEX
  8
0
 62
7
  6
CONTINUOUS
 10
182.7410923246
 20
238.8172737069
  0
VERTEX
  8
0
 62
7
  6
CONTINUOUS
 10
186.0327142843
 20
238.8008635075
  0
VERTEX
  8
0
 62
7
  6
CONTINUOUS
 10
189.3243165448
 20
238.817273707
  0
VERTEX
  8
0
 62
7
  6
CONTINUOUS
 10
192.6152247205
 20
238.866839927
  0
VERTEX
  8
0
 62
7
  6
CONTINUOUS
 10
195.9054487031
 20
238.949449234
  0
SEQEND
  0
LINE
  8
0
 62
7
  6
CONTINUOUS
 10
179.4501250571
 20
238.8661682556
 11
176.0326935554
 21
238.9508905374
  0
POLYLINE
  8
0
 62
7
  6
CONTINUOUS
 66
1
 70
0
  0
VERTEX
  8
0
 62
7
  6
CONTINUOUS
 10
295.0671895567
 20
207.3868218193
  0
VERTEX
  8
0
 62
7
  6
CONTINUOUS
 10
295.7500738835
 20
207.136377571
  0
VERTEX
  8
0
 62
7
  6
CONTINUOUS
 10
296.4350928314
 20
206.8791810621
  0
VERTEX
  8
0
 62
7
  6
CONTINUOUS
 10
297.1221885445
 20
206.6152164017
  0
VERTEX
  8
0
 62
7
  6
CONTINUOUS
 10
297.81139924
 20
206.3443940467
  0
VERTEX
  8
0
 62
7
  6
CONTINUOUS
 10
298.502762306
 20
206.0666271474
  0
VERTEX
  8
0
 62
7
  6
CONTINUOUS
 10
299.1962173512
 20
205.7819126929
  0
SEQEND
  0
POLYLINE
  8
0
 62
7
  6
CONTINUOUS
 66
1
 70
0
  0
VERTEX
  8
0
 62
7
  6
CONTINUOUS
 10
299.1962173512
 20
205.7819126929
  0
VERTEX
  8
0
 62
7
  6
CONTINUOUS
 10
300.186466777
 20
205.36429756
  0
VERTEX
  8
0
 62
7
  6
CONTINUOUS
 10
301.1826739619
 20
204.9312106203
  0
VERTEX
  8
0
 62
7
  6
CONTINUOUS
 10
302.1850707334
 20
204.4822824143
  0
VERTEX
  8
0
 62
7
  6
CONTINUOUS
 10
303.1924929816
 20
204.0182685785
  0
VERTEX
  8
0
 62
7
  6
CONTINUOUS
 10
304.2037733924
 20
203.5400107564
  0
VERTEX
  8
0
 62
7
  6
CONTINUOUS
 10
305.2191332392
 20
203.0472682538
  0
SEQEND
  0
POLYLINE
  8
0
 62
7
  6
CONTINUOUS
 66
1
 70
0
  0
VERTEX
  8
0
 62
7
  6
CONTINUOUS
 10
304.9041649996
 20
203.2014330837
  0
VERTEX
  8
0
 62
7
  6
CONTINUOUS
 10
304.7891844192
 20
203.258031595
  0
VERTEX
  8
0
 62
7
  6
CONTINUOUS
 10
304.6622596535
 20
203.3222436868
  0
VERTEX
  8
0
 62
7
  6
CONTINUOUS
 10
304.5877221326
 20
203.3610930818
  0
VERTEX
  8
0
 62
7
  6
CONTINUOUS
 10
304.653729284
 20
203.3305209585
  0
VERTEX
  8
0
 62
7
  6
CONTINUOUS
 10
304.7709312038
 20
203.274231929
  0
VERTEX
  8
0
 62
7
  6
CONTINUOUS
 10
304.8714611733
 20
203.2253227496
  0
VERTEX
  8
0
 62
7
  6
CONTINUOUS
 10
304.9790950939
 20
203.1717209874
  0
VERTEX
  8
0
 62
7
  6
CONTINUOUS
 10
305.0951320032
 20
203.1122563686
  0
VERTEX
  8
0
 62
7
  6
CONTINUOUS
 10
305.2191332392
 20
203.0472682538
  0
SEQEND
  0
LINE
  8
0
 62
7
  6
CONTINUOUS
 10
305.3851660713
 20
202.9642652244
 11
305.0251142985
 21
203.1423385071
  0
LINE
  8
0
 62
7
  6
CONTINUOUS
 10
305.7081096375
 20
202.8019774538
 11
305.3851660713
 21
202.9642652244
  0
LINE
  8
0
 62
7
  6
CONTINUOUS
 10
306.638518426
 20
202.3295011296
 11
305.7081096375
 21
202.8019774538
  0
POLYLINE
  8
0
 62
7
  6
CONTINUOUS
 66
1
 70
0
  0
VERTEX
  8
0
 62
7
  6
CONTINUOUS
 10
306.638518426
 20
202.3295011296
  0
VERTEX
  8
0
 62
7
  6
CONTINUOUS
 10
307.2174038395
 20
202.0325694242
  0
VERTEX
  8
0
 62
7
  6
CONTINUOUS
 10
307.7996184849
 20
201.7291379856
  0
VERTEX
  8
0
 62
7
  6
CONTINUOUS
 10
308.3854997485
 20
201.4188180515
  0
VERTEX
  8
0
 62
7
  6
CONTINUOUS
 10
308.9739356505
 20
201.1025669338
  0
VERTEX
  8
0
 62
7
  6
CONTINUOUS
 10
309.5638131928
 20
200.7813950508
  0
VERTEX
  8
0
 62
7
  6
CONTINUOUS
 10
310.1554679942
 20
200.4549674555
  0
SEQEND
  0
POLYLINE
  8
0
 62
7
  6
CONTINUOUS
 66
1
 70
0
  0
VERTEX
  8
0
 62
7
  6
CONTINUOUS
 10
176.0332201942
 20
262.714365968
  0
VERTEX
  8
0
 62
7
  6
CONTINUOUS
 10
173.8370612934
 20
264.0556088742
  0
VERTEX
  8
0
 62
7
  6
CONTINUOUS
 10
171.8447189248
 20
265.6281432685
  0
VERTEX
  8
0
 62
7
  6
CONTINUOUS
 10
170.0428385493
 20
267.4469804797
  0
VERTEX
  8
0
 62
7
  6
CONTINUOUS
 10
168.4714508894
 20
269.467045957
  0
VERTEX
  8
0
 62
7
  6
CONTINUOUS
 10
167.1631286984
 20
271.6602657794
  0
VERTEX
  8
0
 62
7
  6
CONTINUOUS
 10
166.1269032422
 20
273.9906639348
  0
VERTEX
  8
0
 62
7
  6
CONTINUOUS
 10
165.3810425951
 20
276.4238145047
  0
VERTEX
  8
0
 62
7
  6
CONTINUOUS
 10
164.9304214072
 20
278.9270084286
  0
VERTEX
  8
0
 62
7
  6
CONTINUOUS
 10
164.7875234752
 20
281.4694228479
  0
VERTEX
  8
0
 62
7
  6
CONTINUOUS
 10
164.9478004406
 20
284.0109867988
  0
VERTEX
  8
0
 62
7
  6
CONTINUOUS
 10
165.416258954
 20
286.5138943426
  0
VERTEX
  8
0
 62
7
  6
CONTINUOUS
 10
166.1767278842
 20
288.9405400595
  0
VERTEX
  8
0
 62
7
  6
CONTINUOUS
 10
167.221486395
 20
291.2490427526
  0
VERTEX
  8
0
 62
7
  6
CONTINUOUS
 10
168.5301904128
 20
293.4144243158
  0
VERTEX
  8
0
 62
7
  6
CONTINUOUS
 10
170.0874078266
 20
295.4051662605
  0
VERTEX
  8
0
 62
7
  6
CONTINUOUS
 10
171.8706790311
 20
297.1990052733
  0
VERTEX
  8
0
 62
7
  6
CONTINUOUS
 10
173.8489486167
 20
298.7590740753
  0
VERTEX
  8
0
 62
7
  6
CONTINUOUS
 10
176.0325697669
 20
300.09766365
  0
SEQEND
  0
POLYLINE
  8
0
 62
7
  6
CONTINUOUS
 66
1
 70
0
  0
VERTEX
  8
0
 62
7
  6
CONTINUOUS
 10
335.5485497394
 20
156.8117179964
  0
VERTEX
  8
0
 62
7
  6
CONTINUOUS
 10
334.9310422439
 20
157.2424166325
  0
VERTEX
  8
0
 62
7
  6
CONTINUOUS
 10
334.2912136523
 20
157.692586756
  0
VERTEX
  8
0
 62
7
  6
CONTINUOUS
 10
333.6218838184
 20
158.1673863127
  0
VERTEX
  8
0
 62
7
  6
CONTINUOUS
 10
332.9440839297
 20
158.6521313963
  0
VERTEX
  8
0
 62
7
  6
CONTINUOUS
 10
332.2777380204
 20
159.1329305259
  0
VERTEX
  8
0
 62
7
  6
CONTINUOUS
 10
331.6196074211
 20
159.6116026228
  0
VERTEX
  8
0
 62
7
  6
CONTINUOUS
 10
330.9864465728
 20
160.0752987583
  0
VERTEX
  8
0
 62
7
  6
CONTINUOUS
 10
330.3383194833
 20
160.5539459396
  0
VERTEX
  8
0
 62
7
  6
CONTINUOUS
 10
329.6082804371
 20
161.0979265673
  0
VERTEX
  8
0
 62
7
  6
CONTINUOUS
 10
328.8929429409
 20
161.6348405535
  0
VERTEX
  8
0
 62
7
  6
CONTINUOUS
 10
328.2766894486
 20
162.1008950747
  0
SEQEND
  0
POLYLINE
  8
0
 62
7
  6
CONTINUOUS
 66
1
 70
0
  0
VERTEX
  8
0
 62
7
  6
CONTINUOUS
 10
311.2455459789
 20
175.0761340923
  0
VERTEX
  8
0
 62
7
  6
CONTINUOUS
 10
309.1886483654
 20
176.5200369506
  0
VERTEX
  8
0
 62
7
  6
CONTINUOUS
 10
307.0063795447
 20
177.9722415012
  0
VERTEX
  8
0
 62
7
  6
CONTINUOUS
 10
304.6872613344
 20
179.4495317828
  0
VERTEX
  8
0
 62
7
  6
CONTINUOUS
 10
302.2578631056
 20
180.9137558452
  0
VERTEX
  8
0
 62
7
  6
CONTINUOUS
 10
299.7453216653
 20
182.3258815533
  0
VERTEX
  8
0
 62
7
  6
CONTINUOUS
 10
297.1383196976
 20
183.7024434154
  0
SEQEND
  0
POLYLINE
  8
0
 62
7
  6
CONTINUOUS
 66
1
 70
0
  0
VERTEX
  8
0
 62
7
  6
CONTINUOUS
 10
315.0805956184
 20
172.2735343689
  0
VERTEX
  8
0
 62
7
  6
CONTINUOUS
 10
314.2998864295
 20
172.8546804076
  0
VERTEX
  8
0
 62
7
  6
CONTINUOUS
 10
313.5203295678
 20
173.4301241962
  0
VERTEX
  8
0
 62
7
  6
CONTINUOUS
 10
312.7484692233
 20
173.9945915324
  0
VERTEX
  8
0
 62
7
  6
CONTINUOUS
 10
311.990903177
 20
174.5427250849
  0
VERTEX
  8
0
 62
7
  6
CONTINUOUS
 10
311.2455459789
 20
175.0761340923
  0
SEQEND
  0
LINE
  8
0
 62
7
  6
CONTINUOUS
 10
316.2536021287
 20
171.391421677
 11
315.0805956184
 21
172.2735343689
  0
LINE
  8
0
 62
7
  6
CONTINUOUS
 10
317.4045297489
 20
170.5173238298
 11
316.2536021287
 21
171.391421677
  0
LINE
  8
0
 62
7
  6
CONTINUOUS
 10
328.2766894486
 20
162.1008950747
 11
327.4008301405
 21
162.7702595927
  0
LINE
  8
0
 62
7
  6
CONTINUOUS
 10
318.5256072308
 20
169.658344124
 11
317.4045297489
 21
170.5173238298
  0
LINE
  8
0
 62
7
  6
CONTINUOUS
 10
327.4008301405
 20
162.7702595927
 11
326.3887477849
 21
163.5499395392
  0
LINE
  8
0
 62
7
  6
CONTINUOUS
 10
326.3887477849
 20
163.5499395392
 11
325.1463173358
 21
164.5119090296
  0
LINE
  8
0
 62
7
  6
CONTINUOUS
 10
320.4683921195
 20
168.1551045422
 11
318.5256072308
 21
169.658344124
  0
LINE
  8
0
 62
7
  6
CONTINUOUS
 10
325.1463173358
 20
164.5119090296
 11
323.9676947744
 21
165.4282712499
  0
LINE
  8
0
 62
7
  6
CONTINUOUS
 10
322.5295918742
 20
166.5495746261
 11
320.4683921195
 21
168.1551045422
  0
LINE
  8
0
 62
7
  6
CONTINUOUS
 10
323.9676947744
 20
165.4282712499
 11
322.5295918742
 21
166.5495746261
  0
POLYLINE
  8
0
 62
7
  6
CONTINUOUS
 66
1
 70
0
  0
VERTEX
  8
0
 62
7
  6
CONTINUOUS
 10
310.1554679942
 20
200.4549674555
  0
VERTEX
  8
0
 62
7
  6
CONTINUOUS
 10
311.3650369798
 20
199.7742933914
  0
VERTEX
  8
0
 62
7
  6
CONTINUOUS
 10
312.5811770033
 20
199.0722387943
  0
VERTEX
  8
0
 62
7
  6
CONTINUOUS
 10
313.803639035
 20
198.3489118658
  0
VERTEX
  8
0
 62
7
  6
CONTINUOUS
 10
315.0322172952
 20
197.6044511492
  0
VERTEX
  8
0
 62
7
  6
CONTINUOUS
 10
316.2666974188
 20
196.8390304093
  0
VERTEX
  8
0
 62
7
  6
CONTINUOUS
 10
317.5068075564
 20
196.052859224
  0
SEQEND
  0
POLYLINE
  8
0
 62
7
  6
CONTINUOUS
 66
1
 70
0
  0
VERTEX
  8
0
 62
7
  6
CONTINUOUS
 10
317.5068075564
 20
196.052859224
  0
VERTEX
  8
0
 62
7
  6
CONTINUOUS
 10
318.7268763463
 20
195.2630874596
  0
VERTEX
  8
0
 62
7
  6
CONTINUOUS
 10
319.9416605151
 20
194.4610910947
  0
VERTEX
  8
0
 62
7
  6
CONTINUOUS
 10
321.171437421
 20
193.6335413687
  0
VERTEX
  8
0
 62
7
  6
CONTINUOUS
 10
322.3548605713
 20
192.8228842454
  0
VERTEX
  8
0
 62
7
  6
CONTINUOUS
 10
323.4317688951
 20
192.0734074475
  0
VERTEX
  8
0
 62
7
  6
CONTINUOUS
 10
324.4235870649
 20
191.3732317222
  0
SEQEND
  0
POLYLINE
  8
0
 62
7
  6
CONTINUOUS
 66
1
 70
0
  0
VERTEX
  8
0
 62
7
  6
CONTINUOUS
 10
282.6349064276
 20
210.9674078119
  0
VERTEX
  8
0
 62
7
  6
CONTINUOUS
 10
283.3875413356
 20
210.4670462306
  0
VERTEX
  8
0
 62
7
  6
CONTINUOUS
 10
284.2536074641
 20
209.7748715958
  0
VERTEX
  8
0
 62
7
  6
CONTINUOUS
 10
285.2589128293
 20
208.8496829337
  0
VERTEX
  8
0
 62
7
  6
CONTINUOUS
 10
286.3158955189
 20
207.7604072157
  0
VERTEX
  8
0
 62
7
  6
CONTINUOUS
 10
287.2956781958
 20
206.6566595618
  0
VERTEX
  8
0
 62
7
  6
CONTINUOUS
 10
288.2860839553
 20
205.4548292232
  0
VERTEX
  8
0
 62
7
  6
CONTINUOUS
 10
289.3641125198
 20
204.0495031564
  0
VERTEX
  8
0
 62
7
  6
CONTINUOUS
 10
290.4558341792
 20
202.5190259783
  0
VERTEX
  8
0
 62
7
  6
CONTINUOUS
 10
291.5122235137
 20
200.9251696587
  0
VERTEX
  8
0
 62
7
  6
CONTINUOUS
 10
292.5290237099
 20
199.2691113413
  0
VERTEX
  8
0
 62
7
  6
CONTINUOUS
 10
293.4914563584
 20
197.565729412
  0
VERTEX
  8
0
 62
7
  6
CONTINUOUS
 10
294.3809801195
 20
195.8366924821
  0
VERTEX
  8
0
 62
7
  6
CONTINUOUS
 10
295.1868498126
 20
194.0878351787
  0
VERTEX
  8
0
 62
7
  6
CONTINUOUS
 10
295.8741235811
 20
192.382691065
  0
VERTEX
  8
0
 62
7
  6
CONTINUOUS
 10
296.410593163
 20
190.8142995493
  0
VERTEX
  8
0
 62
7
  6
CONTINUOUS
 10
296.8328084989
 20
189.2845343095
  0
VERTEX
  8
0
 62
7
  6
CONTINUOUS
 10
297.1486090215
 20
187.6840287384
  0
VERTEX
  8
0
 62
7
  6
CONTINUOUS
 10
297.3023298083
 20
186.1722748222
  0
VERTEX
  8
0
 62
7
  6
CONTINUOUS
 10
297.2915996195
 20
184.8576398133
  0
VERTEX
  8
0
 62
7
  6
CONTINUOUS
 10
297.1382785104
 20
183.7024871458
  0
SEQEND
  0
LINE
  8
0
 62
7
  6
CONTINUOUS
 10
324.4235870649
 20
191.3732317222
 11
324.4666672212
 21
191.3416893701
  0
POLYLINE
  8
0
 62
7
  6
CONTINUOUS
 66
1
 70
0
  0
VERTEX
  8
0
 62
7
  6
CONTINUOUS
 10
295.0672819753
 20
207.3867576197
  0
VERTEX
  8
0
 62
7
  6
CONTINUOUS
 10
295.8107253523
 20
206.8206429429
  0
VERTEX
  8
0
 62
7
  6
CONTINUOUS
 10
296.6690412512
 20
206.0652020574
  0
VERTEX
  8
0
 62
7
  6
CONTINUOUS
 10
297.6660203942
 20
205.080998538
  0
VERTEX
  8
0
 62
7
  6
CONTINUOUS
 10
298.7290016414
 20
203.9278950817
  0
VERTEX
  8
0
 62
7
  6
CONTINUOUS
 10
299.7546211429
 20
202.7269479329
  0
VERTEX
  8
0
 62
7
  6
CONTINUOUS
 10
300.7963497916
 20
201.4252825206
  0
VERTEX
  8
0
 62
7
  6
CONTINUOUS
 10
301.8893450078
 20
199.9737165942
  0
VERTEX
  8
0
 62
7
  6
CONTINUOUS
 10
303.0058777755
 20
198.3989481028
  0
VERTEX
  8
0
 62
7
  6
CONTINUOUS
 10
304.1366263203
 20
196.7035990513
  0
VERTEX
  8
0
 62
7
  6
CONTINUOUS
 10
305.2517909396
 20
194.9211762597
  0
VERTEX
  8
0
 62
7
  6
CONTINUOUS
 10
306.3226343065
 20
193.0885535708
  0
VERTEX
  8
0
 62
7
  6
CONTINUOUS
 10
307.3364975926
 20
191.2182663132
  0
VERTEX
  8
0
 62
7
  6
CONTINUOUS
 10
308.2809904772
 20
189.3207743448
  0
VERTEX
  8
0
 62
7
  6
CONTINUOUS
 10
309.1277508166
 20
187.441126344
  0
VERTEX
  8
0
 62
7
  6
CONTINUOUS
 10
309.8536474726
 20
185.6260339818
  0
VERTEX
  8
0
 62
7
  6
CONTINUOUS
 10
310.4579725001
 20
183.8753741188
  0
VERTEX
  8
0
 62
7
  6
CONTINUOUS
 10
310.9320691697
 20
182.2124080818
  0
VERTEX
  8
0
 62
7
  6
CONTINUOUS
 10
311.2817706568
 20
180.6041175882
  0
VERTEX
  8
0
 62
7
  6
CONTINUOUS
 10
311.5024434079
 20
178.993056871
  0
VERTEX
  8
0
 62
7
  6
CONTINUOUS
 10
311.5624017573
 20
177.4983597795
  0
VERTEX
  8
0
 62
7
  6
CONTINUOUS
 10
311.4696456148
 20
176.2041470789
  0
VERTEX
  8
0
 62
7
  6
CONTINUOUS
 10
311.2447796371
 20
175.0760192909
  0
SEQEND
  0
POLYLINE
  8
0
 62
7
  6
CONTINUOUS
 66
1
 70
0
  0
VERTEX
  8
0
 62
7
  6
CONTINUOUS
 10
299.1962812785
 20
205.7818640813
  0
VERTEX
  8
0
 62
7
  6
CONTINUOUS
 10
299.9442907272
 20
205.1698731382
  0
VERTEX
  8
0
 62
7
  6
CONTINUOUS
 10
300.8117891358
 20
204.360778893
  0
VERTEX
  8
0
 62
7
  6
CONTINUOUS
 10
301.8232498922
 20
203.3132310242
  0
VERTEX
  8
0
 62
7
  6
CONTINUOUS
 10
302.9055883602
 20
202.0907016597
  0
VERTEX
  8
0
 62
7
  6
CONTINUOUS
 10
303.9538758595
 20
200.8196480098
  0
VERTEX
  8
0
 62
7
  6
CONTINUOUS
 10
305.0212991791
 20
199.4444079431
  0
VERTEX
  8
0
 62
7
  6
CONTINUOUS
 10
306.1421190846
 20
197.9152065553
  0
VERTEX
  8
0
 62
7
  6
CONTINUOUS
 10
307.2905191829
 20
196.2566239302
  0
VERTEX
  8
0
 62
7
  6
CONTINUOUS
 10
308.4595367811
 20
194.4668962833
  0
VERTEX
  8
0
 62
7
  6
CONTINUOUS
 10
309.6162513085
 20
192.5836603888
  0
VERTEX
  8
0
 62
7
  6
CONTINUOUS
 10
310.7294734903
 20
190.6473140693
  0
VERTEX
  8
0
 62
7
  6
CONTINUOUS
 10
311.7858654977
 20
188.670597602
  0
VERTEX
  8
0
 62
7
  6
CONTINUOUS
 10
312.7719446174
 20
186.6647479524
  0
VERTEX
  8
0
 62
7
  6
CONTINUOUS
 10
313.6575778691
 20
184.677388963
  0
VERTEX
  8
0
 62
7
  6
CONTINUOUS
 10
314.4182727487
 20
182.7570427874
  0
VERTEX
  8
0
 62
7
  6
CONTINUOUS
 10
315.0515560588
 20
180.9064904812
  0
VERTEX
  8
0
 62
7
  6
CONTINUOUS
 10
315.5472509427
 20
179.153291136
  0
VERTEX
  8
0
 62
7
  6
CONTINUOUS
 10
315.9120276526
 20
177.4608348443
  0
VERTEX
  8
0
 62
7
  6
CONTINUOUS
 10
316.1410014254
 20
175.7670845537
  0
VERTEX
  8
0
 62
7
  6
CONTINUOUS
 10
316.2004811509
 20
174.2010652785
  0
VERTEX
  8
0
 62
7
  6
CONTINUOUS
 10
316.0999904727
 20
172.8531098868
  0
VERTEX
  8
0
 62
7
  6
CONTINUOUS
 10
315.8624877572
 20
171.6848093474
  0
SEQEND
  0
POLYLINE
  8
0
 62
7
  6
CONTINUOUS
 66
1
 70
0
  0
VERTEX
  8
0
 62
7
  6
CONTINUOUS
 10
196.032560437
 20
300.0978116848
  0
VERTEX
  8
0
 62
7
  6
CONTINUOUS
 10
198.2294507209
 20
298.7524569331
  0
VERTEX
  8
0
 62
7
  6
CONTINUOUS
 10
200.2221182164
 20
297.1760895194
  0
VERTEX
  8
0
 62
7
  6
CONTINUOUS
 10
202.0238093794
 20
295.3535914938
  0
VERTEX
  8
0
 62
7
  6
CONTINUOUS
 10
203.5947897533
 20
293.3303100564
  0
VERTEX
  8
0
 62
7
  6
CONTINUOUS
 10
204.9027482032
 20
291.1346230937
  0
VERTEX
  8
0
 62
7
  6
CONTINUOUS
 10
205.9386624143
 20
288.8023193443
  0
VERTEX
  8
0
 62
7
  6
CONTINUOUS
 10
206.684398221
 20
286.3676930691
  0
VERTEX
  8
0
 62
7
  6
CONTINUOUS
 10
207.1349820621
 20
283.863603409
  0
VERTEX
  8
0
 62
7
  6
CONTINUOUS
 10
207.277900482
 20
281.3210531525
  0
VERTEX
  8
0
 62
7
  6
CONTINUOUS
 10
207.1176396077
 20
278.7799051436
  0
VERTEX
  8
0
 62
7
  6
CONTINUOUS
 10
206.6491308899
 20
276.2777744857
  0
VERTEX
  8
0
 62
7
  6
CONTINUOUS
 10
205.8885142952
 20
273.8524203157
  0
VERTEX
  8
0
 62
7
  6
CONTINUOUS
 10
204.8433757529
 20
271.545802003
  0
VERTEX
  8
0
 62
7
  6
CONTINUOUS
 10
203.5342966715
 20
269.3829489385
  0
VERTEX
  8
0
 62
7
  6
CONTINUOUS
 10
201.9768716583
 20
267.3956110193
  0
VERTEX
  8
0
 62
7
  6
CONTINUOUS
 10
200.1936359007
 20
265.6055997717
  0
VERTEX
  8
0
 62
7
  6
CONTINUOUS
 10
198.2157895197
 20
264.0493592575
  0
VERTEX
  8
0
 62
7
  6
CONTINUOUS
 10
196.0329219058
 20
262.7147544881
  0
SEQEND
  0
POLYLINE
  8
0
 62
7
  6
CONTINUOUS
 66
1
 70
0
  0
VERTEX
  8
0
 62
7
  6
CONTINUOUS
 10
324.4666672212
 20
191.3416893701
  0
VERTEX
  8
0
 62
7
  6
CONTINUOUS
 10
321.2483073258
 20
194.5626448543
  0
VERTEX
  8
0
 62
7
  6
CONTINUOUS
 10
317.9264301816
 20
197.6450707766
  0
VERTEX
  8
0
 62
7
  6
CONTINUOUS
 10
314.5611864386
 20
200.5299528937
  0
VERTEX
  8
0
 62
7
  6
CONTINUOUS
 10
310.9776513644
 20
203.3533860551
  0
VERTEX
  8
0
 62
7
  6
CONTINUOUS
 10
306.9436917435
 20
206.2467294577
  0
VERTEX
  8
0
 62
7
  6
CONTINUOUS
 10
302.6687682539
 20
209.0106825156
  0
VERTEX
  8
0
 62
7
  6
CONTINUOUS
 10
298.3490747836
 20
211.5135595775
  0
VERTEX
  8
0
 62
7
  6
CONTINUOUS
 10
293.8101747207
 20
213.8579736909
  0
VERTEX
  8
0
 62
7
  6
CONTINUOUS
 10
288.8773695726
 20
216.1077222633
  0
VERTEX
  8
0
 62
7
  6
CONTINUOUS
 10
283.7335536604
 20
218.1585026817
  0
VERTEX
  8
0
 62
7
  6
CONTINUOUS
 10
278.5612851723
 20
219.9516814378
  0
VERTEX
  8
0
 62
7
  6
CONTINUOUS
 10
273.2005185069
 20
221.5595567652
  0
VERTEX
  8
0
 62
7
  6
CONTINUOUS
 10
267.4891876553
 20
223.02806437
  0
VERTEX
  8
0
 62
7
  6
CONTINUOUS
 10
261.6042361601
 20
224.3127847625
  0
VERTEX
  8
0
 62
7
  6
CONTINUOUS
 10
255.7244569721
 20
225.3965378976
  0
VERTEX
  8
0
 62
7
  6
CONTINUOUS
 10
249.6973167026
 20
226.3279257703
  0
VERTEX
  8
0
 62
7
  6
CONTINUOUS
 10
243.3708744725
 20
227.1358075952
  0
VERTEX
  8
0
 62
7
  6
CONTINUOUS
 10
236.9176129312
 20
227.8015536534
  0
VERTEX
  8
0
 62
7
  6
CONTINUOUS
 10
230.538185556
 20
228.3182921649
  0
VERTEX
  8
0
 62
7
  6
CONTINUOUS
 10
224.0169383752
 20
228.7097436205
  0
VERTEX
  8
0
 62
7
  6
CONTINUOUS
 10
217.1330584729
 20
228.9801523833
  0
VERTEX
  8
0
 62
7
  6
CONTINUOUS
 10
210.1132098075
 20
229.1066157528
  0
VERTEX
  8
0
 62
7
  6
CONTINUOUS
 10
203.1299706104
 20
229.0807907218
  0
VERTEX
  8
0
 62
7
  6
CONTINUOUS
 10
196.1538675623
 20
228.90801389
  0
SEQEND
  0
POLYLINE
  8
0
 62
7
  6
CONTINUOUS
 66
1
 70
0
  0
VERTEX
  8
0
 62
7
  6
CONTINUOUS
 10
310.1555690999
 20
200.4548680128
  0
VERTEX
  8
0
 62
7
  6
CONTINUOUS
 10
310.7912100133
 20
199.8002459262
  0
VERTEX
  8
0
 62
7
  6
CONTINUOUS
 10
311.5306503348
 20
198.9766346093
  0
VERTEX
  8
0
 62
7
  6
CONTINUOUS
 10
312.3886020354
 20
197.9568152008
  0
VERTEX
  8
0
 62
7
  6
CONTINUOUS
 10
313.3251475926
 20
196.7795383116
  0
VERTEX
  8
0
 62
7
  6
CONTINUOUS
 10
314.2888854084
 20
195.507913692
  0
VERTEX
  8
0
 62
7
  6
CONTINUOUS
 10
315.2804705893
 20
194.141521312
  0
VERTEX
  8
0
 62
7
  6
CONTINUOUS
 10
316.2730702955
 20
192.7174033336
  0
VERTEX
  8
0
 62
7
  6
CONTINUOUS
 10
317.3012277407
 20
191.1831217475
  0
VERTEX
  8
0
 62
7
  6
CONTINUOUS
 10
318.413250187
 20
189.4536313956
  0
VERTEX
  8
0
 62
7
  6
CONTINUOUS
 10
319.5462108409
 20
187.6110734483
  0
VERTEX
  8
0
 62
7
  6
CONTINUOUS
 10
320.6486324042
 20
185.7309147804
  0
VERTEX
  8
0
 62
7
  6
CONTINUOUS
 10
321.7268942735
 20
183.7950934918
  0
VERTEX
  8
0
 62
7
  6
CONTINUOUS
 10
322.7742646096
 20
181.8036603482
  0
VERTEX
  8
0
 62
7
  6
CONTINUOUS
 10
323.7729644429
 20
179.7755986138
  0
VERTEX
  8
0
 62
7
  6
CONTINUOUS
 10
324.7151819367
 20
177.7077198732
  0
VERTEX
  8
0
 62
7
  6
CONTINUOUS
 10
325.5602353446
 20
175.6715302027
  0
VERTEX
  8
0
 62
7
  6
CONTINUOUS
 10
326.2727334915
 20
173.7510646127
  0
VERTEX
  8
0
 62
7
  6
CONTINUOUS
 10
326.8720581171
 20
171.8953283264
  0
VERTEX
  8
0
 62
7
  6
CONTINUOUS
 10
327.3609029953
 20
170.0744896661
  0
VERTEX
  8
0
 62
7
  6
CONTINUOUS
 10
327.7220434064
 20
168.3158147258
  0
VERTEX
  8
0
 62
7
  6
CONTINUOUS
 10
327.9455312537
 20
166.6053388871
  0
VERTEX
  8
0
 62
7
  6
CONTINUOUS
 10
328.0117217698
 20
165.0373434603
  0
VERTEX
  8
0
 62
7
  6
CONTINUOUS
 10
327.9324866429
 20
163.6864316377
  0
VERTEX
  8
0
 62
7
  6
CONTINUOUS
 10
327.7311710311
 20
162.5161979272
  0
SEQEND
  0
POLYLINE
  8
0
 62
7
  6
CONTINUOUS
 66
1
 70
0
  0
VERTEX
  8
0
 62
7
  6
CONTINUOUS
 10
317.5066596677
 20
196.0530394291
  0
VERTEX
  8
0
 62
7
  6
CONTINUOUS
 10
318.0807660813
 20
195.3385297792
  0
VERTEX
  8
0
 62
7
  6
CONTINUOUS
 10
318.7589338204
 20
194.4624923343
  0
VERTEX
  8
0
 62
7
  6
CONTINUOUS
 10
319.5537348602
 20
193.4011756215
  0
VERTEX
  8
0
 62
7
  6
CONTINUOUS
 10
320.4324167769
 20
192.1911870624
  0
VERTEX
  8
0
 62
7
  6
CONTINUOUS
 10
321.3526167641
 20
190.8869202745
  0
VERTEX
  8
0
 62
7
  6
CONTINUOUS
 10
322.3080342937
 20
189.4946138235
  0
VERTEX
  8
0
 62
7
  6
CONTINUOUS
 10
323.2637760506
 20
188.0633166731
  0
VERTEX
  8
0
 62
7
  6
CONTINUOUS
 10
324.2629526294
 20
186.5246878097
  0
VERTEX
  8
0
 62
7
  6
CONTINUOUS
 10
325.3642591371
 20
184.7756942983
  0
VERTEX
  8
0
 62
7
  6
CONTINUOUS
 10
326.4996662817
 20
182.9086567586
  0
VERTEX
  8
0
 62
7
  6
CONTINUOUS
 10
327.6118189773
 20
181.0085951051
  0
VERTEX
  8
0
 62
7
  6
CONTINUOUS
 10
328.7133623117
 20
179.0453069784
  0
VERTEX
  8
0
 62
7
  6
CONTINUOUS
 10
329.8030202006
 20
177.0067866736
  0
VERTEX
  8
0
 62
7
  6
CONTINUOUS
 10
330.85722395
 20
174.9197028751
  0
VERTEX
  8
0
 62
7
  6
CONTINUOUS
 10
331.8638860667
 20
172.7875885131
  0
VERTEX
  8
0
 62
7
  6
CONTINUOUS
 10
332.7828228994
 20
170.6758814984
  0
VERTEX
  8
0
 62
7
  6
CONTINUOUS
 10
333.5772911221
 20
168.6615548493
  0
VERTEX
  8
0
 62
7
  6
CONTINUOUS
 10
334.2599543681
 20
166.7071580394
  0
VERTEX
  8
0
 62
7
  6
CONTINUOUS
 10
334.8292963119
 20
164.7960966274
  0
VERTEX
  8
0
 62
7
  6
CONTINUOUS
 10
335.2702446497
 20
162.9461023884
  0
VERTEX
  8
0
 62
7
  6
CONTINUOUS
 10
335.5740707352
 20
161.1331331506
  0
VERTEX
  8
0
 62
7
  6
CONTINUOUS
 10
335.7132684433
 20
159.4694701281
  0
VERTEX
  8
0
 62
7
  6
CONTINUOUS
 10
335.6971247969
 20
158.0434317801
  0
VERTEX
  8
0
 62
7
  6
CONTINUOUS
 10
335.5534755207
 20
156.8119826934
  0
SEQEND
  0
POLYLINE
  8
0
 62
7
  6
CONTINUOUS
 66
1
 70
0
  0
VERTEX
  8
0
 62
7
  6
CONTINUOUS
 10
331.119317216
 20
183.4731643698
  0
VERTEX
  8
0
 62
7
  6
CONTINUOUS
 10
331.1948893037
 20
183.3791232249
  0
VERTEX
  8
0
 62
7
  6
CONTINUOUS
 10
331.272151579
 20
183.280411686
  0
VERTEX
  8
0
 62
7
  6
CONTINUOUS
 10
331.3497581303
 20
183.1766105966
  0
SEQEND
  0
POLYLINE
  8
0
 62
7
  6
CONTINUOUS
 66
1
 70
0
  0
VERTEX
  8
0
 62
7
  6
CONTINUOUS
 10
329.3190568541
 20
185.8514253515
  0
VERTEX
  8
0
 62
7
  6
CONTINUOUS
 10
328.6097978517
 20
186.743125908
  0
VERTEX
  8
0
 62
7
  6
CONTINUOUS
 10
327.8581392425
 20
187.6521185019
  0
VERTEX
  8
0
 62
7
  6
CONTINUOUS
 10
327.0716130328
 20
188.5697444588
  0
VERTEX
  8
0
 62
7
  6
CONTINUOUS
 10
326.2469125682
 20
189.4925534639
  0
VERTEX
  8
0
 62
7
  6
CONTINUOUS
 10
325.3783362725
 20
190.4183464711
  0
VERTEX
  8
0
 62
7
  6
CONTINUOUS
 10
324.4669524771
 20
191.3414804474
  0
SEQEND
  0
LINE
  8
0
 62
7
  6
CONTINUOUS
 10
329.5838661128
 20
185.5121720744
 11
329.3190568541
 21
185.8514253515
  0
LINE
  8
0
 62
7
  6
CONTINUOUS
 10
330.118235419
 20
184.8194465419
 11
329.5838661128
 21
185.5121720744
  0
LINE
  8
0
 62
7
  6
CONTINUOUS
 10
330.4441376066
 20
184.384844972
 11
330.118235419
 21
184.8194465419
  0
LINE
  8
0
 62
7
  6
CONTINUOUS
 10
331.1193069088
 20
183.4731570542
 11
330.4441376066
 21
184.384844972
  0
POLYLINE
  8
0
 62
7
  6
CONTINUOUS
 66
1
 70
0
  0
VERTEX
  8
0
 62
7
  6
CONTINUOUS
 10
331.3497581303
 20
183.1766105966
  0
VERTEX
  8
0
 62
7
  6
CONTINUOUS
 10
331.5081470083
 20
182.9583726353
  0
VERTEX
  8
0
 62
7
  6
CONTINUOUS
 10
331.5900800755
 20
182.8446837382
  0
SEQEND
  0
POLYLINE
  8
0
 62
7
  6
CONTINUOUS
 66
1
 70
0
  0
VERTEX
  8
0
 62
7
  6
CONTINUOUS
 10
331.219216153
 20
197.8823403386
  0
VERTEX
  8
0
 62
7
  6
CONTINUOUS
 10
335.109403189
 20
193.4061730341
  0
VERTEX
  8
0
 62
7
  6
CONTINUOUS
 10
338.6461979657
 20
188.8188991534
  0
VERTEX
  8
0
 62
7
  6
CONTINUOUS
 10
341.8149772398
 20
184.1075051794
  0
VERTEX
  8
0
 62
7
  6
CONTINUOUS
 10
344.6597269134
 20
179.3108896637
  0
VERTEX
  8
0
 62
7
  6
CONTINUOUS
 10
347.2337388895
 20
174.4556583528
  0
VERTEX
  8
0
 62
7
  6
CONTINUOUS
 10
349.4944064617
 20
169.565756199
  0
VERTEX
  8
0
 62
7
  6
CONTINUOUS
 10
351.4298026222
 20
164.6795956901
  0
VERTEX
  8
0
 62
7
  6
CONTINUOUS
 10
353.0010496032
 20
159.7805396156
  0
VERTEX
  8
0
 62
7
  6
CONTINUOUS
 10
354.1599293974
 20
154.864285434
  0
VERTEX
  8
0
 62
7
  6
CONTINUOUS
 10
354.9224330759
 20
149.9323671043
  0
SEQEND
  0
POLYLINE
  8
0
 62
7
  6
CONTINUOUS
 66
1
 70
0
  0
VERTEX
  8
0
 62
7
  6
CONTINUOUS
 10
325.5422367776
 20
189.6914637035
  0
VERTEX
  8
0
 62
7
  6
CONTINUOUS
 10
327.1017969921
 20
187.3692495636
  0
VERTEX
  8
0
 62
7
  6
CONTINUOUS
 10
327.9812067016
 20
186.0513552107
  0
VERTEX
  8
0
 62
7
  6
CONTINUOUS
 10
328.9040130317
 20
184.6552394502
  0
VERTEX
  8
0
 62
7
  6
CONTINUOUS
 10
329.8305346963
 20
183.2360493845
  0
VERTEX
  8
0
 62
7
  6
CONTINUOUS
 10
330.8075642581
 20
181.716640718
  0
VERTEX
  8
0
 62
7
  6
CONTINUOUS
 10
331.898883504
 20
179.9866724911
  0
VERTEX
  8
0
 62
7
  6
CONTINUOUS
 10
333.0369412516
 20
178.1389101698
  0
VERTEX
  8
0
 62
7
  6
CONTINUOUS
 10
334.1645155001
 20
176.2555478397
  0
VERTEX
  8
0
 62
7
  6
CONTINUOUS
 10
335.2936555838
 20
174.3059562409
  0
VERTEX
  8
0
 62
7
  6
CONTINUOUS
 10
336.4227477233
 20
172.2777515091
  0
VERTEX
  8
0
 62
7
  6
CONTINUOUS
 10
337.5276763595
 20
170.1960537085
  0
VERTEX
  8
0
 62
7
  6
CONTINUOUS
 10
338.5955277961
 20
168.0639518894
  0
VERTEX
  8
0
 62
7
  6
CONTINUOUS
 10
339.5843838774
 20
165.9439066941
  0
VERTEX
  8
0
 62
7
  6
CONTINUOUS
 10
340.4552070944
 20
163.907889912
  0
VERTEX
  8
0
 62
7
  6
CONTINUOUS
 10
341.2163441252
 20
161.9265702563
  0
VERTEX
  8
0
 62
7
  6
CONTINUOUS
 10
341.8630208984
 20
159.9912507731
  0
VERTEX
  8
0
 62
7
  6
CONTINUOUS
 10
342.3810424121
 20
158.1136817576
  0
VERTEX
  8
0
 62
7
  6
CONTINUOUS
 10
342.7629435253
 20
156.2630609369
  0
VERTEX
  8
0
 62
7
  6
CONTINUOUS
 10
342.9733483295
 20
154.563365938
  0
VERTEX
  8
0
 62
7
  6
CONTINUOUS
 10
343.0182455118
 20
153.1125580285
  0
VERTEX
  8
0
 62
7
  6
CONTINUOUS
 10
342.9299079494
 20
151.8630056586
  0
SEQEND
  0
POLYLINE
  8
0
 62
7
  6
CONTINUOUS
 66
1
 70
0
  0
VERTEX
  8
0
 62
7
  6
CONTINUOUS
 10
324.4236105345
 20
191.3732145435
  0
VERTEX
  8
0
 62
7
  6
CONTINUOUS
 10
324.9287133459
 20
190.6087160981
  0
VERTEX
  8
0
 62
7
  6
CONTINUOUS
 10
325.5422367776
 20
189.6914637035
  0
SEQEND
  0
POLYLINE
  8
0
 62
7
  6
CONTINUOUS
 66
1
 70
0
  0
VERTEX
  8
0
 62
7
  6
CONTINUOUS
 10
340.3595437645
 20
168.3741353518
  0
VERTEX
  8
0
 62
7
  6
CONTINUOUS
 10
338.9357541732
 20
171.1272787614
  0
VERTEX
  8
0
 62
7
  6
CONTINUOUS
 10
337.4594049248
 20
173.7590219368
  0
VERTEX
  8
0
 62
7
  6
CONTINUOUS
 10
335.9862141387
 20
176.2377294959
  0
VERTEX
  8
0
 62
7
  6
CONTINUOUS
 10
334.5169447125
 20
178.5720497358
  0
VERTEX
  8
0
 62
7
  6
CONTINUOUS
 10
333.0427744218
 20
180.7781091045
  0
VERTEX
  8
0
 62
7
  6
CONTINUOUS
 10
331.5901201754
 20
182.8447117667
  0
SEQEND
  0
POLYLINE
  8
0
 62
7
  6
CONTINUOUS
 66
1
 70
0
  0
VERTEX
  8
0
 62
7
  6
CONTINUOUS
 10
340.3595612088
 20
168.3741436483
  0
VERTEX
  8
0
 62
7
  6
CONTINUOUS
 10
340.5223884793
 20
168.0522255772
  0
VERTEX
  8
0
 62
7
  6
CONTINUOUS
 10
340.6830059156
 20
167.7284950014
  0
VERTEX
  8
0
 62
7
  6
CONTINUOUS
 10
340.840812397
 20
167.402626858
  0
VERTEX
  8
0
 62
7
  6
CONTINUOUS
 10
340.9963068818
 20
167.0748877086
  0
SEQEND
  0
LINE
  8
0
 62
7
  6
CONTINUOUS
 10
340.9963068818
 20
167.0748877086
 11
341.3035409798
 21
166.4156504775
  0
POLYLINE
  8
0
 62
7
  6
CONTINUOUS
 66
1
 70
0
  0
VERTEX
  8
0
 62
7
  6
CONTINUOUS
 10
354.9224330759
 20
149.9323671043
  0
VERTEX
  8
0
 62
7
  6
CONTINUOUS
 10
356.1029150093
 20
137.7754368794
  0
VERTEX
  8
0
 62
7
  6
CONTINUOUS
 10
356.9219032706
 20
126.2503939486
  0
VERTEX
  8
0
 62
7
  6
CONTINUOUS
 10
357.4110560872
 20
115.3872948554
  0
VERTEX
  8
0
 62
7
  6
CONTINUOUS
 10
357.475815561
 20
105.0954607067
  0
VERTEX
  8
0
 62
7
  6
CONTINUOUS
 10
357.0292435216
 20
95.293922691
  0
VERTEX
  8
0
 62
7
  6
CONTINUOUS
 10
356.0807218013
 20
85.9828944646
  0
VERTEX
  8
0
 62
7
  6
CONTINUOUS
 10
354.601083755
 20
77.1418151677
  0
VERTEX
  8
0
 62
7
  6
CONTINUOUS
 10
352.6186959888
 20
68.7524559782
  0
VERTEX
  8
0
 62
7
  6
CONTINUOUS
 10
350.1533529162
 20
60.797953791
  0
VERTEX
  8
0
 62
7
  6
CONTINUOUS
 10
347.2009041917
 20
53.2545067015
  0
VERTEX
  8
0
 62
7
  6
CONTINUOUS
 10
343.7656767071
 20
46.0840334588
  0
VERTEX
  8
0
 62
7
  6
CONTINUOUS
 10
339.8417174659
 20
39.3128949457
  0
VERTEX
  8
0
 62
7
  6
CONTINUOUS
 10
335.4405870222
 20
32.9677675895
  0
VERTEX
  8
0
 62
7
  6
CONTINUOUS
 10
330.5140517913
 20
27.0096477429
  0
VERTEX
  8
0
 62
7
  6
CONTINUOUS
 10
325.0044574376
 20
21.3979533714
  0
VERTEX
  8
0
 62
7
  6
CONTINUOUS
 10
318.9519252047
 20
16.1637312141
  0
VERTEX
  8
0
 62
7
  6
CONTINUOUS
 10
312.3950354253
 20
11.3437337619
  0
VERTEX
  8
0
 62
7
  6
CONTINUOUS
 10
305.2810400863
 20
6.8799150258
  0
VERTEX
  8
0
 62
7
  6
CONTINUOUS
 10
297.5705472894
 20
2.7240088316
  0
VERTEX
  8
0
 62
7
  6
CONTINUOUS
 10
289.2623256292
 20
-1.1168854856
  0
VERTEX
  8
0
 62
7
  6
CONTINUOUS
 10
280.3680330687
 20
-4.6537380294
  0
VERTEX
  8
0
 62
7
  6
CONTINUOUS
 10
270.8099059919
 20
-7.8809690037
  0
VERTEX
  8
0
 62
7
  6
CONTINUOUS
 10
260.5403551467
 20
-10.8159643107
  0
VERTEX
  8
0
 62
7
  6
CONTINUOUS
 10
249.480325229
 20
-13.4005644639
  0
VERTEX
  8
0
 62
7
  6
CONTINUOUS
 10
237.5386829669
 20
-15.6017450699
  0
VERTEX
  8
0
 62
7
  6
CONTINUOUS
 10
224.7031258196
 20
-17.3603287747
  0
VERTEX
  8
0
 62
7
  6
CONTINUOUS
 10
210.9258998806
 20
-18.5976765137
  0
VERTEX
  8
0
 62
7
  6
CONTINUOUS
 10
196.2229228102
 20
-19.3400009312
  0
SEQEND
  0
POLYLINE
  8
0
 62
7
  6
CONTINUOUS
 66
1
 70
0
  0
VERTEX
  8
0
 62
7
  6
CONTINUOUS
 10
347.1026936247
 20
149.1688388602
  0
VERTEX
  8
0
 62
7
  6
CONTINUOUS
 10
346.6115224607
 20
151.7344943591
  0
VERTEX
  8
0
 62
7
  6
CONTINUOUS
 10
345.9113229905
 20
154.4509463115
  0
VERTEX
  8
0
 62
7
  6
CONTINUOUS
 10
345.0368352105
 20
157.2740817737
  0
VERTEX
  8
0
 62
7
  6
CONTINUOUS
 10
343.9769192028
 20
160.2144126187
  0
VERTEX
  8
0
 62
7
  6
CONTINUOUS
 10
342.7172909183
 20
163.2816968886
  0
VERTEX
  8
0
 62
7
  6
CONTINUOUS
 10
341.3035663192
 20
166.4156618008
  0
SEQEND
  0
LINE
  8
0
 62
7
  6
CONTINUOUS
 10
361.2142569291
 20
151.7632767142
 11
355.6800982779
 21
328.1000481602
  0
LINE
  8
0
 62
7
  6
CONTINUOUS
 10
359.3886291001
 20
328.0997891808
 11
359.4161162836
 21
327.222567847
  0
LINE
  8
0
 62
7
  6
CONTINUOUS
 10
361.7249241397
 20
104.6491428711
 11
361.6124528225
 21
113.433018172
  0
POLYLINE
  8
0
 62
7
  6
CONTINUOUS
 66
1
 70
0
  0
VERTEX
  8
0
 62
7
  6
CONTINUOUS
 10
361.6124528225
 20
113.433018172
  0
VERTEX
  8
0
 62
7
  6
CONTINUOUS
 10
361.5181491591
 20
121.2733277128
  0
VERTEX
  8
0
 62
7
  6
CONTINUOUS
 10
361.4313932672
 20
129.0264047602
  0
VERTEX
  8
0
 62
7
  6
CONTINUOUS
 10
361.3519419117
 20
136.6923621621
  0
VERTEX
  8
0
 62
7
  6
CONTINUOUS
 10
361.2795553677
 20
144.2713084769
  0
VERTEX
  8
0
 62
7
  6
CONTINUOUS
 10
361.2142569291
 20
151.7632767142
  0
SEQEND
  0
LINE
  8
0
 62
7
  6
CONTINUOUS
 10
360.1062797012
 20
265.3049892497
 11
359.4070801692
 21
327.2222795751
  0
POLYLINE
  8
0
 62
7
  6
CONTINUOUS
 66
1
 70
0
  0
VERTEX
  8
0
 62
7
  6
CONTINUOUS
 10
361.2142771489
 20
151.7636834801
  0
VERTEX
  8
0
 62
7
  6
CONTINUOUS
 10
361.0217279282
 20
178.8632167008
  0
VERTEX
  8
0
 62
7
  6
CONTINUOUS
 10
360.7720406801
 20
206.8209760814
  0
VERTEX
  8
0
 62
7
  6
CONTINUOUS
 10
360.4548190094
 20
235.6347156905
  0
VERTEX
  8
0
 62
7
  6
CONTINUOUS
 10
360.1062797012
 20
265.3049892497
  0
SEQEND
  0
POLYLINE
  8
0
 62
7
  6
CONTINUOUS
 66
1
 70
0
  0
VERTEX
  8
0
 62
7
  6
CONTINUOUS
 10
364.9983535454
 20
101.6942811243
  0
VERTEX
  8
0
 62
7
  6
CONTINUOUS
 10
364.9936023375
 20
102.8416433896
  0
VERTEX
  8
0
 62
7
  6
CONTINUOUS
 10
364.9848259059
 20
104.0439080542
  0
VERTEX
  8
0
 62
7
  6
CONTINUOUS
 10
364.971954088
 20
105.3010793064
  0
VERTEX
  8
0
 62
7
  6
CONTINUOUS
 10
362.2354905843
 20
328.1000704085
  0
SEQEND
  0
POLYLINE
  8
0
 62
7
  6
CONTINUOUS
 66
1
 70
0
  0
VERTEX
  8
0
 62
7
  6
CONTINUOUS
 10
361.7508355869
 20
100.3759364713
  0
VERTEX
  8
0
 62
7
  6
CONTINUOUS
 10
361.7496401563
 20
101.2294849022
  0
VERTEX
  8
0
 62
7
  6
CONTINUOUS
 10
361.7464049146
 20
102.0835803444
  0
VERTEX
  8
0
 62
7
  6
CONTINUOUS
 10
361.7410519579
 20
102.938224511
  0
VERTEX
  8
0
 62
7
  6
CONTINUOUS
 10
361.7249241397
 20
104.6491428711
  0
SEQEND
  0
LINE
  8
0
 62
7
  6
CONTINUOUS
 10
364.9991070636
 20
100.4620353463
 11
364.9983535454
 21
101.6942811243
  0
LINE
  8
0
 62
7
  6
CONTINUOUS
 10
363.8649029167
 20
84.5429585845
 11
363.8649077161
 21
84.5430030899
  0
POLYLINE
  8
0
 62
7
  6
CONTINUOUS
 66
1
 70
0
  0
VERTEX
  8
0
 62
7
  6
CONTINUOUS
 10
360.6739841372
 20
84.8829714412
  0
VERTEX
  8
0
 62
7
  6
CONTINUOUS
 10
360.9985242307
 20
87.5856427537
  0
VERTEX
  8
0
 62
7
  6
CONTINUOUS
 10
361.2658506696
 20
90.2405134304
  0
VERTEX
  8
0
 62
7
  6
CONTINUOUS
 10
361.4766985724
 20
92.8479940778
  0
VERTEX
  8
0
 62
7
  6
CONTINUOUS
 10
361.628815123
 20
95.4069108989
  0
VERTEX
  8
0
 62
7
  6
CONTINUOUS
 10
361.719948232
 20
97.9160892081
  0
VERTEX
  8
0
 62
7
  6
CONTINUOUS
 10
361.7508355869
 20
100.3759364713
  0
SEQEND
  0
POLYLINE
  8
0
 62
7
  6
CONTINUOUS
 66
1
 70
0
  0
VERTEX
  8
0
 62
7
  6
CONTINUOUS
 10
363.8649029167
 20
84.5429585845
  0
VERTEX
  8
0
 62
7
  6
CONTINUOUS
 10
364.1613123576
 20
86.9539374252
  0
VERTEX
  8
0
 62
7
  6
CONTINUOUS
 10
364.4881459601
 20
90.1199797265
  0
VERTEX
  8
0
 62
7
  6
CONTINUOUS
 10
364.7318257827
 20
93.1553402459
  0
VERTEX
  8
0
 62
7
  6
CONTINUOUS
 10
364.8967668773
 20
96.0581071484
  0
VERTEX
  8
0
 62
7
  6
CONTINUOUS
 10
364.9832507516
 20
98.8236196181
  0
VERTEX
  8
0
 62
7
  6
CONTINUOUS
 10
364.99910706
 20
100.462042743
  0
SEQEND
  0
POLYLINE
  8
0
 62
7
  6
CONTINUOUS
 66
1
 70
0
  0
VERTEX
  8
0
 62
7
  6
CONTINUOUS
 10
364.9991070634
 20
100.4620351371
  0
VERTEX
  8
0
 62
7
  6
CONTINUOUS
 10
364.9982410419
 20
100.4598606747
  0
VERTEX
  8
0
 62
7
  6
CONTINUOUS
 10
364.942344003
 20
100.4445607578
  0
VERTEX
  8
0
 62
7
  6
CONTINUOUS
 10
364.806711255
 20
100.4303490817
  0
VERTEX
  8
0
 62
7
  6
CONTINUOUS
 10
364.5959331163
 20
100.4171772589
  0
VERTEX
  8
0
 62
7
  6
CONTINUOUS
 10
364.3085623701
 20
100.4050885799
  0
VERTEX
  8
0
 62
7
  6
CONTINUOUS
 10
363.9503252622
 20
100.394564062
  0
VERTEX
  8
0
 62
7
  6
CONTINUOUS
 10
363.5280157934
 20
100.3859847542
  0
VERTEX
  8
0
 62
7
  6
CONTINUOUS
 10
363.0516856402
 20
100.3797221565
  0
VERTEX
  8
0
 62
7
  6
CONTINUOUS
 10
362.5319387844
 20
100.3760886168
  0
SEQEND
  0
POLYLINE
  8
0
 62
7
  6
CONTINUOUS
 66
1
 70
0
  0
VERTEX
  8
0
 62
7
  6
CONTINUOUS
 10
282.2007122235
 20
-7.2602753855
  0
VERTEX
  8
0
 62
7
  6
CONTINUOUS
 10
289.8067799854
 20
-4.7025733408
  0
VERTEX
  8
0
 62
7
  6
CONTINUOUS
 10
297.1521831929
 20
-1.6355683898
  0
VERTEX
  8
0
 62
7
  6
CONTINUOUS
 10
304.2453551727
 20
1.9477696922
  0
VERTEX
  8
0
 62
7
  6
CONTINUOUS
 10
311.0603844203
 20
6.0270978412
  0
VERTEX
  8
0
 62
7
  6
CONTINUOUS
 10
317.5983596379
 20
10.6047101278
  0
VERTEX
  8
0
 62
7
  6
CONTINUOUS
 10
323.7869386982
 20
15.6194500986
  0
VERTEX
  8
0
 62
7
  6
CONTINUOUS
 10
329.5470226049
 20
21.0066521361
  0
VERTEX
  8
0
 62
7
  6
CONTINUOUS
 10
334.9002785403
 20
26.7787614156
  0
VERTEX
  8
0
 62
7
  6
CONTINUOUS
 10
339.8575429324
 20
32.9434789617
  0
VERTEX
  8
0
 62
7
  6
CONTINUOUS
 10
344.3724814295
 20
39.4500386114
  0
VERTEX
  8
0
 62
7
  6
CONTINUOUS
 10
348.3970194099
 20
46.2442311528
  0
VERTEX
  8
0
 62
7
  6
CONTINUOUS
 10
351.9474598381
 20
53.3437863476
  0
SEQEND
  0
LINE
  8
0
 62
7
  6
CONTINUOUS
 10
359.4161162836
 20
327.222567847
 11
355.7113616772
 21
327.1044346248
  0
POLYLINE
  8
0
 62
7
  6
CONTINUOUS
 66
1
 70
0
  0
VERTEX
  8
0
 62
7
  6
CONTINUOUS
 10
355.7113421427
 20
327.1044381212
  0
VERTEX
  8
0
 62
7
  6
CONTINUOUS
 10
331.0203202807
 20
326.3209034943
  0
VERTEX
  8
0
 62
7
  6
CONTINUOUS
 10
305.8075282977
 20
325.5293942116
  0
VERTEX
  8
0
 62
7
  6
CONTINUOUS
 10
253.8271771493
 20
323.9095622658
  0
SEQEND
  0
POLYLINE
  8
0
 62
7
  6
CONTINUOUS
 66
1
 70
0
  0
VERTEX
  8
0
 62
7
  6
CONTINUOUS
 10
253.8271771493
 20
323.9095622658
  0
VERTEX
  8
0
 62
7
  6
CONTINUOUS
 10
225.6562329046
 20
323.0272664844
  0
VERTEX
  8
0
 62
7
  6
CONTINUOUS
 10
196.0325929483
 20
322.0953114973
  0
SEQEND
  0
LINE
  8
0
 62
7
  6
CONTINUOUS
 10
9.8299182852
 20
328.1000704085
 11
362.2354905843
 21
328.1000704085
  0
POLYLINE
  8
0
 62
7
  6
CONTINUOUS
 66
1
 70
0
  0
VERTEX
  8
0
 62
7
  6
CONTINUOUS
 10
41.0450831306
 20
326.3209034009
  0
VERTEX
  8
0
 62
7
  6
CONTINUOUS
 10
66.2578690389
 20
325.5293945719
  0
VERTEX
  8
0
 62
7
  6
CONTINUOUS
 10
118.2382071893
 20
323.9095630323
  0
SEQEND
  0
POLYLINE
  8
0
 62
7
  6
CONTINUOUS
 66
1
 70
0
  0
VERTEX
  8
0
 62
7
  6
CONTINUOUS
 10
118.2382071893
 20
323.9095630323
  0
VERTEX
  8
0
 62
7
  6
CONTINUOUS
 10
146.4091435419
 20
323.0272649958
  0
VERTEX
  8
0
 62
7
  6
CONTINUOUS
 10
176.0327746752
 20
322.0953061129
  0
SEQEND
  0
LINE
  8
0
 62
7
  6
CONTINUOUS
 10
12.6492925665
 20
327.2225671782
 11
41.0450831306
 21
326.3209034009
  0
POLYLINE
  8
0
 62
7
  6
CONTINUOUS
 66
1
 70
0
  0
VERTEX
  8
0
 62
7
  6
CONTINUOUS
 10
351.9474598381
 20
53.3437863476
  0
VERTEX
  8
0
 62
7
  6
CONTINUOUS
 10
353.9514327245
 20
58.05287003
  0
VERTEX
  8
0
 62
7
  6
CONTINUOUS
 10
355.7414601256
 20
62.9841509063
  0
VERTEX
  8
0
 62
7
  6
CONTINUOUS
 10
357.3231535547
 20
68.1405198183
  0
VERTEX
  8
0
 62
7
  6
CONTINUOUS
 10
358.6798835806
 20
73.5130534869
  0
VERTEX
  8
0
 62
7
  6
CONTINUOUS
 10
359.7949822712
 20
79.0928757013
  0
VERTEX
  8
0
 62
7
  6
CONTINUOUS
 10
360.6739841372
 20
84.8829714412
  0
SEQEND
  0
POLYLINE
  8
0
 62
7
  6
CONTINUOUS
 66
1
 70
0
  0
VERTEX
  8
0
 62
7
  6
CONTINUOUS
 10
354.820648356
 20
51.9924809145
  0
VERTEX
  8
0
 62
7
  6
CONTINUOUS
 10
356.5610058582
 20
56.0469993843
  0
VERTEX
  8
0
 62
7
  6
CONTINUOUS
 10
358.5313524262
 20
61.3256496879
  0
VERTEX
  8
0
 62
7
  6
CONTINUOUS
 10
360.2795673755
 20
66.9117214961
  0
VERTEX
  8
0
 62
7
  6
CONTINUOUS
 10
361.781192695
 20
72.7944106106
  0
VERTEX
  8
0
 62
7
  6
CONTINUOUS
 10
363.0205147193
 20
78.9728833619
  0
VERTEX
  8
0
 62
7
  6
CONTINUOUS
 10
363.8682286603
 20
84.5426574618
  0
SEQEND
  0
ARC
  8
0
 62
7
  6
CONTINUOUS
 10
120.8665282603
 20
99.1322620287
 40
113.8403699316
 50
204.4618254142
 51
253.7416528718
  0
ARC
  8
0
 62
7
  6
CONTINUOUS
 10
180.6175762491
 20
341.1544964041
 40
365.9444802853
 50
272.4142547507
 51
286.2583471282
  0
ARC
  8
0
 62
7
  6
CONTINUOUS
 10
186.0327044347
 20
213.0124866915
 40
237.688136792
 50
267.5887436218
 51
272.4112563782
  0
ARC
  8
0
 62
7
  6
CONTINUOUS
 10
251.1988806091
 20
99.1322620287
 40
113.8403699316
 50
286.2583471282
 51
335.5381745858
  0
CIRCLE
  8
0
 62
7
  6
CONTINUOUS
 10
186.0327044347
 20
162.078400311
 40
35.0
  0
ARC
  8
0
 62
7
  6
CONTINUOUS
 10
191.4478326203
 20
341.1544964041
 40
365.9444802853
 50
253.7416528718
 51
267.5857452493
  0
CIRCLE
  8
0
 62
7
  6
CONTINUOUS
 10
186.0327044347
 20
281.3561442637
 40
18.2
  0
ENDSEC
  0
EOF
