999
DXF file: K:\Client\125_Heirloom\001\00\Final_Data\Drawings\TOILETS\lofts-172125_1.dxf
999
Pro/ENGINEER 2017110 by Parametric Technology Corporation
  0
SECTION
  2
HEADER
  9
$EXTMAX
 10
420.0
 20
297.0
 30
0.0
  9
$EXTMIN
 10
0.0
 20
0.0
 30
0.0
  9
$LIMMIN
 10
0.0
 20
0.0
  9
$LIMMAX
 10
420.0
 20
297.0
  9
$VIEWCTR
 10
210.0
 20
148.5
  9
$VIEWSIZE
 40
297.0
  9
$CLAYER
  8
0
  9
$LTSCALE
 40
23.1
  9
$CELTYPE
  6
BYLAYER
  9
$DIMSCALE
 40
1.0
  9
$DIMASZ
 40
3.0
  9
$DIMEXO
 40
1.0
  9
$DIMDLI
 40
15.96
  9
$DIMEXE
 40
1.0
  9
$DIMCEN
 40
3.78
  9
$DIMLFAC
 40
1.0
  9
$DIMBLK
  1
_FILLED
  9
$DIMALT
 70
0
  9
$DIMALTF
 40
0.0393700787
  9
$DIMTXT
 40
3.0
  9
$AUNITS
 70
0
  9
$PDMODE
 70
3
  9
$PDSIZE
 40
5.0
  9
$TILEMODE
 70
1
  0
ENDSEC
  0
SECTION
  2
TABLES
  0
TABLE
  2
LTYPE
 70
6
  0
LTYPE
  2
BYBLOCK
 70
0
  3

 72
65
 73
0
 40
0.0
  0
LTYPE
  2
BYLAYER
 70
0
  3

 72
65
 73
0
 40
0.0
  0
LTYPE
  2
CONTINUOUS
 70
64
  3
Solid line
 72
65
 73
0
 40
0.0
  0
LTYPE
  2
CENTER
 70
64
  3
____ _ ____ _ ____ _ ____ _ ____ _ ____ _ ____
 72
65
 73
4
 40
0.6
 49
0.375
 49
-0.075
 49
0.075
 49
-0.075
  0
LTYPE
  2
HIDDEN
 70
64
  3
- - - - - - - - - - - - - - - - - - - -
 72
65
 73
2
 40
0.2
 49
0.1
 49
-0.1
  0
LTYPE
  2
PHANTOM
 70
64
  3
_____ _ _ _____ _ _ _____ _ _ _____
 72
65
 73
6
 40
0.8
 49
0.45
 49
-0.05
 49
0.1
 49
-0.05
 49
0.1
 49
-0.05
  0
LTYPE
  2
DOT
 70
64
  3
. . . . . . . . . . . . . . . . . . . .
 72
65
 73
2
 40
0.2
 49
0.1
 49
-0.1
  0
LTYPE
  2
DASHED
 70
64
  3
- - - - - - - - - - - - - - - - - - - -
 72
65
 73
2
 40
0.2
 49
0.1
 49
-0.1
  0
ENDTAB
  0
TABLE
  2
LAYER
 70
36
  0
LAYER
  2
0
 70
0
 62
7
  6
CONTINUOUS
  0
LAYER
  2
DEFAULT_1
 70
0
 62
7
  6
CENTER
  0
LAYER
  2
DEFAULT_2
 70
0
 62
8
  6
HIDDEN
  0
LAYER
  2
DEFAULT_3
 70
0
 62
7
  6
PHANTOM
  0
LAYER
  2
0000_BOM
 70
0
 62
7
  6
CONTINUOUS
  0
LAYER
  2
0000_REV_TABLE
 70
0
 62
7
  6
CONTINUOUS
  0
LAYER
  2
0000_STEVENS_NOTE
 70
0
 62
7
  6
CONTINUOUS
  0
LAYER
  2
01_DATUM_PLANES
 70
0
 62
7
  6
CONTINUOUS
  0
LAYER
  2
01_DEF_PLANES
 70
0
 62
7
  6
CONTINUOUS
  0
LAYER
  2
02_DATUM_COS
 70
0
 62
7
  6
CONTINUOUS
  0
LAYER
  2
90_IMP_FEAT
 70
0
 62
7
  6
CONTINUOUS
  0
LAYER
  2
95_STL
 70
0
 62
7
  6
CONTINUOUS
  0
LAYER
  2
99_SOLID
 70
0
 62
7
  6
CONTINUOUS
  0
LAYER
  2
CAD-MASTER_ZINC-PL
 70
0
 62
7
  6
CONTINUOUS
  0
LAYER
  2
CURVE
 70
0
 62
7
  6
CONTINUOUS
  0
LAYER
  2
SHELL
 70
0
 62
7
  6
CONTINUOUS
  0
LAYER
  2
SKEL
 70
0
 62
7
  6
CONTINUOUS
  0
LAYER
  2
SKETCH
 70
0
 62
7
  6
CONTINUOUS
  0
LAYER
  2
SURFACE
 70
0
 62
7
  6
CONTINUOUS
  0
ENDTAB
  0
TABLE
  2
STYLE
 70
1
  0
STYLE
  2
STANDARD
 70
0
 40
0.0
 41
0.75
 50
0.0
 71
0
 42
0.2
  3
txt
  4

  0
STYLE
  2
TEXTSTYLE_1
 70
0
 40
0.0
 41
0.8
 50
0.0
 71
0
 42
0.2
  3
gdt
  4

  0
ENDTAB
  0
ENDSEC
  0
SECTION
  2
BLOCKS
  0
BLOCK
  8
0
 62
5
  6
CONTINUOUS
  2
PLUMBING_BL1
 70
64
 10
184.2753858541
 20
-269.0136221473
  0
CIRCLE
  8
0
 62
5
  6
CONTINUOUS
 10
184.2753858541
 20
-269.0136221473
 40
12.5
  0
LINE
  8
0
 62
5
  6
CONTINUOUS
 10
196.7753858541
 20
-256.5136221473
 11
171.7753858541
 21
-281.5136221473
  0
LINE
  8
0
 62
5
  6
CONTINUOUS
 10
184.2753858541
 20
-269.0136221473
 11
171.7753858541
 21
-256.5136221473
  0
LINE
  8
0
 62
5
  6
CONTINUOUS
 10
184.2753858541
 20
-269.0136221473
 11
196.7753858541
 21
-281.5136221473
  0
ENDBLK
  8
0
  6
BYBLOCK
 62
0
  0
BLOCK
  8
0
 62
1
  6
CONTINUOUS
  2
PLUMBING_BL0
 70
64
 10
184.2753858541
 20
-89.0136221473
  0
CIRCLE
  8
0
 62
1
  6
CONTINUOUS
 10
184.2753858541
 20
-89.0136221473
 40
12.5
  0
LINE
  8
0
 62
1
  6
CONTINUOUS
 10
196.7753858541
 20
-76.5136221473
 11
171.7753858541
 21
-101.5136221473
  0
LINE
  8
0
 62
1
  6
CONTINUOUS
 10
184.2753858541
 20
-89.0136221473
 11
171.7753858541
 21
-76.5136221473
  0
LINE
  8
0
 62
1
  6
CONTINUOUS
 10
184.2753858541
 20
-89.0136221473
 11
196.7753858541
 21
-101.5136221473
  0
ENDBLK
  8
0
  6
BYBLOCK
 62
0
  0
ENDSEC
  0
SECTION
  2
ENTITIES
  0
INSERT
  8
0
 62
1
  6
CONTINUOUS
  2
PLUMBING_BL0
 10
184.2753858541
 20
-89.0136221473
  0
INSERT
  8
0
 62
5
  6
CONTINUOUS
  2
PLUMBING_BL1
 10
184.2753858541
 20
-269.0136221473
  0
POLYLINE
  8
0
 62
7
  6
CONTINUOUS
 66
1
 70
0
  0
VERTEX
  8
0
 62
7
  6
CONTINUOUS
 10
21.797470926
 20
-86.6808953527
  0
VERTEX
  8
0
 62
7
  6
CONTINUOUS
 10
21.9437666079
 20
-88.0746268898
  0
VERTEX
  8
0
 62
7
  6
CONTINUOUS
 10
22.0737179115
 20
-89.3289684948
  0
VERTEX
  8
0
 62
7
  6
CONTINUOUS
 10
22.1867479218
 20
-90.4328264053
  0
VERTEX
  8
0
 62
7
  6
CONTINUOUS
 10
22.2860953419
 20
-91.413173136
  0
VERTEX
  8
0
 62
7
  6
CONTINUOUS
 10
22.374004512
 20
-92.2887060716
  0
VERTEX
  8
0
 62
7
  6
CONTINUOUS
 10
22.4519477139
 20
-93.0714184427
  0
VERTEX
  8
0
 62
7
  6
CONTINUOUS
 10
22.528349414
 20
-93.8445957075
  0
VERTEX
  8
0
 62
7
  6
CONTINUOUS
 10
22.5992156865
 20
-94.5671297427
  0
VERTEX
  8
0
 62
7
  6
CONTINUOUS
 10
22.6667517052
 20
-95.2605927899
  0
VERTEX
  8
0
 62
7
  6
CONTINUOUS
 10
22.7314537344
 20
-95.9294881065
  0
VERTEX
  8
0
 62
7
  6
CONTINUOUS
 10
22.7918215241
 20
-96.5576273658
  0
VERTEX
  8
0
 62
7
  6
CONTINUOUS
 10
22.8492157048
 20
-97.1585020287
  0
VERTEX
  8
0
 62
7
  6
CONTINUOUS
 10
22.9045860709
 20
-97.7416567943
  0
VERTEX
  8
0
 62
7
  6
CONTINUOUS
 10
22.9561633548
 20
-98.2879372483
  0
VERTEX
  8
0
 62
7
  6
CONTINUOUS
 10
23.003144686
 20
-98.7881423959
  0
SEQEND
  0
LINE
  8
0
 62
7
  6
CONTINUOUS
 10
23.2765757131
 20
-101.7439156827
 11
23.2887887781
 21
-101.8641672296
  0
LINE
  8
0
 62
7
  6
CONTINUOUS
 10
23.2692703278
 20
-101.6706593526
 11
23.2765757131
 21
-101.7439156827
  0
LINE
  8
0
 62
7
  6
CONTINUOUS
 10
23.2645618457
 20
-101.622552611
 11
23.2692703278
 21
-101.6706593526
  0
LINE
  8
0
 62
7
  6
CONTINUOUS
 10
23.260510427
 20
-101.5802654907
 11
23.2645618457
 21
-101.622552611
  0
POLYLINE
  8
0
 62
7
  6
CONTINUOUS
 66
1
 70
0
  0
VERTEX
  8
0
 62
7
  6
CONTINUOUS
 10
23.003144686
 20
-98.7881423959
  0
VERTEX
  8
0
 62
7
  6
CONTINUOUS
 10
23.0572317893
 20
-99.3671690093
  0
VERTEX
  8
0
 62
7
  6
CONTINUOUS
 10
23.06566436
 20
-99.4577881299
  0
SEQEND
  0
POLYLINE
  8
0
 62
7
  6
CONTINUOUS
 66
1
 70
0
  0
VERTEX
  8
0
 62
7
  6
CONTINUOUS
 10
23.06566436
 20
-99.4577881299
  0
VERTEX
  8
0
 62
7
  6
CONTINUOUS
 10
23.0820410762
 20
-99.6340106496
  0
VERTEX
  8
0
 62
7
  6
CONTINUOUS
 10
23.0899828208
 20
-99.7195771715
  0
SEQEND
  0
LINE
  8
0
 62
7
  6
CONTINUOUS
 10
23.0899828208
 20
-99.7195771715
 11
23.1053698252
 21
-99.885561027
  0
POLYLINE
  8
0
 62
7
  6
CONTINUOUS
 66
1
 70
0
  0
VERTEX
  8
0
 62
7
  6
CONTINUOUS
 10
23.1053698252
 20
-99.885561027
  0
VERTEX
  8
0
 62
7
  6
CONTINUOUS
 10
23.1200705688
 20
-100.0443899353
  0
VERTEX
  8
0
 62
7
  6
CONTINUOUS
 10
23.1271556508
 20
-100.1210251682
  0
SEQEND
  0
LINE
  8
0
 62
7
  6
CONTINUOUS
 10
23.257247474
 20
-101.5452229799
 11
23.260510427
 21
-101.5802654907
  0
POLYLINE
  8
0
 62
7
  6
CONTINUOUS
 66
1
 70
0
  0
VERTEX
  8
0
 62
7
  6
CONTINUOUS
 10
23.1271556508
 20
-100.1210251682
  0
VERTEX
  8
0
 62
7
  6
CONTINUOUS
 10
23.1407824627
 20
-100.2685773895
  0
VERTEX
  8
0
 62
7
  6
CONTINUOUS
 10
23.1473405237
 20
-100.339663036
  0
SEQEND
  0
POLYLINE
  8
0
 62
7
  6
CONTINUOUS
 66
1
 70
0
  0
VERTEX
  8
0
 62
7
  6
CONTINUOUS
 10
23.1473405237
 20
-100.339663036
  0
VERTEX
  8
0
 62
7
  6
CONTINUOUS
 10
23.1599558193
 20
-100.4765418478
  0
VERTEX
  8
0
 62
7
  6
CONTINUOUS
 10
23.166007551
 20
-100.5422681616
  0
SEQEND
  0
POLYLINE
  8
0
 62
7
  6
CONTINUOUS
 66
1
 70
0
  0
VERTEX
  8
0
 62
7
  6
CONTINUOUS
 10
23.166007551
 20
-100.5422681616
  0
VERTEX
  8
0
 62
7
  6
CONTINUOUS
 10
23.1776015144
 20
-100.6683026563
  0
VERTEX
  8
0
 62
7
  6
CONTINUOUS
 10
23.1831387063
 20
-100.7285493961
  0
SEQEND
  0
POLYLINE
  8
0
 62
7
  6
CONTINUOUS
 66
1
 70
0
  0
VERTEX
  8
0
 62
7
  6
CONTINUOUS
 10
23.1831387063
 20
-100.7285493961
  0
VERTEX
  8
0
 62
7
  6
CONTINUOUS
 10
23.1936586979
 20
-100.8431063477
  0
VERTEX
  8
0
 62
7
  6
CONTINUOUS
 10
23.1986468717
 20
-100.8974685587
  0
VERTEX
  8
0
 62
7
  6
CONTINUOUS
 10
23.2034432628
 20
-100.9497672462
  0
SEQEND
  0
POLYLINE
  8
0
 62
7
  6
CONTINUOUS
 66
1
 70
0
  0
VERTEX
  8
0
 62
7
  6
CONTINUOUS
 10
23.2034432628
 20
-100.9497672462
  0
VERTEX
  8
0
 62
7
  6
CONTINUOUS
 10
23.2124760582
 20
-101.0483294292
  0
VERTEX
  8
0
 62
7
  6
CONTINUOUS
 10
23.2167436368
 20
-101.0949277001
  0
VERTEX
  8
0
 62
7
  6
CONTINUOUS
 10
23.2208384854
 20
-101.1396593377
  0
SEQEND
  0
POLYLINE
  8
0
 62
7
  6
CONTINUOUS
 66
1
 70
0
  0
VERTEX
  8
0
 62
7
  6
CONTINUOUS
 10
23.2208384854
 20
-101.1396593377
  0
VERTEX
  8
0
 62
7
  6
CONTINUOUS
 10
23.2282627463
 20
-101.2208096467
  0
VERTEX
  8
0
 62
7
  6
CONTINUOUS
 10
23.2314813864
 20
-101.256010216
  0
VERTEX
  8
0
 62
7
  6
CONTINUOUS
 10
23.2343645734
 20
-101.2875521211
  0
VERTEX
  8
0
 62
7
  6
CONTINUOUS
 10
23.2369146159
 20
-101.3154573168
  0
VERTEX
  8
0
 62
7
  6
CONTINUOUS
 10
23.2391728914
 20
-101.3401758598
  0
VERTEX
  8
0
 62
7
  6
CONTINUOUS
 10
23.241184122
 20
-101.3621952435
  0
SEQEND
  0
POLYLINE
  8
0
 62
7
  6
CONTINUOUS
 66
1
 70
0
  0
VERTEX
  8
0
 62
7
  6
CONTINUOUS
 10
23.241184122
 20
-101.3621952435
  0
VERTEX
  8
0
 62
7
  6
CONTINUOUS
 10
23.2445965764
 20
-101.3995658731
  0
VERTEX
  8
0
 62
7
  6
CONTINUOUS
 10
23.246039706
 20
-101.4153738733
  0
SEQEND
  0
LINE
  8
0
 62
7
  6
CONTINUOUS
 10
23.246039706
 20
-101.4153738733
 11
23.2505205502
 21
-101.4645304775
  0
LINE
  8
0
 62
7
  6
CONTINUOUS
 10
23.3205602154
 20
-102.2348534071
 11
23.3311282132
 21
-102.3514835821
  0
LINE
  8
0
 62
7
  6
CONTINUOUS
 10
23.3311282132
 20
-102.3514835821
 11
23.3438165586
 21
-102.4917994336
  0
LINE
  8
0
 62
7
  6
CONTINUOUS
 10
23.3438165586
 20
-102.4917994336
 11
23.3591091113
 21
-102.6611881651
  0
LINE
  8
0
 62
7
  6
CONTINUOUS
 10
23.3591091113
 20
-102.6611881651
 11
23.3776089436
 21
-102.8664850638
  0
LINE
  8
0
 62
7
  6
CONTINUOUS
 10
23.3776089436
 20
-102.8664850638
 11
23.4000934971
 21
-103.1165690525
  0
LINE
  8
0
 62
7
  6
CONTINUOUS
 10
23.4000934971
 20
-103.1165690525
 11
23.427572324
 21
-103.4230559999
  0
POLYLINE
  8
0
 62
7
  6
CONTINUOUS
 66
1
 70
0
  0
VERTEX
  8
0
 62
7
  6
CONTINUOUS
 10
23.427572324
 20
-103.4230559999
  0
VERTEX
  8
0
 62
7
  6
CONTINUOUS
 10
23.4613638783
 20
-103.8012565899
  0
VERTEX
  8
0
 62
7
  6
CONTINUOUS
 10
23.4811601043
 20
-104.0234937711
  0
VERTEX
  8
0
 62
7
  6
CONTINUOUS
 10
23.5032367822
 20
-104.2719236202
  0
VERTEX
  8
0
 62
7
  6
CONTINUOUS
 10
23.5279218595
 20
-104.5504493072
  0
VERTEX
  8
0
 62
7
  6
CONTINUOUS
 10
23.5555916523
 20
-104.863591299
  0
VERTEX
  8
0
 62
7
  6
CONTINUOUS
 10
23.5866987764
 20
-105.2168285018
  0
VERTEX
  8
0
 62
7
  6
CONTINUOUS
 10
23.6217834071
 20
-105.6167626224
  0
VERTEX
  8
0
 62
7
  6
CONTINUOUS
 10
23.6614938713
 20
-106.0714049293
  0
VERTEX
  8
0
 62
7
  6
CONTINUOUS
 10
23.7066239103
 20
-106.5906701601
  0
VERTEX
  8
0
 62
7
  6
CONTINUOUS
 10
23.7581596356
 20
-107.1870317099
  0
VERTEX
  8
0
 62
7
  6
CONTINUOUS
 10
23.8154285558
 20
-107.8540445475
  0
VERTEX
  8
0
 62
7
  6
CONTINUOUS
 10
23.8744497771
 20
-108.5462899673
  0
VERTEX
  8
0
 62
7
  6
CONTINUOUS
 10
23.9333466584
 20
-109.2420413398
  0
VERTEX
  8
0
 62
7
  6
CONTINUOUS
 10
23.9959343982
 20
-109.9869215335
  0
VERTEX
  8
0
 62
7
  6
CONTINUOUS
 10
24.0645932458
 20
-110.8107318503
  0
VERTEX
  8
0
 62
7
  6
CONTINUOUS
 10
24.1392488777
 20
-111.714579761
  0
VERTEX
  8
0
 62
7
  6
CONTINUOUS
 10
24.2203451871
 20
-112.7061606032
  0
VERTEX
  8
0
 62
7
  6
CONTINUOUS
 10
24.3084715985
 20
-113.7954998351
  0
VERTEX
  8
0
 62
7
  6
CONTINUOUS
 10
24.4043231565
 20
-114.9946591926
  0
VERTEX
  8
0
 62
7
  6
CONTINUOUS
 10
24.5086967417
 20
-116.3179219109
  0
VERTEX
  8
0
 62
7
  6
CONTINUOUS
 10
24.6224939076
 20
-117.7821262838
  0
VERTEX
  8
0
 62
7
  6
CONTINUOUS
 10
24.7467386755
 20
-119.4072907401
  0
VERTEX
  8
0
 62
7
  6
CONTINUOUS
 10
24.8826047516
 20
-121.2175178634
  0
VERTEX
  8
0
 62
7
  6
CONTINUOUS
 10
25.0314441334
 20
-123.242153864
  0
VERTEX
  8
0
 62
7
  6
CONTINUOUS
 10
25.194822549
 20
-125.5173946205
  0
VERTEX
  8
0
 62
7
  6
CONTINUOUS
 10
25.3745614817
 20
-128.088537838
  0
VERTEX
  8
0
 62
7
  6
CONTINUOUS
 10
25.5727884833
 20
-131.0132474971
  0
SEQEND
  0
LINE
  8
0
 62
7
  6
CONTINUOUS
 10
23.2547132933
 20
-101.5169692848
 11
23.257247474
 21
-101.5452229799
  0
POLYLINE
  8
0
 62
7
  6
CONTINUOUS
 66
1
 70
0
  0
VERTEX
  8
0
 62
7
  6
CONTINUOUS
 10
23.2505205502
 20
-101.4645304775
  0
VERTEX
  8
0
 62
7
  6
CONTINUOUS
 10
23.2512317652
 20
-101.4745775805
  0
VERTEX
  8
0
 62
7
  6
CONTINUOUS
 10
23.2519878403
 20
-101.484462822
  0
VERTEX
  8
0
 62
7
  6
CONTINUOUS
 10
23.2528082664
 20
-101.4946184137
  0
VERTEX
  8
0
 62
7
  6
CONTINUOUS
 10
23.2547132933
 20
-101.5169692848
  0
SEQEND
  0
POLYLINE
  8
0
 62
7
  6
CONTINUOUS
 66
1
 70
0
  0
VERTEX
  8
0
 62
7
  6
CONTINUOUS
 10
25.5728206618
 20
-131.0137296838
  0
VERTEX
  8
0
 62
7
  6
CONTINUOUS
 10
25.9909657725
 20
-137.4945769169
  0
VERTEX
  8
0
 62
7
  6
CONTINUOUS
 10
26.3869865742
 20
-144.0633722184
  0
VERTEX
  8
0
 62
7
  6
CONTINUOUS
 10
26.762071937
 20
-150.7515629447
  0
VERTEX
  8
0
 62
7
  6
CONTINUOUS
 10
27.1170914232
 20
-157.5938487329
  0
VERTEX
  8
0
 62
7
  6
CONTINUOUS
 10
27.4535025423
 20
-164.6494159264
  0
VERTEX
  8
0
 62
7
  6
CONTINUOUS
 10
27.772529088
 20
-171.994505309
  0
VERTEX
  8
0
 62
7
  6
CONTINUOUS
 10
28.0760000257
 20
-179.7553732627
  0
VERTEX
  8
0
 62
7
  6
CONTINUOUS
 10
28.3665569593
 20
-188.1504932962
  0
VERTEX
  8
0
 62
7
  6
CONTINUOUS
 10
28.6489379452
 20
-197.6230067358
  0
VERTEX
  8
0
 62
7
  6
CONTINUOUS
 10
28.907361123
 20
-208.1223576097
  0
VERTEX
  8
0
 62
7
  6
CONTINUOUS
 10
29.0920161594
 20
-217.6180779677
  0
VERTEX
  8
0
 62
7
  6
CONTINUOUS
 10
29.2164228775
 20
-226.0084058978
  0
VERTEX
  8
0
 62
7
  6
CONTINUOUS
 10
29.2966991498
 20
-233.4901975704
  0
VERTEX
  8
0
 62
7
  6
CONTINUOUS
 10
29.3437707526
 20
-240.1693244057
  0
VERTEX
  8
0
 62
7
  6
CONTINUOUS
 10
29.3658230406
 20
-246.1098137329
  0
VERTEX
  8
0
 62
7
  6
CONTINUOUS
 10
29.3695262139
 20
-251.3898922389
  0
VERTEX
  8
0
 62
7
  6
CONTINUOUS
 10
29.3600815109
 20
-256.0856583649
  0
VERTEX
  8
0
 62
7
  6
CONTINUOUS
 10
29.3414863235
 20
-260.2622472183
  0
VERTEX
  8
0
 62
7
  6
CONTINUOUS
 10
29.3168123273
 20
-263.9753246969
  0
SEQEND
  0
LINE
  8
0
 62
7
  6
CONTINUOUS
 10
334.2342090342
 20
-269.0136221473
 11
34.316562674
 21
-269.0136221473
  0
LINE
  8
0
 62
7
  6
CONTINUOUS
 10
165.6511528781
 20
570.6833945233
 11
162.8124004871
 21
567.0208321614
  0
POLYLINE
  8
0
 62
7
  6
CONTINUOUS
 66
1
 70
0
  0
VERTEX
  8
0
 62
7
  6
CONTINUOUS
 10
-2.8065650746
 20
547.1866720341
  0
VERTEX
  8
0
 62
7
  6
CONTINUOUS
 10
-2.8312437266
 20
546.9373111106
  0
VERTEX
  8
0
 62
7
  6
CONTINUOUS
 10
-2.8533677657
 20
546.6708034435
  0
VERTEX
  8
0
 62
7
  6
CONTINUOUS
 10
-2.870842011
 20
546.4222311899
  0
VERTEX
  8
0
 62
7
  6
CONTINUOUS
 10
-2.8859001623
 20
546.174890444
  0
SEQEND
  0
LINE
  8
0
 62
7
  6
CONTINUOUS
 10
21.7974544639
 20
-86.6807698813
 11
21.7650473866
 21
-86.6841968361
  0
LINE
  8
0
 62
7
  6
CONTINUOUS
 10
-1.0498248752
 20
114.6401884375
 11
-1.0498007046
 21
114.6398601575
  0
POLYLINE
  8
0
 62
7
  6
CONTINUOUS
 66
1
 70
0
  0
VERTEX
  8
0
 62
7
  6
CONTINUOUS
 10
-1.0497657399
 20
114.6393853288
  0
VERTEX
  8
0
 62
7
  6
CONTINUOUS
 10
-0.4867993305
 20
106.3293450127
  0
VERTEX
  8
0
 62
7
  6
CONTINUOUS
 10
-0.0370952589
 20
98.3739154606
  0
VERTEX
  8
0
 62
7
  6
CONTINUOUS
 10
0.341758257
 20
90.4698593809
  0
VERTEX
  8
0
 62
7
  6
CONTINUOUS
 10
0.702931627
 20
82.140219685
  0
VERTEX
  8
0
 62
7
  6
CONTINUOUS
 10
1.0810552782
 20
73.6072389565
  0
SEQEND
  0
POLYLINE
  8
0
 62
7
  6
CONTINUOUS
 66
1
 70
0
  0
VERTEX
  8
0
 62
7
  6
CONTINUOUS
 10
1.6311273925
 20
63.1956509378
  0
VERTEX
  8
0
 62
7
  6
CONTINUOUS
 10
1.8373851633
 20
59.8752364576
  0
VERTEX
  8
0
 62
7
  6
CONTINUOUS
 10
2.0661586476
 20
56.4752968031
  0
VERTEX
  8
0
 62
7
  6
CONTINUOUS
 10
2.3196497178
 20
52.9975433259
  0
VERTEX
  8
0
 62
7
  6
CONTINUOUS
 10
2.5998296317
 20
49.4429433137
  0
VERTEX
  8
0
 62
7
  6
CONTINUOUS
 10
2.9084091249
 20
45.8133516568
  0
VERTEX
  8
0
 62
7
  6
CONTINUOUS
 10
3.246912995
 20
42.1095419288
  0
VERTEX
  8
0
 62
7
  6
CONTINUOUS
 10
3.6164574808
 20
38.3334787527
  0
VERTEX
  8
0
 62
7
  6
CONTINUOUS
 10
4.0179590074
 20
34.4865633246
  0
VERTEX
  8
0
 62
7
  6
CONTINUOUS
 10
4.4520345378
 20
30.5701223736
  0
VERTEX
  8
0
 62
7
  6
CONTINUOUS
 10
4.9190426352
 20
26.5854022319
  0
VERTEX
  8
0
 62
7
  6
CONTINUOUS
 10
5.4190530892
 20
22.5337938663
  0
VERTEX
  8
0
 62
7
  6
CONTINUOUS
 10
5.9518070083
 20
18.417068179
  0
VERTEX
  8
0
 62
7
  6
CONTINUOUS
 10
6.5168893683
 20
14.2362208016
  0
VERTEX
  8
0
 62
7
  6
CONTINUOUS
 10
7.1135987671
 20
9.9928323131
  0
VERTEX
  8
0
 62
7
  6
CONTINUOUS
 10
7.7409911559
 20
5.6884585935
  0
VERTEX
  8
0
 62
7
  6
CONTINUOUS
 10
8.39772832
 20
1.3257879486
  0
VERTEX
  8
0
 62
7
  6
CONTINUOUS
 10
9.0826522206
 20
-3.0946252201
  0
VERTEX
  8
0
 62
7
  6
CONTINUOUS
 10
9.7942162587
 20
-7.5708863606
  0
VERTEX
  8
0
 62
7
  6
CONTINUOUS
 10
10.5308993437
 20
-12.1020618795
  0
VERTEX
  8
0
 62
7
  6
CONTINUOUS
 10
11.2910196954
 20
-16.6870522309
  0
SEQEND
  0
LINE
  8
0
 62
7
  6
CONTINUOUS
 10
1.4512942671
 20
66.3209232276
 11
1.6311273925
 21
63.1956509378
  0
LINE
  8
0
 62
7
  6
CONTINUOUS
 10
1.0810552782
 20
73.6072389565
 11
1.4512942602
 21
66.3209232461
  0
LINE
  8
0
 62
7
  6
CONTINUOUS
 10
-1.0613733858
 20
114.8682139731
 11
-1.0498248752
 21
114.6401884375
  0
POLYLINE
  8
0
 62
7
  6
CONTINUOUS
 66
1
 70
0
  0
VERTEX
  8
0
 62
7
  6
CONTINUOUS
 10
0.0097285716
 20
180.4863778527
  0
VERTEX
  8
0
 62
7
  6
CONTINUOUS
 10
0.0147996576
 20
180.219973747
  0
VERTEX
  8
0
 62
7
  6
CONTINUOUS
 10
0.0489417074
 20
179.7464845217
  0
VERTEX
  8
0
 62
7
  6
CONTINUOUS
 10
0.1150966941
 20
179.2764017879
  0
VERTEX
  8
0
 62
7
  6
CONTINUOUS
 10
0.2129609454
 20
178.8118873092
  0
VERTEX
  8
0
 62
7
  6
CONTINUOUS
 10
0.3420899193
 20
178.3550787097
  0
VERTEX
  8
0
 62
7
  6
CONTINUOUS
 10
0.5018651937
 20
177.9080689691
  0
VERTEX
  8
0
 62
7
  6
CONTINUOUS
 10
0.6915788912
 20
177.4729216303
  0
VERTEX
  8
0
 62
7
  6
CONTINUOUS
 10
0.9103470796
 20
177.0516339334
  0
VERTEX
  8
0
 62
7
  6
CONTINUOUS
 10
1.1571705481
 20
176.6461484629
  0
VERTEX
  8
0
 62
7
  6
CONTINUOUS
 10
1.4308985967
 20
176.2583176743
  0
VERTEX
  8
0
 62
7
  6
CONTINUOUS
 10
1.7302814802
 20
175.889931911
  0
VERTEX
  8
0
 62
7
  6
CONTINUOUS
 10
2.0539483327
 20
175.5426896237
  0
VERTEX
  8
0
 62
7
  6
CONTINUOUS
 10
2.4004000008
 20
175.218178039
  0
VERTEX
  8
0
 62
7
  6
CONTINUOUS
 10
2.7680508718
 20
174.9178962267
  0
VERTEX
  8
0
 62
7
  6
CONTINUOUS
 10
3.1552073782
 20
174.6432216102
  0
VERTEX
  8
0
 62
7
  6
CONTINUOUS
 10
3.2304630755
 20
174.597162118
  0
SEQEND
  0
LINE
  8
0
 62
7
  6
CONTINUOUS
 10
-2.9903499619
 20
515.4863778527
 11
-2.9903499619
 21
543.1762913832
  0
LINE
  8
0
 62
7
  6
CONTINUOUS
 10
0.0097285716
 20
180.4863778527
 11
0.0097285716
 21
509.4863778527
  0
LINE
  8
0
 62
7
  6
CONTINUOUS
 10
3.2015178188
 20
198.7062825297
 11
3.2015178188
 21
182.153466355
  0
POLYLINE
  8
0
 62
7
  6
CONTINUOUS
 66
1
 70
0
  0
VERTEX
  8
0
 62
7
  6
CONTINUOUS
 10
3.201517822
 20
182.153466355
  0
VERTEX
  8
0
 62
7
  6
CONTINUOUS
 10
3.2015429147
 20
181.9242397531
  0
VERTEX
  8
0
 62
7
  6
CONTINUOUS
 10
3.2016928812
 20
181.547887671
  0
VERTEX
  8
0
 62
7
  6
CONTINUOUS
 10
3.2019737316
 20
181.1763514193
  0
VERTEX
  8
0
 62
7
  6
CONTINUOUS
 10
3.2023807065
 20
180.8097058357
  0
VERTEX
  8
0
 62
7
  6
CONTINUOUS
 10
3.2029091916
 20
180.448048835
  0
VERTEX
  8
0
 62
7
  6
CONTINUOUS
 10
3.203554577
 20
180.0914647271
  0
VERTEX
  8
0
 62
7
  6
CONTINUOUS
 10
3.2043123241
 20
179.7400255753
  0
VERTEX
  8
0
 62
7
  6
CONTINUOUS
 10
3.2051780685
 20
179.3937923365
  0
VERTEX
  8
0
 62
7
  6
CONTINUOUS
 10
3.206147614
 20
179.0528157049
  0
VERTEX
  8
0
 62
7
  6
CONTINUOUS
 10
3.2072168535
 20
178.717135731
  0
VERTEX
  8
0
 62
7
  6
CONTINUOUS
 10
3.2083817554
 20
178.3867825048
  0
VERTEX
  8
0
 62
7
  6
CONTINUOUS
 10
3.2096384362
 20
178.0617773029
  0
VERTEX
  8
0
 62
7
  6
CONTINUOUS
 10
3.2109831055
 20
177.7421324628
  0
VERTEX
  8
0
 62
7
  6
CONTINUOUS
 10
3.2124121189
 20
177.4278529417
  0
VERTEX
  8
0
 62
7
  6
CONTINUOUS
 10
3.2139219869
 20
177.1189369495
  0
VERTEX
  8
0
 62
7
  6
CONTINUOUS
 10
3.2155092992
 20
176.81537501
  0
VERTEX
  8
0
 62
7
  6
CONTINUOUS
 10
3.2171707604
 20
176.5171512811
  0
VERTEX
  8
0
 62
7
  6
CONTINUOUS
 10
3.2189032328
 20
176.2242447941
  0
VERTEX
  8
0
 62
7
  6
CONTINUOUS
 10
3.2207037087
 20
175.9366294396
  0
VERTEX
  8
0
 62
7
  6
CONTINUOUS
 10
3.222569239
 20
175.6542724467
  0
VERTEX
  8
0
 62
7
  6
CONTINUOUS
 10
3.2244970028
 20
175.3771368857
  0
VERTEX
  8
0
 62
7
  6
CONTINUOUS
 10
3.2264843275
 20
175.1051824175
  0
VERTEX
  8
0
 62
7
  6
CONTINUOUS
 10
3.2285286846
 20
174.8383656922
  0
VERTEX
  8
0
 62
7
  6
CONTINUOUS
 10
3.2306276537
 20
174.5766404853
  0
VERTEX
  8
0
 62
7
  6
CONTINUOUS
 10
3.2327789113
 20
174.3199494767
  0
VERTEX
  8
0
 62
7
  6
CONTINUOUS
 10
3.2349800536
 20
174.0682559307
  0
VERTEX
  8
0
 62
7
  6
CONTINUOUS
 10
3.2372289177
 20
173.8215072877
  0
VERTEX
  8
0
 62
7
  6
CONTINUOUS
 10
3.2395231596
 20
173.5796812312
  0
VERTEX
  8
0
 62
7
  6
CONTINUOUS
 10
3.2418605981
 20
173.3427441361
  0
VERTEX
  8
0
 62
7
  6
CONTINUOUS
 10
3.2442390676
 20
173.110660351
  0
VERTEX
  8
0
 62
7
  6
CONTINUOUS
 10
3.2466564782
 20
172.8833910161
  0
VERTEX
  8
0
 62
7
  6
CONTINUOUS
 10
3.2491108295
 20
172.6608953028
  0
VERTEX
  8
0
 62
7
  6
CONTINUOUS
 10
3.2516001812
 20
172.4431297748
  0
VERTEX
  8
0
 62
7
  6
CONTINUOUS
 10
3.2541226717
 20
172.230048978
  0
VERTEX
  8
0
 62
7
  6
CONTINUOUS
 10
3.2566765257
 20
172.0216064311
  0
VERTEX
  8
0
 62
7
  6
CONTINUOUS
 10
3.2592600428
 20
171.8177544519
  0
VERTEX
  8
0
 62
7
  6
CONTINUOUS
 10
3.2618715552
 20
171.6184420763
  0
VERTEX
  8
0
 62
7
  6
CONTINUOUS
 10
3.264509464
 20
171.4236162967
  0
VERTEX
  8
0
 62
7
  6
CONTINUOUS
 10
3.2671722485
 20
171.2332238963
  0
VERTEX
  8
0
 62
7
  6
CONTINUOUS
 10
3.2698584698
 20
171.0472111457
  0
VERTEX
  8
0
 62
7
  6
CONTINUOUS
 10
3.2725667733
 20
170.8655235939
  0
VERTEX
  8
0
 62
7
  6
CONTINUOUS
 10
3.2752958343
 20
170.6881084932
  0
VERTEX
  8
0
 62
7
  6
CONTINUOUS
 10
3.2780443805
 20
170.5149097766
  0
VERTEX
  8
0
 62
7
  6
CONTINUOUS
 10
3.2808111705
 20
170.3458729175
  0
VERTEX
  8
0
 62
7
  6
CONTINUOUS
 10
3.2835950372
 20
170.1809430047
  0
VERTEX
  8
0
 62
7
  6
CONTINUOUS
 10
3.2863948685
 20
170.0200639529
  0
VERTEX
  8
0
 62
7
  6
CONTINUOUS
 10
3.2892096022
 20
169.8631793224
  0
VERTEX
  8
0
 62
7
  6
CONTINUOUS
 10
3.2920382531
 20
169.710232419
  0
VERTEX
  8
0
 62
7
  6
CONTINUOUS
 10
3.2948798968
 20
169.5611672452
  0
VERTEX
  8
0
 62
7
  6
CONTINUOUS
 10
3.297733667
 20
169.4159276197
  0
VERTEX
  8
0
 62
7
  6
CONTINUOUS
 10
3.3005987343
 20
169.2744566861
  0
VERTEX
  8
0
 62
7
  6
CONTINUOUS
 10
3.3034743448
 20
169.1366972252
  0
VERTEX
  8
0
 62
7
  6
CONTINUOUS
 10
3.3063597981
 20
169.0025930918
  0
VERTEX
  8
0
 62
7
  6
CONTINUOUS
 10
3.3092544534
 20
168.8720873997
  0
VERTEX
  8
0
 62
7
  6
CONTINUOUS
 10
3.3121577084
 20
168.7451235984
  0
VERTEX
  8
0
 62
7
  6
CONTINUOUS
 10
3.3150690513
 20
168.6216447283
  0
VERTEX
  8
0
 62
7
  6
CONTINUOUS
 10
3.3179880285
 20
168.5015950055
  0
VERTEX
  8
0
 62
7
  6
CONTINUOUS
 10
3.320914228
 20
168.3849202022
  0
VERTEX
  8
0
 62
7
  6
CONTINUOUS
 10
3.3238474311
 20
168.2715601106
  0
VERTEX
  8
0
 62
7
  6
CONTINUOUS
 10
3.3267869043
 20
168.1614765341
  0
VERTEX
  8
0
 62
7
  6
CONTINUOUS
 10
3.3297322337
 20
168.0546211911
  0
VERTEX
  8
0
 62
7
  6
CONTINUOUS
 10
3.3326825626
 20
167.9509636795
  0
VERTEX
  8
0
 62
7
  6
CONTINUOUS
 10
3.3356371965
 20
167.850468147
  0
VERTEX
  8
0
 62
7
  6
CONTINUOUS
 10
3.3385955209
 20
167.7530949147
  0
VERTEX
  8
0
 62
7
  6
CONTINUOUS
 10
3.3415569372
 20
167.6588041275
  0
VERTEX
  8
0
 62
7
  6
CONTINUOUS
 10
3.3445210278
 20
167.5675515201
  0
VERTEX
  8
0
 62
7
  6
CONTINUOUS
 10
3.3474873958
 20
167.4792938515
  0
VERTEX
  8
0
 62
7
  6
CONTINUOUS
 10
3.3504558326
 20
167.3939840097
  0
VERTEX
  8
0
 62
7
  6
CONTINUOUS
 10
3.353426168
 20
167.3115757983
  0
VERTEX
  8
0
 62
7
  6
CONTINUOUS
 10
3.356398441
 20
167.232018342
  0
VERTEX
  8
0
 62
7
  6
CONTINUOUS
 10
3.359372698
 20
167.1552614223
  0
VERTEX
  8
0
 62
7
  6
CONTINUOUS
 10
3.3623493949
 20
167.081246921
  0
VERTEX
  8
0
 62
7
  6
CONTINUOUS
 10
3.3653290006
 20
167.0099198691
  0
VERTEX
  8
0
 62
7
  6
CONTINUOUS
 10
3.36831247
 20
166.9412174184
  0
VERTEX
  8
0
 62
7
  6
CONTINUOUS
 10
3.3713007994
 20
166.8750802171
  0
VERTEX
  8
0
 62
7
  6
CONTINUOUS
 10
3.3742956145
 20
166.8114388851
  0
VERTEX
  8
0
 62
7
  6
CONTINUOUS
 10
3.3772985214
 20
166.7502288953
  0
VERTEX
  8
0
 62
7
  6
CONTINUOUS
 10
3.3803123154
 20
166.6913680694
  0
VERTEX
  8
0
 62
7
  6
CONTINUOUS
 10
3.3833398766
 20
166.6347811149
  0
VERTEX
  8
0
 62
7
  6
CONTINUOUS
 10
3.3863852216
 20
166.5803807235
  0
VERTEX
  8
0
 62
7
  6
CONTINUOUS
 10
3.3894529456
 20
166.528080455
  0
VERTEX
  8
0
 62
7
  6
CONTINUOUS
 10
3.3925482158
 20
166.47779591
  0
VERTEX
  8
0
 62
7
  6
CONTINUOUS
 10
3.3956767125
 20
166.429446375
  0
VERTEX
  8
0
 62
7
  6
CONTINUOUS
 10
3.3988475565
 20
166.3829122806
  0
VERTEX
  8
0
 62
7
  6
CONTINUOUS
 10
3.402069689
 20
166.3380950529
  0
SEQEND
  0
POLYLINE
  8
0
 62
7
  6
CONTINUOUS
 66
1
 70
0
  0
VERTEX
  8
0
 62
7
  6
CONTINUOUS
 10
-2.986685956
 20
543.4516698752
  0
VERTEX
  8
0
 62
7
  6
CONTINUOUS
 10
-2.9898806302
 20
543.2728587811
  0
VERTEX
  8
0
 62
7
  6
CONTINUOUS
 10
-2.9903232966
 20
543.1762907978
  0
SEQEND
  0
POLYLINE
  8
0
 62
7
  6
CONTINUOUS
 66
1
 70
0
  0
VERTEX
  8
0
 62
7
  6
CONTINUOUS
 10
-2.8998598306
 20
545.9140442415
  0
VERTEX
  8
0
 62
7
  6
CONTINUOUS
 10
-2.913030809
 20
545.637199391
  0
VERTEX
  8
0
 62
7
  6
CONTINUOUS
 10
-2.9258048541
 20
545.3380269101
  0
VERTEX
  8
0
 62
7
  6
CONTINUOUS
 10
-2.9383288163
 20
545.0137682129
  0
VERTEX
  8
0
 62
7
  6
CONTINUOUS
 10
-2.9507612501
 20
544.6602529636
  0
VERTEX
  8
0
 62
7
  6
CONTINUOUS
 10
-2.9631608383
 20
544.2751811692
  0
VERTEX
  8
0
 62
7
  6
CONTINUOUS
 10
-2.9755998251
 20
543.855292618
  0
VERTEX
  8
0
 62
7
  6
CONTINUOUS
 10
-2.9866943461
 20
543.4516384161
  0
SEQEND
  0
LINE
  8
0
 62
7
  6
CONTINUOUS
 10
-2.8859001623
 20
546.174890444
 11
-2.8998598306
 21
545.9140442415
  0
POLYLINE
  8
0
 62
7
  6
CONTINUOUS
 66
1
 70
0
  0
VERTEX
  8
0
 62
7
  6
CONTINUOUS
 10
-0.1020346583
 20
157.4873144738
  0
VERTEX
  8
0
 62
7
  6
CONTINUOUS
 10
-0.5818355482
 20
151.254042866
  0
VERTEX
  8
0
 62
7
  6
CONTINUOUS
 10
-0.9408089401
 20
144.6440095554
  0
VERTEX
  8
0
 62
7
  6
CONTINUOUS
 10
-1.1694754643
 20
137.6747712178
  0
VERTEX
  8
0
 62
7
  6
CONTINUOUS
 10
-1.2638722224
 20
130.3214479546
  0
VERTEX
  8
0
 62
7
  6
CONTINUOUS
 10
-1.2233370625
 20
122.6193794339
  0
VERTEX
  8
0
 62
7
  6
CONTINUOUS
 10
-1.0613733877
 20
114.8682140386
  0
SEQEND
  0
POLYLINE
  8
0
 62
7
  6
CONTINUOUS
 66
1
 70
0
  0
VERTEX
  8
0
 62
7
  6
CONTINUOUS
 10
0.425301343
 20
162.798332584
  0
VERTEX
  8
0
 62
7
  6
CONTINUOUS
 10
0.3432308618
 20
162.0422936998
  0
VERTEX
  8
0
 62
7
  6
CONTINUOUS
 10
0.2461003244
 20
161.1179394291
  0
VERTEX
  8
0
 62
7
  6
CONTINUOUS
 10
0.1515744954
 20
160.1846691684
  0
VERTEX
  8
0
 62
7
  6
CONTINUOUS
 10
0.0596742437
 20
159.2421182662
  0
VERTEX
  8
0
 62
7
  6
CONTINUOUS
 10
-0.0294554342
 20
158.2912219091
  0
VERTEX
  8
0
 62
7
  6
CONTINUOUS
 10
-0.1020349825
 20
157.487314527
  0
SEQEND
  0
LINE
  8
0
 62
7
  6
CONTINUOUS
 10
11.2910196954
 20
-16.6870522309
 11
12.0472546056
 21
-21.1739451846
  0
POLYLINE
  8
0
 62
7
  6
CONTINUOUS
 66
1
 70
0
  0
VERTEX
  8
0
 62
7
  6
CONTINUOUS
 10
12.0453885098
 20
-21.0136602767
  0
VERTEX
  8
0
 62
7
  6
CONTINUOUS
 10
12.2224453652
 20
-22.0649818132
  0
VERTEX
  8
0
 62
7
  6
CONTINUOUS
 10
12.4021487994
 20
-23.1276835472
  0
VERTEX
  8
0
 62
7
  6
CONTINUOUS
 10
12.5844207965
 20
-24.2016267809
  0
VERTEX
  8
0
 62
7
  6
CONTINUOUS
 10
12.7690013788
 20
-25.2859587771
  0
VERTEX
  8
0
 62
7
  6
CONTINUOUS
 10
12.955814127
 20
-26.380862744
  0
VERTEX
  8
0
 62
7
  6
CONTINUOUS
 10
13.1442299726
 20
-27.4832597133
  0
VERTEX
  8
0
 62
7
  6
CONTINUOUS
 10
13.3336607665
 20
-28.5904774541
  0
VERTEX
  8
0
 62
7
  6
CONTINUOUS
 10
13.5238981329
 20
-29.7019678969
  0
VERTEX
  8
0
 62
7
  6
CONTINUOUS
 10
13.7146159945
 20
-30.8165680261
  0
VERTEX
  8
0
 62
7
  6
CONTINUOUS
 10
13.9055999625
 20
-31.9337107721
  0
VERTEX
  8
0
 62
7
  6
CONTINUOUS
 10
14.0965829101
 20
-33.0525476659
  0
VERTEX
  8
0
 62
7
  6
CONTINUOUS
 10
14.2874270885
 20
-34.1729468483
  0
VERTEX
  8
0
 62
7
  6
CONTINUOUS
 10
14.4779524584
 20
-35.2945215223
  0
VERTEX
  8
0
 62
7
  6
CONTINUOUS
 10
14.6680522793
 20
-36.4172934911
  0
VERTEX
  8
0
 62
7
  6
CONTINUOUS
 10
14.8575883516
 20
-37.5410708586
  0
VERTEX
  8
0
 62
7
  6
CONTINUOUS
 10
15.0465078219
 20
-38.666168305
  0
VERTEX
  8
0
 62
7
  6
CONTINUOUS
 10
15.2346439527
 20
-39.7921613398
  0
VERTEX
  8
0
 62
7
  6
CONTINUOUS
 10
15.4222298505
 20
-40.921091139
  0
VERTEX
  8
0
 62
7
  6
CONTINUOUS
 10
15.6085991858
 20
-42.0492992758
  0
VERTEX
  8
0
 62
7
  6
CONTINUOUS
 10
15.796299724
 20
-43.1932648753
  0
VERTEX
  8
0
 62
7
  6
CONTINUOUS
 10
15.9866521478
 20
-44.3611791096
  0
VERTEX
  8
0
 62
7
  6
CONTINUOUS
 10
16.1825741291
 20
-45.5723510375
  0
VERTEX
  8
0
 62
7
  6
CONTINUOUS
 10
16.388971514
 20
-46.8578675781
  0
VERTEX
  8
0
 62
7
  6
CONTINUOUS
 10
16.6009741953
 20
-48.1877657532
  0
VERTEX
  8
0
 62
7
  6
CONTINUOUS
 10
16.8166470057
 20
-49.5516834744
  0
VERTEX
  8
0
 62
7
  6
CONTINUOUS
 10
17.0322515247
 20
-50.9246677761
  0
VERTEX
  8
0
 62
7
  6
CONTINUOUS
 10
17.242751244
 20
-52.2744817729
  0
VERTEX
  8
0
 62
7
  6
CONTINUOUS
 10
17.4504615694
 20
-53.6165248239
  0
VERTEX
  8
0
 62
7
  6
CONTINUOUS
 10
17.6550667138
 20
-54.9480148349
  0
VERTEX
  8
0
 62
7
  6
CONTINUOUS
 10
17.8594017796
 20
-56.2907615469
  0
VERTEX
  8
0
 62
7
  6
CONTINUOUS
 10
18.0659443199
 20
-57.6632682375
  0
VERTEX
  8
0
 62
7
  6
CONTINUOUS
 10
18.2752128459
 20
-59.0705688097
  0
VERTEX
  8
0
 62
7
  6
CONTINUOUS
 10
18.4896649066
 20
-60.5311175489
  0
VERTEX
  8
0
 62
7
  6
CONTINUOUS
 10
18.7058214812
 20
-62.0224337645
  0
VERTEX
  8
0
 62
7
  6
CONTINUOUS
 10
18.9214074229
 20
-63.5306602568
  0
VERTEX
  8
0
 62
7
  6
CONTINUOUS
 10
19.1355638403
 20
-65.0505117864
  0
VERTEX
  8
0
 62
7
  6
CONTINUOUS
 10
19.3466759739
 20
-66.571763078
  0
VERTEX
  8
0
 62
7
  6
CONTINUOUS
 10
19.5549542309
 20
-68.0965384175
  0
VERTEX
  8
0
 62
7
  6
CONTINUOUS
 10
19.7604220511
 20
-69.6259915011
  0
VERTEX
  8
0
 62
7
  6
CONTINUOUS
 10
19.9621031845
 20
-71.153153699
  0
VERTEX
  8
0
 62
7
  6
CONTINUOUS
 10
20.1606362364
 20
-72.6842707204
  0
VERTEX
  8
0
 62
7
  6
CONTINUOUS
 10
20.3513425544
 20
-74.1812974192
  0
VERTEX
  8
0
 62
7
  6
CONTINUOUS
 10
20.5300466424
 20
-75.6109380775
  0
VERTEX
  8
0
 62
7
  6
CONTINUOUS
 10
20.6963772726
 20
-76.9655496151
  0
VERTEX
  8
0
 62
7
  6
CONTINUOUS
 10
20.8476424093
 20
-78.2193504714
  0
VERTEX
  8
0
 62
7
  6
CONTINUOUS
 10
20.9867332479
 20
-79.3922792063
  0
VERTEX
  8
0
 62
7
  6
CONTINUOUS
 10
21.1151897028
 20
-80.4930780275
  0
VERTEX
  8
0
 62
7
  6
CONTINUOUS
 10
21.234098525
 20
-81.5286020365
  0
VERTEX
  8
0
 62
7
  6
CONTINUOUS
 10
21.3448686758
 20
-82.5079943346
  0
VERTEX
  8
0
 62
7
  6
CONTINUOUS
 10
21.4478847423
 20
-83.4326962885
  0
VERTEX
  8
0
 62
7
  6
CONTINUOUS
 10
21.5435841646
 20
-84.3041120889
  0
VERTEX
  8
0
 62
7
  6
CONTINUOUS
 10
21.6331184515
 20
-85.131217413
  0
VERTEX
  8
0
 62
7
  6
CONTINUOUS
 10
21.7178786017
 20
-85.9247036218
  0
VERTEX
  8
0
 62
7
  6
CONTINUOUS
 10
21.797470926
 20
-86.6808953527
  0
SEQEND
  0
POLYLINE
  8
0
 62
7
  6
CONTINUOUS
 66
1
 70
0
  0
VERTEX
  8
0
 62
7
  6
CONTINUOUS
 10
12.0468045751
 20
-21.170908985
  0
VERTEX
  8
0
 62
7
  6
CONTINUOUS
 10
12.8898448056
 20
-26.2714546137
  0
VERTEX
  8
0
 62
7
  6
CONTINUOUS
 10
13.7424751327
 20
-31.3283717955
  0
VERTEX
  8
0
 62
7
  6
CONTINUOUS
 10
14.598493735
 20
-36.3473102513
  0
VERTEX
  8
0
 62
7
  6
CONTINUOUS
 10
15.4333415527
 20
-41.2611950595
  0
VERTEX
  8
0
 62
7
  6
CONTINUOUS
 10
16.235723087
 20
-46.0948208694
  0
VERTEX
  8
0
 62
7
  6
CONTINUOUS
 10
17.0034448496
 20
-50.9150499599
  0
VERTEX
  8
0
 62
7
  6
CONTINUOUS
 10
17.7141044341
 20
-55.6215709376
  0
VERTEX
  8
0
 62
7
  6
CONTINUOUS
 10
18.383568707
 20
-60.2833086885
  0
VERTEX
  8
0
 62
7
  6
CONTINUOUS
 10
19.0009734669
 20
-64.7597384678
  0
VERTEX
  8
0
 62
7
  6
CONTINUOUS
 10
19.5886252954
 20
-69.1679392205
  0
VERTEX
  8
0
 62
7
  6
CONTINUOUS
 10
20.1620581918
 20
-73.6026804142
  0
VERTEX
  8
0
 62
7
  6
CONTINUOUS
 10
20.722425928
 20
-78.0610407546
  0
VERTEX
  8
0
 62
7
  6
CONTINUOUS
 10
21.2729796765
 20
-82.5609900835
  0
VERTEX
  8
0
 62
7
  6
CONTINUOUS
 10
21.7650454926
 20
-86.6841789289
  0
SEQEND
  0
POLYLINE
  8
0
 62
7
  6
CONTINUOUS
 66
1
 70
0
  0
VERTEX
  8
0
 62
7
  6
CONTINUOUS
 10
3.402069689
 20
166.3380950529
  0
VERTEX
  8
0
 62
7
  6
CONTINUOUS
 10
3.4053589424
 20
166.2948245045
  0
VERTEX
  8
0
 62
7
  6
CONTINUOUS
 10
3.4087306806
 20
166.252969727
  0
VERTEX
  8
0
 62
7
  6
CONTINUOUS
 10
3.4122118571
 20
166.2122961517
  0
VERTEX
  8
0
 62
7
  6
CONTINUOUS
 10
3.4158285767
 20
166.1726333192
  0
VERTEX
  8
0
 62
7
  6
CONTINUOUS
 10
3.4196284186
 20
166.1336424679
  0
VERTEX
  8
0
 62
7
  6
CONTINUOUS
 10
3.4236599011
 20
166.095070099
  0
VERTEX
  8
0
 62
7
  6
CONTINUOUS
 10
3.4280025294
 20
166.0564791706
  0
VERTEX
  8
0
 62
7
  6
CONTINUOUS
 10
3.432744252
 20
166.0175103093
  0
VERTEX
  8
0
 62
7
  6
CONTINUOUS
 10
3.4380155687
 20
165.9776345213
  0
SEQEND
  0
POLYLINE
  8
0
 62
7
  6
CONTINUOUS
 66
1
 70
0
  0
VERTEX
  8
0
 62
7
  6
CONTINUOUS
 10
25.5484939359
 20
-131.0148422708
  0
VERTEX
  8
0
 62
7
  6
CONTINUOUS
 10
26.5248864574
 20
-146.8462421062
  0
VERTEX
  8
0
 62
7
  6
CONTINUOUS
 10
27.3631899734
 20
-163.0908464867
  0
VERTEX
  8
0
 62
7
  6
CONTINUOUS
 10
28.0516628933
 20
-179.4725354852
  0
VERTEX
  8
0
 62
7
  6
CONTINUOUS
 10
28.5974342662
 20
-196.0708396297
  0
VERTEX
  8
0
 62
7
  6
CONTINUOUS
 10
28.9999680357
 20
-212.8391764432
  0
VERTEX
  8
0
 62
7
  6
CONTINUOUS
 10
29.2581388956
 20
-229.8000879044
  0
VERTEX
  8
0
 62
7
  6
CONTINUOUS
 10
29.3663564991
 20
-247.0051370172
  0
VERTEX
  8
0
 62
7
  6
CONTINUOUS
 10
29.3167093505
 20
-263.9753238669
  0
SEQEND
  0
LINE
  8
0
 62
7
  6
CONTINUOUS
 10
156.5211090738
 20
564.8649847823
 11
155.2146477721
 21
561.2755118564
  0
POLYLINE
  8
0
 62
7
  6
CONTINUOUS
 66
1
 70
0
  0
VERTEX
  8
0
 62
7
  6
CONTINUOUS
 10
3.4380155687
 20
165.9776345213
  0
VERTEX
  8
0
 62
7
  6
CONTINUOUS
 10
3.4439573654
 20
165.9364648362
  0
VERTEX
  8
0
 62
7
  6
CONTINUOUS
 10
3.4508253448
 20
165.8931084047
  0
VERTEX
  8
0
 62
7
  6
CONTINUOUS
 10
3.4588960626
 20
165.8469495372
  0
VERTEX
  8
0
 62
7
  6
CONTINUOUS
 10
3.4686440829
 20
165.7967425477
  0
VERTEX
  8
0
 62
7
  6
CONTINUOUS
 10
3.4806162529
 20
165.7415639023
  0
VERTEX
  8
0
 62
7
  6
CONTINUOUS
 10
3.4956501949
 20
165.6799628031
  0
VERTEX
  8
0
 62
7
  6
CONTINUOUS
 10
3.5148352885
 20
165.6105517105
  0
VERTEX
  8
0
 62
7
  6
CONTINUOUS
 10
3.5393585097
 20
165.5326958287
  0
VERTEX
  8
0
 62
7
  6
CONTINUOUS
 10
3.5710284452
 20
165.4449813898
  0
VERTEX
  8
0
 62
7
  6
CONTINUOUS
 10
3.6107580146
 20
165.349365564
  0
VERTEX
  8
0
 62
7
  6
CONTINUOUS
 10
3.6597748477
 20
165.2470064319
  0
VERTEX
  8
0
 62
7
  6
CONTINUOUS
 10
3.718908879
 20
165.1398934199
  0
VERTEX
  8
0
 62
7
  6
CONTINUOUS
 10
3.7888721417
 20
165.0299500656
  0
VERTEX
  8
0
 62
7
  6
CONTINUOUS
 10
3.8700068609
 20
164.9193501663
  0
VERTEX
  8
0
 62
7
  6
CONTINUOUS
 10
3.9621187203
 20
164.8105039516
  0
VERTEX
  8
0
 62
7
  6
CONTINUOUS
 10
4.0022257726
 20
164.767651996
  0
SEQEND
  0
POLYLINE
  8
0
 62
7
  6
CONTINUOUS
 66
1
 70
0
  0
VERTEX
  8
0
 62
7
  6
CONTINUOUS
 10
3.2990324346
 20
169.3517972374
  0
VERTEX
  8
0
 62
7
  6
CONTINUOUS
 10
3.1107928628
 20
169.1357107666
  0
VERTEX
  8
0
 62
7
  6
CONTINUOUS
 10
2.7419701357
 20
168.667255208
  0
VERTEX
  8
0
 62
7
  6
CONTINUOUS
 10
2.3969427983
 20
168.1811529756
  0
VERTEX
  8
0
 62
7
  6
CONTINUOUS
 10
2.0765509186
 20
167.6785911513
  0
VERTEX
  8
0
 62
7
  6
CONTINUOUS
 10
1.7815219859
 20
167.1608196085
  0
VERTEX
  8
0
 62
7
  6
CONTINUOUS
 10
1.5125773507
 20
166.6290963033
  0
VERTEX
  8
0
 62
7
  6
CONTINUOUS
 10
1.2704096506
 20
166.084689682
  0
VERTEX
  8
0
 62
7
  6
CONTINUOUS
 10
1.0555860379
 20
165.5289297737
  0
VERTEX
  8
0
 62
7
  6
CONTINUOUS
 10
0.8686418058
 20
164.9631654904
  0
VERTEX
  8
0
 62
7
  6
CONTINUOUS
 10
0.7100385735
 20
164.3887668526
  0
VERTEX
  8
0
 62
7
  6
CONTINUOUS
 10
0.5801334509
 20
163.807138665
  0
VERTEX
  8
0
 62
7
  6
CONTINUOUS
 10
0.479276674
 20
163.2196798247
  0
VERTEX
  8
0
 62
7
  6
CONTINUOUS
 10
0.4253150363
 20
162.7983306823
  0
SEQEND
  0
LINE
  8
0
 62
7
  6
CONTINUOUS
 10
7.3555055226
 20
161.2860495068
 11
4.0018272578
 21
164.7680655104
  0
POLYLINE
  8
0
 62
7
  6
CONTINUOUS
 66
1
 70
0
  0
VERTEX
  8
0
 62
7
  6
CONTINUOUS
 10
8.0520959015
 20
205.371102015
  0
VERTEX
  8
0
 62
7
  6
CONTINUOUS
 10
7.607954849
 20
205.2111580073
  0
VERTEX
  8
0
 62
7
  6
CONTINUOUS
 10
7.1755996359
 20
205.0216089441
  0
VERTEX
  8
0
 62
7
  6
CONTINUOUS
 10
6.7569995873
 20
204.8033109189
  0
VERTEX
  8
0
 62
7
  6
CONTINUOUS
 10
6.3540556921
 20
204.5572595002
  0
VERTEX
  8
0
 62
7
  6
CONTINUOUS
 10
5.9686010279
 20
204.2845720678
  0
VERTEX
  8
0
 62
7
  6
CONTINUOUS
 10
5.6023960975
 20
203.9864767024
  0
VERTEX
  8
0
 62
7
  6
CONTINUOUS
 10
5.2571005332
 20
203.6643356951
  0
VERTEX
  8
0
 62
7
  6
CONTINUOUS
 10
4.9342910228
 20
203.3196051003
  0
VERTEX
  8
0
 62
7
  6
CONTINUOUS
 10
4.6354415427
 20
202.9538472727
  0
VERTEX
  8
0
 62
7
  6
CONTINUOUS
 10
4.3618999016
 20
202.5687319439
  0
VERTEX
  8
0
 62
7
  6
CONTINUOUS
 10
4.1149260283
 20
202.1659964788
  0
VERTEX
  8
0
 62
7
  6
CONTINUOUS
 10
3.8956472941
 20
201.7474686167
  0
VERTEX
  8
0
 62
7
  6
CONTINUOUS
 10
3.705054635
 20
201.3150515769
  0
VERTEX
  8
0
 62
7
  6
CONTINUOUS
 10
3.5440342937
 20
200.8707007981
  0
VERTEX
  8
0
 62
7
  6
CONTINUOUS
 10
3.4133099034
 20
200.4164354048
  0
VERTEX
  8
0
 62
7
  6
CONTINUOUS
 10
3.3134983475
 20
199.9543125865
  0
VERTEX
  8
0
 62
7
  6
CONTINUOUS
 10
3.2450592039
 20
199.4864300135
  0
VERTEX
  8
0
 62
7
  6
CONTINUOUS
 10
3.2083136424
 20
199.0149089072
  0
VERTEX
  8
0
 62
7
  6
CONTINUOUS
 10
3.2015191092
 20
198.70628253
  0
SEQEND
  0
LINE
  8
0
 62
7
  6
CONTINUOUS
 10
8.5060024162
 20
205.5007164307
 11
8.0520959015
 21
205.371102015
  0
POLYLINE
  8
0
 62
7
  6
CONTINUOUS
 66
1
 70
0
  0
VERTEX
  8
0
 62
7
  6
CONTINUOUS
 10
7.3549277518
 20
161.2866497671
  0
VERTEX
  8
0
 62
7
  6
CONTINUOUS
 10
7.477085296
 20
161.1692216057
  0
VERTEX
  8
0
 62
7
  6
CONTINUOUS
 10
7.6275998448
 20
161.0466171077
  0
VERTEX
  8
0
 62
7
  6
CONTINUOUS
 10
7.7678227092
 20
160.9498826845
  0
VERTEX
  8
0
 62
7
  6
CONTINUOUS
 10
7.8982381777
 20
160.8723015232
  0
VERTEX
  8
0
 62
7
  6
CONTINUOUS
 10
8.0196381522
 20
160.8091287053
  0
VERTEX
  8
0
 62
7
  6
CONTINUOUS
 10
8.1331438086
 20
160.756823506
  0
VERTEX
  8
0
 62
7
  6
CONTINUOUS
 10
8.2408842159
 20
160.7123928566
  0
VERTEX
  8
0
 62
7
  6
CONTINUOUS
 10
8.3441199397
 20
160.673947436
  0
VERTEX
  8
0
 62
7
  6
CONTINUOUS
 10
8.4449087529
 20
160.6397863443
  0
VERTEX
  8
0
 62
7
  6
CONTINUOUS
 10
8.5443527708
 20
160.6089047293
  0
VERTEX
  8
0
 62
7
  6
CONTINUOUS
 10
8.6442114932
 20
160.5803299889
  0
VERTEX
  8
0
 62
7
  6
CONTINUOUS
 10
8.7452378287
 20
160.5535617186
  0
VERTEX
  8
0
 62
7
  6
CONTINUOUS
 10
8.8486732626
 20
160.5280757356
  0
VERTEX
  8
0
 62
7
  6
CONTINUOUS
 10
8.9551155486
 20
160.5035953936
  0
VERTEX
  8
0
 62
7
  6
CONTINUOUS
 10
9.0654675064
 20
160.4798266123
  0
VERTEX
  8
0
 62
7
  6
CONTINUOUS
 10
9.1801918847
 20
160.4566149079
  0
VERTEX
  8
0
 62
7
  6
CONTINUOUS
 10
9.299923974
 20
160.4337969122
  0
VERTEX
  8
0
 62
7
  6
CONTINUOUS
 10
9.4250723601
 20
160.4112755906
  0
VERTEX
  8
0
 62
7
  6
CONTINUOUS
 10
9.556137935
 20
160.3889523873
  0
VERTEX
  8
0
 62
7
  6
CONTINUOUS
 10
9.6934719939
 20
160.3667672363
  0
VERTEX
  8
0
 62
7
  6
CONTINUOUS
 10
9.8374838866
 20
160.3446593729
  0
VERTEX
  8
0
 62
7
  6
CONTINUOUS
 10
9.9884775978
 20
160.3225916785
  0
VERTEX
  8
0
 62
7
  6
CONTINUOUS
 10
10.1467937831
 20
160.3005266781
  0
VERTEX
  8
0
 62
7
  6
CONTINUOUS
 10
10.3126990063
 20
160.2784415322
  0
VERTEX
  8
0
 62
7
  6
CONTINUOUS
 10
10.4864469989
 20
160.2563176965
  0
VERTEX
  8
0
 62
7
  6
CONTINUOUS
 10
10.668378206
 20
160.2341284272
  0
VERTEX
  8
0
 62
7
  6
CONTINUOUS
 10
10.858764213
 20
160.2118583859
  0
VERTEX
  8
0
 62
7
  6
CONTINUOUS
 10
11.058088285
 20
160.1894707504
  0
VERTEX
  8
0
 62
7
  6
CONTINUOUS
 10
11.2668121644
 20
160.1669362665
  0
VERTEX
  8
0
 62
7
  6
CONTINUOUS
 10
11.4854121425
 20
160.1442284116
  0
VERTEX
  8
0
 62
7
  6
CONTINUOUS
 10
11.7143996711
 20
160.1213210757
  0
VERTEX
  8
0
 62
7
  6
CONTINUOUS
 10
11.9542883404
 20
160.0981917554
  0
VERTEX
  8
0
 62
7
  6
CONTINUOUS
 10
12.205628843
 20
160.0748178659
  0
VERTEX
  8
0
 62
7
  6
CONTINUOUS
 10
12.4689835043
 20
160.0511792236
  0
VERTEX
  8
0
 62
7
  6
CONTINUOUS
 10
12.7449653059
 20
160.0272544813
  0
VERTEX
  8
0
 62
7
  6
CONTINUOUS
 10
13.0341471169
 20
160.0030289476
  0
VERTEX
  8
0
 62
7
  6
CONTINUOUS
 10
13.3371927126
 20
159.9784832128
  0
VERTEX
  8
0
 62
7
  6
CONTINUOUS
 10
13.6546031162
 20
159.9536135207
  0
VERTEX
  8
0
 62
7
  6
CONTINUOUS
 10
13.9869485805
 20
159.9284119598
  0
VERTEX
  8
0
 62
7
  6
CONTINUOUS
 10
14.3347760536
 20
159.9028739974
  0
VERTEX
  8
0
 62
7
  6
CONTINUOUS
 10
14.6986580051
 20
159.8769946508
  0
VERTEX
  8
0
 62
7
  6
CONTINUOUS
 10
15.0791776832
 20
159.8507696199
  0
VERTEX
  8
0
 62
7
  6
CONTINUOUS
 10
15.476940225
 20
159.8241945212
  0
VERTEX
  8
0
 62
7
  6
CONTINUOUS
 10
15.8925453186
 20
159.79726671
  0
VERTEX
  8
0
 62
7
  6
CONTINUOUS
 10
16.3266292068
 20
159.769982488
  0
VERTEX
  8
0
 62
7
  6
CONTINUOUS
 10
16.7797756921
 20
159.7423425541
  0
VERTEX
  8
0
 62
7
  6
CONTINUOUS
 10
17.2525975079
 20
159.7143465916
  0
VERTEX
  8
0
 62
7
  6
CONTINUOUS
 10
17.745702874
 20
159.6859954984
  0
VERTEX
  8
0
 62
7
  6
CONTINUOUS
 10
18.2597151079
 20
159.6572901985
  0
VERTEX
  8
0
 62
7
  6
CONTINUOUS
 10
18.7952649528
 20
159.6282320083
  0
VERTEX
  8
0
 62
7
  6
CONTINUOUS
 10
19.3529928882
 20
159.5988224477
  0
VERTEX
  8
0
 62
7
  6
CONTINUOUS
 10
19.9335487731
 20
159.5690633826
  0
VERTEX
  8
0
 62
7
  6
CONTINUOUS
 10
20.5375538588
 20
159.5389589027
  0
VERTEX
  8
0
 62
7
  6
CONTINUOUS
 10
21.1657979207
 20
159.5085056303
  0
VERTEX
  8
0
 62
7
  6
CONTINUOUS
 10
21.8189180837
 20
159.4777085516
  0
VERTEX
  8
0
 62
7
  6
CONTINUOUS
 10
22.4980942974
 20
159.4465485071
  0
VERTEX
  8
0
 62
7
  6
CONTINUOUS
 10
23.2043999593
 20
159.4150141749
  0
VERTEX
  8
0
 62
7
  6
CONTINUOUS
 10
23.9390596653
 20
159.3830900848
  0
VERTEX
  8
0
 62
7
  6
CONTINUOUS
 10
24.7033220561
 20
159.3507624591
  0
VERTEX
  8
0
 62
7
  6
CONTINUOUS
 10
25.4984872967
 20
159.3180181852
  0
VERTEX
  8
0
 62
7
  6
CONTINUOUS
 10
26.3259106514
 20
159.2848447939
  0
VERTEX
  8
0
 62
7
  6
CONTINUOUS
 10
27.1870006461
 20
159.2512305754
  0
VERTEX
  8
0
 62
7
  6
CONTINUOUS
 10
28.083218657
 20
159.2171644459
  0
VERTEX
  8
0
 62
7
  6
CONTINUOUS
 10
29.0160818135
 20
159.1826360839
  0
VERTEX
  8
0
 62
7
  6
CONTINUOUS
 10
29.9871664184
 20
159.1476359903
  0
VERTEX
  8
0
 62
7
  6
CONTINUOUS
 10
30.9981061455
 20
159.1121555621
  0
VERTEX
  8
0
 62
7
  6
CONTINUOUS
 10
32.0505894552
 20
159.0761869573
  0
VERTEX
  8
0
 62
7
  6
CONTINUOUS
 10
33.146364472
 20
159.0397232727
  0
VERTEX
  8
0
 62
7
  6
CONTINUOUS
 10
34.2875486722
 20
159.0027488414
  0
VERTEX
  8
0
 62
7
  6
CONTINUOUS
 10
35.4067011023
 20
158.9674188316
  0
SEQEND
  0
LINE
  8
0
 62
7
  6
CONTINUOUS
 10
184.5156795683
 20
572.3414217295
 11
184.5156795683
 21
572.9612877095
  0
LINE
  8
0
 62
7
  6
CONTINUOUS
 10
185.0156795683
 20
572.7581055458
 11
185.0156795683
 21
572.0871576461
  0
POLYLINE
  8
0
 62
7
  6
CONTINUOUS
 66
1
 70
0
  0
VERTEX
  8
0
 62
7
  6
CONTINUOUS
 10
333.144070266
 20
158.9674188439
  0
VERTEX
  8
0
 62
7
  6
CONTINUOUS
 10
334.2570870989
 20
159.0025527572
  0
VERTEX
  8
0
 62
7
  6
CONTINUOUS
 10
335.3983152309
 20
159.0395233299
  0
VERTEX
  8
0
 62
7
  6
CONTINUOUS
 10
336.4941419517
 20
159.0759833328
  0
VERTEX
  8
0
 62
7
  6
CONTINUOUS
 10
337.5466833747
 20
159.1119484176
  0
VERTEX
  8
0
 62
7
  6
CONTINUOUS
 10
338.5576865569
 20
159.1474254793
  0
VERTEX
  8
0
 62
7
  6
CONTINUOUS
 10
339.5288391605
 20
159.1824223471
  0
VERTEX
  8
0
 62
7
  6
CONTINUOUS
 10
340.461773836
 20
159.2169476216
  0
VERTEX
  8
0
 62
7
  6
CONTINUOUS
 10
341.3580654285
 20
159.2510107946
  0
VERTEX
  8
0
 62
7
  6
CONTINUOUS
 10
342.219230678
 20
159.2846221504
  0
VERTEX
  8
0
 62
7
  6
CONTINUOUS
 10
343.0467332102
 20
159.3177927048
  0
VERTEX
  8
0
 62
7
  6
CONTINUOUS
 10
343.8419803148
 20
159.3505341836
  0
VERTEX
  8
0
 62
7
  6
CONTINUOUS
 10
344.6063249981
 20
159.3828590681
  0
VERTEX
  8
0
 62
7
  6
CONTINUOUS
 10
345.3410660107
 20
159.4147804662
  0
VERTEX
  8
0
 62
7
  6
CONTINUOUS
 10
346.0474535735
 20
159.4463120976
  0
VERTEX
  8
0
 62
7
  6
CONTINUOUS
 10
346.7267116486
 20
159.477469417
  0
VERTEX
  8
0
 62
7
  6
CONTINUOUS
 10
347.3799128487
 20
159.5082637572
  0
VERTEX
  8
0
 62
7
  6
CONTINUOUS
 10
348.0082379993
 20
159.5387142008
  0
VERTEX
  8
0
 62
7
  6
CONTINUOUS
 10
348.6123263627
 20
159.5688158345
  0
VERTEX
  8
0
 62
7
  6
CONTINUOUS
 10
349.1929670373
 20
159.5985721412
  0
VERTEX
  8
0
 62
7
  6
CONTINUOUS
 10
349.7507802019
 20
159.627979089
  0
VERTEX
  8
0
 62
7
  6
CONTINUOUS
 10
350.2864169344
 20
159.6570348109
  0
VERTEX
  8
0
 62
7
  6
CONTINUOUS
 10
350.8005203136
 20
159.6857378253
  0
VERTEX
  8
0
 62
7
  6
CONTINUOUS
 10
351.2937217685
 20
159.7140868978
  0
VERTEX
  8
0
 62
7
  6
CONTINUOUS
 10
351.7666433699
 20
159.7420811504
  0
VERTEX
  8
0
 62
7
  6
CONTINUOUS
 10
352.2198941603
 20
159.769719685
  0
VERTEX
  8
0
 62
7
  6
CONTINUOUS
 10
352.6540894696
 20
159.7970028454
  0
VERTEX
  8
0
 62
7
  6
CONTINUOUS
 10
353.0698136518
 20
159.8239300364
  0
VERTEX
  8
0
 62
7
  6
CONTINUOUS
 10
353.4676999917
 20
159.8505049424
  0
VERTEX
  8
0
 62
7
  6
CONTINUOUS
 10
353.8483464055
 20
159.8767302584
  0
VERTEX
  8
0
 62
7
  6
CONTINUOUS
 10
354.2123550044
 20
159.9026102931
  0
VERTEX
  8
0
 62
7
  6
CONTINUOUS
 10
354.5603080965
 20
159.9281492452
  0
VERTEX
  8
0
 62
7
  6
CONTINUOUS
 10
354.8927786689
 20
159.9533520337
  0
VERTEX
  8
0
 62
7
  6
CONTINUOUS
 10
355.210313907
 20
159.9782231104
  0
VERTEX
  8
0
 62
7
  6
CONTINUOUS
 10
355.513484111
 20
160.0027703314
  0
VERTEX
  8
0
 62
7
  6
CONTINUOUS
 10
355.8027890284
 20
160.0269974716
  0
VERTEX
  8
0
 62
7
  6
CONTINUOUS
 10
356.0788903763
 20
160.0509237993
  0
VERTEX
  8
0
 62
7
  6
CONTINUOUS
 10
356.3423597052
 20
160.0745638485
  0
VERTEX
  8
0
 62
7
  6
CONTINUOUS
 10
356.5938103593
 20
160.0979389462
  0
VERTEX
  8
0
 62
7
  6
CONTINUOUS
 10
356.8338044694
 20
160.1210692027
  0
VERTEX
  8
0
 62
7
  6
CONTINUOUS
 10
357.0628932135
 20
160.1439771993
  0
VERTEX
  8
0
 62
7
  6
CONTINUOUS
 10
357.2815903703
 20
160.1666854918
  0
VERTEX
  8
0
 62
7
  6
CONTINUOUS
 10
357.4904053756
 20
160.1892200277
  0
VERTEX
  8
0
 62
7
  6
CONTINUOUS
 10
357.6898138247
 20
160.2116071405
  0
VERTEX
  8
0
 62
7
  6
CONTINUOUS
 10
357.8802787272
 20
160.2338760437
  0
VERTEX
  8
0
 62
7
  6
CONTINUOUS
 10
358.0622834185
 20
160.2560633766
  0
VERTEX
  8
0
 62
7
  6
CONTINUOUS
 10
358.2361017921
 20
160.2781846878
  0
VERTEX
  8
0
 62
7
  6
CONTINUOUS
 10
358.4020755842
 20
160.3002669566
  0
VERTEX
  8
0
 62
7
  6
CONTINUOUS
 10
358.5604571589
 20
160.3223286333
  0
VERTEX
  8
0
 62
7
  6
CONTINUOUS
 10
358.7115132539
 20
160.3443926636
  0
VERTEX
  8
0
 62
7
  6
CONTINUOUS
 10
358.8555817848
 20
160.3664961001
  0
VERTEX
  8
0
 62
7
  6
CONTINUOUS
 10
358.9929656011
 20
160.3886756295
  0
VERTEX
  8
0
 62
7
  6
CONTINUOUS
 10
359.1240740974
 20
160.4109916756
  0
VERTEX
  8
0
 62
7
  6
CONTINUOUS
 10
359.249258226
 20
160.4335038466
  0
VERTEX
  8
0
 62
7
  6
CONTINUOUS
 10
359.369018649
 20
160.4563101635
  0
VERTEX
  8
0
 62
7
  6
CONTINUOUS
 10
359.483762478
 20
160.479506784
  0
VERTEX
  8
0
 62
7
  6
CONTINUOUS
 10
359.5941277302
 20
160.5032569873
  0
VERTEX
  8
0
 62
7
  6
CONTINUOUS
 10
359.7005782713
 20
160.5277150737
  0
VERTEX
  8
0
 62
7
  6
CONTINUOUS
 10
359.8040160774
 20
160.553174344
  0
VERTEX
  8
0
 62
7
  6
CONTINUOUS
 10
359.9050400072
 20
160.5799110776
  0
VERTEX
  8
0
 62
7
  6
CONTINUOUS
 10
360.0048865599
 20
160.6084469921
  0
VERTEX
  8
0
 62
7
  6
CONTINUOUS
 10
360.1043067729
 20
160.6392803619
  0
VERTEX
  8
0
 62
7
  6
CONTINUOUS
 10
360.2050540056
 20
160.6733788124
  0
VERTEX
  8
0
 62
7
  6
CONTINUOUS
 10
360.3082269425
 20
160.7117417912
  0
VERTEX
  8
0
 62
7
  6
CONTINUOUS
 10
360.415877658
 20
160.7560611677
  0
VERTEX
  8
0
 62
7
  6
CONTINUOUS
 10
360.5292660477
 20
160.808216498
  0
VERTEX
  8
0
 62
7
  6
CONTINUOUS
 10
360.650514611
 20
160.8711826635
  0
VERTEX
  8
0
 62
7
  6
CONTINUOUS
 10
360.780742034
 20
160.9484764366
  0
VERTEX
  8
0
 62
7
  6
CONTINUOUS
 10
360.9207625284
 20
161.0448236362
  0
VERTEX
  8
0
 62
7
  6
CONTINUOUS
 10
361.0710888991
 20
161.1669152291
  0
VERTEX
  8
0
 62
7
  6
CONTINUOUS
 10
361.1958271363
 20
161.2866334609
  0
SEQEND
  0
POLYLINE
  8
0
 62
7
  6
CONTINUOUS
 66
1
 70
0
  0
VERTEX
  8
0
 62
7
  6
CONTINUOUS
 10
35.4066982251
 20
158.9674189242
  0
VERTEX
  8
0
 62
7
  6
CONTINUOUS
 10
37.7229655818
 20
158.8977841568
  0
VERTEX
  8
0
 62
7
  6
CONTINUOUS
 10
40.2499404992
 20
158.8270598966
  0
VERTEX
  8
0
 62
7
  6
CONTINUOUS
 10
42.910832853
 20
158.7576284093
  0
VERTEX
  8
0
 62
7
  6
CONTINUOUS
 10
45.7032221073
 20
158.6895487067
  0
VERTEX
  8
0
 62
7
  6
CONTINUOUS
 10
48.6245103313
 20
158.6228791225
  0
VERTEX
  8
0
 62
7
  6
CONTINUOUS
 10
51.6719809505
 20
158.557678953
  0
VERTEX
  8
0
 62
7
  6
CONTINUOUS
 10
54.8428009751
 20
158.4940055308
  0
VERTEX
  8
0
 62
7
  6
CONTINUOUS
 10
58.1340260381
 20
158.4319157407
  0
VERTEX
  8
0
 62
7
  6
CONTINUOUS
 10
61.542597918
 20
158.3714644596
  0
VERTEX
  8
0
 62
7
  6
CONTINUOUS
 10
65.0653714834
 20
158.3127065133
  0
VERTEX
  8
0
 62
7
  6
CONTINUOUS
 10
68.6990850577
 20
158.2556942688
  0
VERTEX
  8
0
 62
7
  6
CONTINUOUS
 10
72.4403862857
 20
158.200479361
  0
VERTEX
  8
0
 62
7
  6
CONTINUOUS
 10
76.2858273503
 20
158.1471115036
  0
VERTEX
  8
0
 62
7
  6
CONTINUOUS
 10
80.2318617907
 20
158.095639204
  0
VERTEX
  8
0
 62
7
  6
CONTINUOUS
 10
84.2748733473
 20
158.0461091059
  0
VERTEX
  8
0
 62
7
  6
CONTINUOUS
 10
88.411093822
 20
157.9985666733
  0
VERTEX
  8
0
 62
7
  6
CONTINUOUS
 10
92.6367012396
 20
157.9530557839
  0
VERTEX
  8
0
 62
7
  6
CONTINUOUS
 10
96.9477512444
 20
157.9096181244
  0
VERTEX
  8
0
 62
7
  6
CONTINUOUS
 10
101.340242623
 20
157.8682943537
  0
VERTEX
  8
0
 62
7
  6
CONTINUOUS
 10
105.8100844737
 20
157.8291222958
  0
VERTEX
  8
0
 62
7
  6
CONTINUOUS
 10
110.3531276857
 20
157.7921384316
  0
VERTEX
  8
0
 62
7
  6
CONTINUOUS
 10
114.96513525
 20
157.7573769189
  0
VERTEX
  8
0
 62
7
  6
CONTINUOUS
 10
119.6418216014
 20
157.7248700771
  0
VERTEX
  8
0
 62
7
  6
CONTINUOUS
 10
124.3788078203
 20
157.6946483843
  0
VERTEX
  8
0
 62
7
  6
CONTINUOUS
 10
129.1716622739
 20
157.6667395232
  0
VERTEX
  8
0
 62
7
  6
CONTINUOUS
 10
134.0159048611
 20
157.6411700284
  0
VERTEX
  8
0
 62
7
  6
CONTINUOUS
 10
138.9070004618
 20
157.6179633762
  0
VERTEX
  8
0
 62
7
  6
CONTINUOUS
 10
143.8403750751
 20
157.5971412911
  0
VERTEX
  8
0
 62
7
  6
CONTINUOUS
 10
148.8114090926
 20
157.5787232395
  0
VERTEX
  8
0
 62
7
  6
CONTINUOUS
 10
153.8154648573
 20
157.5627258172
  0
VERTEX
  8
0
 62
7
  6
CONTINUOUS
 10
158.8478702758
 20
157.5491642888
  0
VERTEX
  8
0
 62
7
  6
CONTINUOUS
 10
163.9039390599
 20
157.5380510112
  0
VERTEX
  8
0
 62
7
  6
CONTINUOUS
 10
168.9789596792
 20
157.5293961743
  0
VERTEX
  8
0
 62
7
  6
CONTINUOUS
 10
174.0682045689
 20
157.5232076657
  0
VERTEX
  8
0
 62
7
  6
CONTINUOUS
 10
179.1669327854
 20
157.5194913892
  0
SEQEND
  0
POLYLINE
  8
0
 62
7
  6
CONTINUOUS
 66
1
 70
0
  0
VERTEX
  8
0
 62
7
  6
CONTINUOUS
 10
184.2703942841
 20
157.5182506275
  0
VERTEX
  8
0
 62
7
  6
CONTINUOUS
 10
189.373835294
 20
157.5194865329
  0
VERTEX
  8
0
 62
7
  6
CONTINUOUS
 10
194.4725009645
 20
157.523197893
  0
VERTEX
  8
0
 62
7
  6
CONTINUOUS
 10
199.5616415916
 20
157.5293812058
  0
VERTEX
  8
0
 62
7
  6
CONTINUOUS
 10
204.6365145203
 20
157.5380310733
  0
VERTEX
  8
0
 62
7
  6
CONTINUOUS
 10
209.6923943492
 20
157.5491387036
  0
VERTEX
  8
0
 62
7
  6
CONTINUOUS
 10
214.7245692866
 20
157.5626941894
  0
VERTEX
  8
0
 62
7
  6
CONTINUOUS
 10
219.7283510186
 20
157.5786851498
  0
VERTEX
  8
0
 62
7
  6
CONTINUOUS
 10
224.6990758026
 20
157.5970965598
  0
VERTEX
  8
0
 62
7
  6
CONTINUOUS
 10
229.6321121121
 20
157.6179114003
  0
VERTEX
  8
0
 62
7
  6
CONTINUOUS
 10
234.5228638092
 20
157.6411098104
  0
VERTEX
  8
0
 62
7
  6
CONTINUOUS
 10
239.3667652706
 20
157.6666711152
  0
VERTEX
  8
0
 62
7
  6
CONTINUOUS
 10
244.1593045271
 20
157.69457103
  0
VERTEX
  8
0
 62
7
  6
CONTINUOUS
 10
248.8960107109
 20
157.7247838675
  0
VERTEX
  8
0
 62
7
  6
CONTINUOUS
 10
253.5724691687
 20
157.7572816359
  0
VERTEX
  8
0
 62
7
  6
CONTINUOUS
 10
258.1843174496
 20
157.792033996
  0
VERTEX
  8
0
 62
7
  6
CONTINUOUS
 10
262.7272696724
 20
157.8290089768
  0
VERTEX
  8
0
 62
7
  6
CONTINUOUS
 10
267.19709726
 20
157.8681723834
  0
VERTEX
  8
0
 62
7
  6
CONTINUOUS
 10
271.5896470886
 20
157.9094881009
  0
VERTEX
  8
0
 62
7
  6
CONTINUOUS
 10
275.9008370745
 20
157.9529179327
  0
VERTEX
  8
0
 62
7
  6
CONTINUOUS
 10
280.1266601216
 20
157.9984217388
  0
VERTEX
  8
0
 62
7
  6
CONTINUOUS
 10
284.2631724578
 20
158.0459580881
  0
VERTEX
  8
0
 62
7
  6
CONTINUOUS
 10
288.3065475271
 20
158.0954829142
  0
VERTEX
  8
0
 62
7
  6
CONTINUOUS
 10
292.2530145821
 20
158.1469510074
  0
VERTEX
  8
0
 62
7
  6
CONTINUOUS
 10
296.0989378736
 20
158.2003155513
  0
VERTEX
  8
0
 62
7
  6
CONTINUOUS
 10
299.8407567946
 20
158.2555279804
  0
VERTEX
  8
0
 62
7
  6
CONTINUOUS
 10
303.4750073076
 20
158.3125384764
  0
VERTEX
  8
0
 62
7
  6
CONTINUOUS
 10
306.9983238823
 20
158.3712952353
  0
VERTEX
  8
0
 62
7
  6
CONTINUOUS
 10
310.4074413326
 20
158.4317453167
  0
VERTEX
  8
0
 62
7
  6
CONTINUOUS
 10
313.6991840387
 20
158.4938346203
  0
VERTEX
  8
0
 62
7
  6
CONTINUOUS
 10
316.8705033785
 20
158.5575071889
  0
VERTEX
  8
0
 62
7
  6
CONTINUOUS
 10
319.9184380338
 20
158.622706304
  0
VERTEX
  8
0
 62
7
  6
CONTINUOUS
 10
322.8401512316
 20
158.6893742932
  0
VERTEX
  8
0
 62
7
  6
CONTINUOUS
 10
325.6329243284
 20
158.7574515238
  0
VERTEX
  8
0
 62
7
  6
CONTINUOUS
 10
328.2941572466
 20
158.8268793738
  0
VERTEX
  8
0
 62
7
  6
CONTINUOUS
 10
330.8214120434
 20
158.8975989045
  0
VERTEX
  8
0
 62
7
  6
CONTINUOUS
 10
333.1440730807
 20
158.9674189296
  0
SEQEND
  0
LINE
  8
0
 62
7
  6
CONTINUOUS
 10
240.8124992067
 20
157.4863778527
 11
239.3338647673
 21
157.4863778527
  0
LINE
  8
0
 62
7
  6
CONTINUOUS
 10
187.1015765603
 20
157.4863778527
 11
181.3891054086
 21
157.4863778527
  0
LINE
  8
0
 62
7
  6
CONTINUOUS
 10
132.4793099754
 20
157.4863778527
 11
127.7382719475
 21
157.4863778527
  0
LINE
  8
0
 62
7
  6
CONTINUOUS
 10
179.1669327854
 20
157.5194913892
 11
184.2703942841
 21
157.5182506275
  0
POLYLINE
  8
0
 62
7
  6
CONTINUOUS
 66
1
 70
0
  0
VERTEX
  8
0
 62
7
  6
CONTINUOUS
 10
10.1983889069
 20
205.7085423844
  0
VERTEX
  8
0
 62
7
  6
CONTINUOUS
 10
9.9055098311
 20
205.7024097673
  0
VERTEX
  8
0
 62
7
  6
CONTINUOUS
 10
9.4348203284
 20
205.666745075
  0
VERTEX
  8
0
 62
7
  6
CONTINUOUS
 10
8.9676108301
 20
205.5994102703
  0
VERTEX
  8
0
 62
7
  6
CONTINUOUS
 10
8.5060024162
 20
205.5007164307
  0
SEQEND
  0
LINE
  8
0
 62
7
  6
CONTINUOUS
 10
10.1983889069
 20
205.7085429092
 11
358.352309273
 21
205.7085429092
  0
POLYLINE
  8
0
 62
7
  6
CONTINUOUS
 66
1
 70
0
  0
VERTEX
  8
0
 62
7
  6
CONTINUOUS
 10
365.320296296
 20
174.5971557757
  0
VERTEX
  8
0
 62
7
  6
CONTINUOUS
 10
365.3956101899
 20
174.643251863
  0
VERTEX
  8
0
 62
7
  6
CONTINUOUS
 10
365.7827469341
 20
174.9179161056
  0
VERTEX
  8
0
 62
7
  6
CONTINUOUS
 10
366.1503797445
 20
175.2181850708
  0
VERTEX
  8
0
 62
7
  6
CONTINUOUS
 10
366.4968152908
 20
175.5426815192
  0
VERTEX
  8
0
 62
7
  6
CONTINUOUS
 10
366.820468173
 20
175.8899065791
  0
VERTEX
  8
0
 62
7
  6
CONTINUOUS
 10
367.1198394485
 20
176.2582732553
  0
VERTEX
  8
0
 62
7
  6
CONTINUOUS
 10
367.3935584274
 20
176.6460833426
  0
VERTEX
  8
0
 62
7
  6
CONTINUOUS
 10
367.6403755309
 20
177.0515467474
  0
VERTEX
  8
0
 62
7
  6
CONTINUOUS
 10
367.8591401937
 20
177.4728113026
  0
VERTEX
  8
0
 62
7
  6
CONTINUOUS
 10
368.0488533156
 20
177.9079346921
  0
VERTEX
  8
0
 62
7
  6
CONTINUOUS
 10
368.2086310422
 20
178.3549199637
  0
VERTEX
  8
0
 62
7
  6
CONTINUOUS
 10
368.337765562
 20
178.8117038686
  0
VERTEX
  8
0
 62
7
  6
CONTINUOUS
 10
368.435638498
 20
179.2761937315
  0
VERTEX
  8
0
 62
7
  6
CONTINUOUS
 10
368.5018053068
 20
179.7462522433
  0
VERTEX
  8
0
 62
7
  6
CONTINUOUS
 10
368.5359623031
 20
180.2197179489
  0
VERTEX
  8
0
 62
7
  6
CONTINUOUS
 10
368.5410431366
 20
180.4863778527
  0
SEQEND
  0
POLYLINE
  8
0
 62
7
  6
CONTINUOUS
 66
1
 70
0
  0
VERTEX
  8
0
 62
7
  6
CONTINUOUS
 10
185.0156795683
 20
572.1365919026
  0
VERTEX
  8
0
 62
7
  6
CONTINUOUS
 10
185.0193937158
 20
572.1173242903
  0
VERTEX
  8
0
 62
7
  6
CONTINUOUS
 10
185.0309686295
 20
572.0971810593
  0
VERTEX
  8
0
 62
7
  6
CONTINUOUS
 10
185.0490074569
 20
572.0782855343
  0
SEQEND
  0
POLYLINE
  8
0
 62
7
  6
CONTINUOUS
 66
1
 70
0
  0
VERTEX
  8
0
 62
7
  6
CONTINUOUS
 10
364.5495058249
 20
164.768648373
  0
VERTEX
  8
0
 62
7
  6
CONTINUOUS
 10
364.6238967038
 20
164.8503224756
  0
VERTEX
  8
0
 62
7
  6
CONTINUOUS
 10
364.7106383678
 20
164.95826177
  0
VERTEX
  8
0
 62
7
  6
CONTINUOUS
 10
364.7866661181
 20
165.0671093029
  0
VERTEX
  8
0
 62
7
  6
CONTINUOUS
 10
364.8520724146
 20
165.1748169547
  0
VERTEX
  8
0
 62
7
  6
CONTINUOUS
 10
364.9072718753
 20
165.2794090892
  0
VERTEX
  8
0
 62
7
  6
CONTINUOUS
 10
364.9529049152
 20
165.3789410384
  0
VERTEX
  8
0
 62
7
  6
CONTINUOUS
 10
364.9899001368
 20
165.4718119272
  0
VERTEX
  8
0
 62
7
  6
CONTINUOUS
 10
365.0190556366
 20
165.5558731163
  0
VERTEX
  8
0
 62
7
  6
CONTINUOUS
 10
365.0420471364
 20
165.6317211071
  0
VERTEX
  8
0
 62
7
  6
CONTINUOUS
 10
365.0599789757
 20
165.6990708976
  0
VERTEX
  8
0
 62
7
  6
CONTINUOUS
 10
365.0741947746
 20
165.7594920003
  0
VERTEX
  8
0
 62
7
  6
CONTINUOUS
 10
365.0856765775
 20
165.8144055876
  0
VERTEX
  8
0
 62
7
  6
CONTINUOUS
 10
365.0950756443
 20
165.8646986606
  0
VERTEX
  8
0
 62
7
  6
CONTINUOUS
 10
365.1029556802
 20
165.9115982092
  0
VERTEX
  8
0
 62
7
  6
CONTINUOUS
 10
365.1096578065
 20
165.9557049968
  0
SEQEND
  0
LINE
  8
0
 62
7
  6
CONTINUOUS
 10
364.5495057097
 20
164.7686484839
 11
361.1952661857
 21
161.2860495068
  0
POLYLINE
  8
0
 62
7
  6
CONTINUOUS
 66
1
 70
0
  0
VERTEX
  8
0
 62
7
  6
CONTINUOUS
 10
360.51277479
 20
205.3665405019
  0
VERTEX
  8
0
 62
7
  6
CONTINUOUS
 10
360.0591594076
 20
205.4971094307
  0
VERTEX
  8
0
 62
7
  6
CONTINUOUS
 10
359.5977719553
 20
205.5967844856
  0
VERTEX
  8
0
 62
7
  6
CONTINUOUS
 10
359.1307078828
 20
205.6651082351
  0
VERTEX
  8
0
 62
7
  6
CONTINUOUS
 10
358.6600870293
 20
205.7017675379
  0
VERTEX
  8
0
 62
7
  6
CONTINUOUS
 10
358.352309273
 20
205.7085426073
  0
SEQEND
  0
POLYLINE
  8
0
 62
7
  6
CONTINUOUS
 66
1
 70
0
  0
VERTEX
  8
0
 62
7
  6
CONTINUOUS
 10
339.2340624318
 20
-263.9753335234
  0
VERTEX
  8
0
 62
7
  6
CONTINUOUS
 10
339.1844320881
 20
-246.9953723433
  0
VERTEX
  8
0
 62
7
  6
CONTINUOUS
 10
339.2928159794
 20
-229.7831556849
  0
VERTEX
  8
0
 62
7
  6
CONTINUOUS
 10
339.551214523
 20
-212.8182470547
  0
VERTEX
  8
0
 62
7
  6
CONTINUOUS
 10
339.9539613798
 20
-196.0488884679
  0
VERTEX
  8
0
 62
7
  6
CONTINUOUS
 10
340.4998794704
 20
-179.4519370825
  0
VERTEX
  8
0
 62
7
  6
CONTINUOUS
 10
341.1883518644
 20
-163.0743698986
  0
VERTEX
  8
0
 62
7
  6
CONTINUOUS
 10
342.0264192787
 20
-146.8368056133
  0
VERTEX
  8
0
 62
7
  6
CONTINUOUS
 10
343.0022772126
 20
-131.0148506421
  0
SEQEND
  0
POLYLINE
  8
0
 62
7
  6
CONTINUOUS
 66
1
 70
0
  0
VERTEX
  8
0
 62
7
  6
CONTINUOUS
 10
368.6528102238
 20
157.4872749322
  0
VERTEX
  8
0
 62
7
  6
CONTINUOUS
 10
368.5802326617
 20
158.291161593
  0
VERTEX
  8
0
 62
7
  6
CONTINUOUS
 10
368.491102737
 20
159.2420631166
  0
VERTEX
  8
0
 62
7
  6
CONTINUOUS
 10
368.3992039051
 20
160.1846021949
  0
VERTEX
  8
0
 62
7
  6
CONTINUOUS
 10
368.3046747622
 20
161.117906676
  0
VERTEX
  8
0
 62
7
  6
CONTINUOUS
 10
368.2075415818
 20
162.04228621
  0
VERTEX
  8
0
 62
7
  6
CONTINUOUS
 10
368.125475093
 20
162.7982895371
  0
SEQEND
  0
POLYLINE
  8
0
 62
7
  6
CONTINUOUS
 66
1
 70
0
  0
VERTEX
  8
0
 62
7
  6
CONTINUOUS
 10
365.3492506137
 20
198.7062825305
  0
VERTEX
  8
0
 62
7
  6
CONTINUOUS
 10
365.3430920049
 20
199.0001840869
  0
VERTEX
  8
0
 62
7
  6
CONTINUOUS
 10
365.3073295291
 20
199.471851411
  0
VERTEX
  8
0
 62
7
  6
CONTINUOUS
 10
365.2398592692
 20
199.9399295243
  0
VERTEX
  8
0
 62
7
  6
CONTINUOUS
 10
365.1410021825
 20
200.402298557
  0
VERTEX
  8
0
 62
7
  6
CONTINUOUS
 10
365.011216616
 20
200.8568610196
  0
VERTEX
  8
0
 62
7
  6
CONTINUOUS
 10
364.8511089764
 20
201.3015590839
  0
VERTEX
  8
0
 62
7
  6
CONTINUOUS
 10
364.6614175554
 20
201.7343781781
  0
VERTEX
  8
0
 62
7
  6
CONTINUOUS
 10
364.4430038656
 20
202.1533543704
  0
VERTEX
  8
0
 62
7
  6
CONTINUOUS
 10
364.1968709102
 20
202.5565914802
  0
VERTEX
  8
0
 62
7
  6
CONTINUOUS
 10
363.9241458969
 20
202.942262665
  0
VERTEX
  8
0
 62
7
  6
CONTINUOUS
 10
363.6260683232
 20
203.3086202
  0
VERTEX
  8
0
 62
7
  6
CONTINUOUS
 10
363.3039999329
 20
203.6540050455
  0
VERTEX
  8
0
 62
7
  6
CONTINUOUS
 10
362.9594008409
 20
203.9768459391
  0
VERTEX
  8
0
 62
7
  6
CONTINUOUS
 10
362.5938460355
 20
204.275686315
  0
VERTEX
  8
0
 62
7
  6
CONTINUOUS
 10
362.2089935822
 20
204.5491657264
  0
VERTEX
  8
0
 62
7
  6
CONTINUOUS
 10
361.8065966804
 20
204.7960481383
  0
VERTEX
  8
0
 62
7
  6
CONTINUOUS
 10
361.3884828502
 20
205.0152107764
  0
VERTEX
  8
0
 62
7
  6
CONTINUOUS
 10
360.9565549433
 20
205.2056639063
  0
VERTEX
  8
0
 62
7
  6
CONTINUOUS
 10
360.51277479
 20
205.3665405019
  0
SEQEND
  0
LINE
  8
0
 62
7
  6
CONTINUOUS
 10
365.3492538895
 20
182.153466355
 11
365.3492538895
 21
198.7062825297
  0
LINE
  8
0
 62
7
  6
CONTINUOUS
 10
368.5410431366
 20
180.4863778527
 11
368.5410431366
 21
509.4863778527
  0
LINE
  8
0
 62
7
  6
CONTINUOUS
 10
371.5411216701
 20
515.4863778527
 11
371.5411216701
 21
543.1762913832
  0
POLYLINE
  8
0
 62
7
  6
CONTINUOUS
 66
1
 70
0
  0
VERTEX
  8
0
 62
7
  6
CONTINUOUS
 10
369.6121450916
 20
114.8682138894
  0
VERTEX
  8
0
 62
7
  6
CONTINUOUS
 10
369.7741105932
 20
122.6195143861
  0
VERTEX
  8
0
 62
7
  6
CONTINUOUS
 10
369.8146434432
 20
130.3215880522
  0
VERTEX
  8
0
 62
7
  6
CONTINUOUS
 10
369.7202487027
 20
137.6747037298
  0
VERTEX
  8
0
 62
7
  6
CONTINUOUS
 10
369.4915886909
 20
144.6438257617
  0
VERTEX
  8
0
 62
7
  6
CONTINUOUS
 10
369.1326167515
 20
151.2538961126
  0
VERTEX
  8
0
 62
7
  6
CONTINUOUS
 10
368.65281115
 20
157.4872650161
  0
SEQEND
  0
POLYLINE
  8
0
 62
7
  6
CONTINUOUS
 66
1
 70
0
  0
VERTEX
  8
0
 62
7
  6
CONTINUOUS
 10
367.099472873
 20
66.3208407731
  0
VERTEX
  8
0
 62
7
  6
CONTINUOUS
 10
367.4694434508
 20
73.6014083392
  0
VERTEX
  8
0
 62
7
  6
CONTINUOUS
 10
367.847420578
 20
82.1304181424
  0
VERTEX
  8
0
 62
7
  6
CONTINUOUS
 10
368.2084331089
 20
90.4569280253
  0
VERTEX
  8
0
 62
7
  6
CONTINUOUS
 10
368.5873307701
 20
98.3635359746
  0
VERTEX
  8
0
 62
7
  6
CONTINUOUS
 10
369.0373583927
 20
106.3259136831
  0
VERTEX
  8
0
 62
7
  6
CONTINUOUS
 10
369.600543288
 20
114.6394645366
  0
SEQEND
  0
LINE
  8
0
 62
7
  6
CONTINUOUS
 10
369.6005397711
 20
114.6394170157
 11
369.6121450918
 21
114.8682138894
  0
POLYLINE
  8
0
 62
7
  6
CONTINUOUS
 66
1
 70
0
  0
VERTEX
  8
0
 62
7
  6
CONTINUOUS
 10
343.0022774244
 20
-131.0148473894
  0
VERTEX
  8
0
 62
7
  6
CONTINUOUS
 10
343.0292344739
 20
-130.6127626233
  0
VERTEX
  8
0
 62
7
  6
CONTINUOUS
 10
343.0549981508
 20
-130.2301941162
  0
VERTEX
  8
0
 62
7
  6
CONTINUOUS
 10
343.0806667507
 20
-129.8506858611
  0
VERTEX
  8
0
 62
7
  6
CONTINUOUS
 10
343.1062532739
 20
-129.4740100161
  0
VERTEX
  8
0
 62
7
  6
CONTINUOUS
 10
343.1317692697
 20
-129.0999640562
  0
VERTEX
  8
0
 62
7
  6
CONTINUOUS
 10
343.1572135246
 20
-128.7285343637
  0
VERTEX
  8
0
 62
7
  6
CONTINUOUS
 10
343.1825850651
 20
-128.359705286
  0
VERTEX
  8
0
 62
7
  6
CONTINUOUS
 10
343.2078920618
 20
-127.9933286064
  0
VERTEX
  8
0
 62
7
  6
CONTINUOUS
 10
343.2331440517
 20
-127.6292395511
  0
VERTEX
  8
0
 62
7
  6
CONTINUOUS
 10
343.2583387682
 20
-127.2674453812
  0
VERTEX
  8
0
 62
7
  6
CONTINUOUS
 10
343.283480013
 20
-126.9078663911
  0
VERTEX
  8
0
 62
7
  6
CONTINUOUS
 10
343.3085579237
 20
-126.5506184884
  0
VERTEX
  8
0
 62
7
  6
CONTINUOUS
 10
343.3335655792
 20
-126.1957745467
  0
VERTEX
  8
0
 62
7
  6
CONTINUOUS
 10
343.358495253
 20
-125.8434176787
  0
VERTEX
  8
0
 62
7
  6
CONTINUOUS
 10
343.383339211
 20
-125.4936298137
  0
VERTEX
  8
0
 62
7
  6
CONTINUOUS
 10
343.4080899372
 20
-125.1464889946
  0
VERTEX
  8
0
 62
7
  6
CONTINUOUS
 10
343.4327398351
 20
-124.8020735503
  0
VERTEX
  8
0
 62
7
  6
CONTINUOUS
 10
343.4572813683
 20
-124.4604597546
  0
VERTEX
  8
0
 62
7
  6
CONTINUOUS
 10
343.4817067648
 20
-124.1217259853
  0
VERTEX
  8
0
 62
7
  6
CONTINUOUS
 10
343.5060083309
 20
-123.7859484291
  0
VERTEX
  8
0
 62
7
  6
CONTINUOUS
 10
343.530178292
 20
-123.4532038294
  0
VERTEX
  8
0
 62
7
  6
CONTINUOUS
 10
343.5542090447
 20
-123.1235658316
  0
VERTEX
  8
0
 62
7
  6
CONTINUOUS
 10
343.5780927377
 20
-122.7971104183
  0
VERTEX
  8
0
 62
7
  6
CONTINUOUS
 10
343.6018215919
 20
-122.473911552
  0
VERTEX
  8
0
 62
7
  6
CONTINUOUS
 10
343.6253876091
 20
-122.1540454968
  0
VERTEX
  8
0
 62
7
  6
CONTINUOUS
 10
343.6487829331
 20
-121.8375862923
  0
VERTEX
  8
0
 62
7
  6
CONTINUOUS
 10
343.6719989034
 20
-121.5246179422
  0
VERTEX
  8
0
 62
7
  6
CONTINUOUS
 10
343.6950291953
 20
-121.2151920812
  0
VERTEX
  8
0
 62
7
  6
CONTINUOUS
 10
343.7178605573
 20
-120.9094523837
  0
VERTEX
  8
0
 62
7
  6
CONTINUOUS
 10
343.7405044217
 20
-120.6072118796
  0
VERTEX
  8
0
 62
7
  6
CONTINUOUS
 10
343.762962433
 20
-120.3084164311
  0
VERTEX
  8
0
 62
7
  6
CONTINUOUS
 10
343.7852516004
 20
-120.0128097844
  0
VERTEX
  8
0
 62
7
  6
CONTINUOUS
 10
343.8073853804
 20
-119.7201859542
  0
VERTEX
  8
0
 62
7
  6
CONTINUOUS
 10
343.8293775437
 20
-119.4303375949
  0
VERTEX
  8
0
 62
7
  6
CONTINUOUS
 10
343.851243175
 20
-119.143042883
  0
VERTEX
  8
0
 62
7
  6
CONTINUOUS
 10
343.8729930981
 20
-118.8581384472
  0
VERTEX
  8
0
 62
7
  6
CONTINUOUS
 10
343.8946459556
 20
-118.5753609736
  0
VERTEX
  8
0
 62
7
  6
CONTINUOUS
 10
343.9161946876
 20
-118.2947847525
  0
VERTEX
  8
0
 62
7
  6
CONTINUOUS
 10
343.9376368954
 20
-118.016422879
  0
VERTEX
  8
0
 62
7
  6
CONTINUOUS
 10
343.9589774208
 20
-117.7401946647
  0
VERTEX
  8
0
 62
7
  6
CONTINUOUS
 10
343.9802188314
 20
-117.4660497265
  0
VERTEX
  8
0
 62
7
  6
CONTINUOUS
 10
344.0013657922
 20
-117.1939116671
  0
VERTEX
  8
0
 62
7
  6
CONTINUOUS
 10
344.022422607
 20
-116.9237096492
  0
VERTEX
  8
0
 62
7
  6
CONTINUOUS
 10
344.043393287
 20
-116.6553773184
  0
VERTEX
  8
0
 62
7
  6
CONTINUOUS
 10
344.0642820659
 20
-116.3888461851
  0
VERTEX
  8
0
 62
7
  6
CONTINUOUS
 10
344.0850929274
 20
-116.1240517297
  0
VERTEX
  8
0
 62
7
  6
CONTINUOUS
 10
344.1058301464
 20
-115.8609267332
  0
VERTEX
  8
0
 62
7
  6
CONTINUOUS
 10
344.1264977693
 20
-115.5994076168
  0
VERTEX
  8
0
 62
7
  6
CONTINUOUS
 10
344.1471000461
 20
-115.3394288937
  0
VERTEX
  8
0
 62
7
  6
CONTINUOUS
 10
344.1676410604
 20
-115.0809280495
  0
VERTEX
  8
0
 62
7
  6
CONTINUOUS
 10
344.1881251066
 20
-114.82384063
  0
VERTEX
  8
0
 62
7
  6
CONTINUOUS
 10
344.2085562731
 20
-114.5681053645
  0
VERTEX
  8
0
 62
7
  6
CONTINUOUS
 10
344.2289388185
 20
-114.3136594416
  0
VERTEX
  8
0
 62
7
  6
CONTINUOUS
 10
344.2492767999
 20
-114.0604434014
  0
VERTEX
  8
0
 62
7
  6
CONTINUOUS
 10
344.2695744255
 20
-113.808396646
  0
VERTEX
  8
0
 62
7
  6
CONTINUOUS
 10
344.2898357407
 20
-113.5574611432
  0
VERTEX
  8
0
 62
7
  6
CONTINUOUS
 10
344.310064951
 20
-113.3075774156
  0
VERTEX
  8
0
 62
7
  6
CONTINUOUS
 10
344.3302662763
 20
-113.0586864838
  0
VERTEX
  8
0
 62
7
  6
CONTINUOUS
 10
344.3504443369
 20
-112.8107251709
  0
VERTEX
  8
0
 62
7
  6
CONTINUOUS
 10
344.3706035601
 20
-112.5636332214
  0
VERTEX
  8
0
 62
7
  6
CONTINUOUS
 10
344.390748028
 20
-112.3173552529
  0
VERTEX
  8
0
 62
7
  6
CONTINUOUS
 10
344.41088156
 20
-112.0718396456
  0
VERTEX
  8
0
 62
7
  6
CONTINUOUS
 10
344.4310081787
 20
-111.8270328053
  0
VERTEX
  8
0
 62
7
  6
CONTINUOUS
 10
344.4511324133
 20
-111.58287559
  0
VERTEX
  8
0
 62
7
  6
CONTINUOUS
 10
344.4712592137
 20
-111.3393043166
  0
VERTEX
  8
0
 62
7
  6
CONTINUOUS
 10
344.4913929873
 20
-111.0962625322
  0
VERTEX
  8
0
 62
7
  6
CONTINUOUS
 10
344.5115380876
 20
-110.8536950118
  0
VERTEX
  8
0
 62
7
  6
CONTINUOUS
 10
344.5316988418
 20
-110.6115471492
  0
VERTEX
  8
0
 62
7
  6
CONTINUOUS
 10
344.5518911436
 20
-110.3696267967
  0
VERTEX
  8
0
 62
7
  6
CONTINUOUS
 10
344.5721564307
 20
-110.1274388783
  0
VERTEX
  8
0
 62
7
  6
CONTINUOUS
 10
344.5924402664
 20
-109.8856342524
  0
VERTEX
  8
0
 62
7
  6
CONTINUOUS
 10
344.6126436311
 20
-109.6453871081
  0
VERTEX
  8
0
 62
7
  6
CONTINUOUS
 10
344.6328904976
 20
-109.4052184852
  0
VERTEX
  8
0
 62
7
  6
CONTINUOUS
 10
344.6531820484
 20
-109.1651146565
  0
VERTEX
  8
0
 62
7
  6
CONTINUOUS
 10
344.6730211175
 20
-108.9309370842
  0
VERTEX
  8
0
 62
7
  6
CONTINUOUS
 10
344.6922628645
 20
-108.7043474302
  0
VERTEX
  8
0
 62
7
  6
CONTINUOUS
 10
344.7112261979
 20
-108.4815520785
  0
SEQEND
  0
POLYLINE
  8
0
 62
7
  6
CONTINUOUS
 66
1
 70
0
  0
VERTEX
  8
0
 62
7
  6
CONTINUOUS
 10
365.1479749056
 20
166.3283148941
  0
VERTEX
  8
0
 62
7
  6
CONTINUOUS
 10
365.1513336642
 20
166.3745132904
  0
VERTEX
  8
0
 62
7
  6
CONTINUOUS
 10
365.1546362771
 20
166.4225614363
  0
VERTEX
  8
0
 62
7
  6
CONTINUOUS
 10
365.1578931772
 20
166.4725740103
  0
VERTEX
  8
0
 62
7
  6
CONTINUOUS
 10
365.161113704
 20
166.5246708947
  0
VERTEX
  8
0
 62
7
  6
CONTINUOUS
 10
365.1643073496
 20
166.5789973936
  0
VERTEX
  8
0
 62
7
  6
CONTINUOUS
 10
365.1674817197
 20
166.6356899491
  0
VERTEX
  8
0
 62
7
  6
CONTINUOUS
 10
365.1706443409
 20
166.6949041378
  0
VERTEX
  8
0
 62
7
  6
CONTINUOUS
 10
365.1738020448
 20
166.7568047114
  0
VERTEX
  8
0
 62
7
  6
CONTINUOUS
 10
365.1769596044
 20
166.8215360662
  0
VERTEX
  8
0
 62
7
  6
CONTINUOUS
 10
365.1801218323
 20
166.8892604898
  0
VERTEX
  8
0
 62
7
  6
CONTINUOUS
 10
365.1832921455
 20
166.9601269372
  0
VERTEX
  8
0
 62
7
  6
CONTINUOUS
 10
365.1864739436
 20
167.034297216
  0
VERTEX
  8
0
 62
7
  6
CONTINUOUS
 10
365.1896698237
 20
167.1119280237
  0
VERTEX
  8
0
 62
7
  6
CONTINUOUS
 10
365.1928824849
 20
167.1931925125
  0
VERTEX
  8
0
 62
7
  6
CONTINUOUS
 10
365.1961132297
 20
167.2782418354
  0
VERTEX
  8
0
 62
7
  6
CONTINUOUS
 10
365.199364353
 20
167.3672657437
  0
VERTEX
  8
0
 62
7
  6
CONTINUOUS
 10
365.2026341651
 20
167.4603536112
  0
VERTEX
  8
0
 62
7
  6
CONTINUOUS
 10
365.2059220635
 20
167.5576244689
  0
VERTEX
  8
0
 62
7
  6
CONTINUOUS
 10
365.2092262457
 20
167.6591640127
  0
VERTEX
  8
0
 62
7
  6
CONTINUOUS
 10
365.2125450829
 20
167.7650631609
  0
VERTEX
  8
0
 62
7
  6
CONTINUOUS
 10
365.2158767441
 20
167.8754067647
  0
VERTEX
  8
0
 62
7
  6
CONTINUOUS
 10
365.2192193495
 20
167.9902780863
  0
VERTEX
  8
0
 62
7
  6
CONTINUOUS
 10
365.2225708185
 20
168.1097528932
  0
VERTEX
  8
0
 62
7
  6
CONTINUOUS
 10
365.2259289551
 20
168.2338979628
  0
VERTEX
  8
0
 62
7
  6
CONTINUOUS
 10
365.2292918531
 20
168.3627878949
  0
VERTEX
  8
0
 62
7
  6
CONTINUOUS
 10
365.2326572639
 20
168.4964838346
  0
VERTEX
  8
0
 62
7
  6
CONTINUOUS
 10
365.2360235545
 20
168.6350715852
  0
VERTEX
  8
0
 62
7
  6
CONTINUOUS
 10
365.2393888203
 20
168.7786280154
  0
VERTEX
  8
0
 62
7
  6
CONTINUOUS
 10
365.2427511069
 20
168.9272290146
  0
VERTEX
  8
0
 62
7
  6
CONTINUOUS
 10
365.2461084024
 20
169.0809454485
  0
VERTEX
  8
0
 62
7
  6
CONTINUOUS
 10
365.2494586158
 20
169.2398441391
  0
VERTEX
  8
0
 62
7
  6
CONTINUOUS
 10
365.2527995866
 20
169.4039898411
  0
VERTEX
  8
0
 62
7
  6
CONTINUOUS
 10
365.2561290744
 20
169.5734423546
  0
VERTEX
  8
0
 62
7
  6
CONTINUOUS
 10
365.2594447853
 20
169.7482582591
  0
VERTEX
  8
0
 62
7
  6
CONTINUOUS
 10
365.2627443339
 20
169.928490506
  0
VERTEX
  8
0
 62
7
  6
CONTINUOUS
 10
365.2660252745
 20
170.1141893194
  0
VERTEX
  8
0
 62
7
  6
CONTINUOUS
 10
365.2692851219
 20
170.3053974742
  0
VERTEX
  8
0
 62
7
  6
CONTINUOUS
 10
365.2725213351
 20
170.5021519876
  0
VERTEX
  8
0
 62
7
  6
CONTINUOUS
 10
365.2757313664
 20
170.7044903278
  0
VERTEX
  8
0
 62
7
  6
CONTINUOUS
 10
365.2789123111
 20
170.912427827
  0
VERTEX
  8
0
 62
7
  6
CONTINUOUS
 10
365.2820622749
 20
171.126048212
  0
VERTEX
  8
0
 62
7
  6
CONTINUOUS
 10
365.285178785
 20
171.3453978029
  0
VERTEX
  8
0
 62
7
  6
CONTINUOUS
 10
365.2882602126
 20
171.5705849548
  0
VERTEX
  8
0
 62
7
  6
CONTINUOUS
 10
365.2913045355
 20
171.8017021135
  0
VERTEX
  8
0
 62
7
  6
CONTINUOUS
 10
365.2943096387
 20
172.0388420297
  0
VERTEX
  8
0
 62
7
  6
CONTINUOUS
 10
365.2972732608
 20
172.2820960423
  0
VERTEX
  8
0
 62
7
  6
CONTINUOUS
 10
365.3001929671
 20
172.5315550032
  0
VERTEX
  8
0
 62
7
  6
CONTINUOUS
 10
365.3030661775
 20
172.7873081181
  0
VERTEX
  8
0
 62
7
  6
CONTINUOUS
 10
365.3058901854
 20
173.0494405789
  0
VERTEX
  8
0
 62
7
  6
CONTINUOUS
 10
365.3086621122
 20
173.318035962
  0
VERTEX
  8
0
 62
7
  6
CONTINUOUS
 10
365.3113789405
 20
173.5931736485
  0
VERTEX
  8
0
 62
7
  6
CONTINUOUS
 10
365.3140374935
 20
173.8749280455
  0
VERTEX
  8
0
 62
7
  6
CONTINUOUS
 10
365.3166344365
 20
174.1633750118
  0
VERTEX
  8
0
 62
7
  6
CONTINUOUS
 10
365.3191662069
 20
174.4585777586
  0
VERTEX
  8
0
 62
7
  6
CONTINUOUS
 10
365.3216293312
 20
174.7606202076
  0
VERTEX
  8
0
 62
7
  6
CONTINUOUS
 10
365.3240200287
 20
175.0695732211
  0
VERTEX
  8
0
 62
7
  6
CONTINUOUS
 10
365.3263344019
 20
175.3855119813
  0
VERTEX
  8
0
 62
7
  6
CONTINUOUS
 10
365.3285683961
 20
175.7085007834
  0
VERTEX
  8
0
 62
7
  6
CONTINUOUS
 10
365.3307177168
 20
176.0385977036
  0
VERTEX
  8
0
 62
7
  6
CONTINUOUS
 10
365.3327778065
 20
176.375854489
  0
VERTEX
  8
0
 62
7
  6
CONTINUOUS
 10
365.3347439059
 20
176.7203134752
  0
VERTEX
  8
0
 62
7
  6
CONTINUOUS
 10
365.3366110929
 20
177.0720059414
  0
VERTEX
  8
0
 62
7
  6
CONTINUOUS
 10
365.338374191
 20
177.4309532534
  0
VERTEX
  8
0
 62
7
  6
CONTINUOUS
 10
365.3400278592
 20
177.7971642704
  0
VERTEX
  8
0
 62
7
  6
CONTINUOUS
 10
365.3415665203
 20
178.1706355293
  0
VERTEX
  8
0
 62
7
  6
CONTINUOUS
 10
365.3429843183
 20
178.55135101
  0
VERTEX
  8
0
 62
7
  6
CONTINUOUS
 10
365.3442752471
 20
178.9392786671
  0
VERTEX
  8
0
 62
7
  6
CONTINUOUS
 10
365.3454330856
 20
179.3343703269
  0
VERTEX
  8
0
 62
7
  6
CONTINUOUS
 10
365.3464513323
 20
179.7365613284
  0
VERTEX
  8
0
 62
7
  6
CONTINUOUS
 10
365.3473233917
 20
180.1457675661
  0
VERTEX
  8
0
 62
7
  6
CONTINUOUS
 10
365.3480424766
 20
180.5618847779
  0
VERTEX
  8
0
 62
7
  6
CONTINUOUS
 10
365.3486014967
 20
180.9847885385
  0
VERTEX
  8
0
 62
7
  6
CONTINUOUS
 10
365.3489931438
 20
181.414331906
  0
VERTEX
  8
0
 62
7
  6
CONTINUOUS
 10
365.349210075
 20
181.8503974386
  0
VERTEX
  8
0
 62
7
  6
CONTINUOUS
 10
365.3492538863
 20
182.153466355
  0
SEQEND
  0
LINE
  8
0
 62
7
  6
CONTINUOUS
 10
369.6005649793
 20
114.6397593026
 11
369.6005684833
 21
114.6398068378
  0
LINE
  8
0
 62
7
  6
CONTINUOUS
 10
344.7112261979
 20
-108.4815520785
 11
344.7487623151
 21
-108.0420466301
  0
POLYLINE
  8
0
 62
7
  6
CONTINUOUS
 66
1
 70
0
  0
VERTEX
  8
0
 62
7
  6
CONTINUOUS
 10
344.7487623151
 20
-108.0420466301
  0
VERTEX
  8
0
 62
7
  6
CONTINUOUS
 10
344.7861101136
 20
-107.6067035536
  0
VERTEX
  8
0
 62
7
  6
CONTINUOUS
 10
344.8050574558
 20
-107.3865841874
  0
VERTEX
  8
0
 62
7
  6
CONTINUOUS
 10
344.8241638451
 20
-107.1651181911
  0
VERTEX
  8
0
 62
7
  6
CONTINUOUS
 10
344.8434978799
 20
-106.9415224775
  0
VERTEX
  8
0
 62
7
  6
CONTINUOUS
 10
344.863056029
 20
-106.7158529534
  0
VERTEX
  8
0
 62
7
  6
CONTINUOUS
 10
344.8827528669
 20
-106.4891072362
  0
VERTEX
  8
0
 62
7
  6
CONTINUOUS
 10
344.9026128204
 20
-106.2610124005
  0
VERTEX
  8
0
 62
7
  6
CONTINUOUS
 10
344.9224920716
 20
-106.0332262419
  0
VERTEX
  8
0
 62
7
  6
CONTINUOUS
 10
344.9423800569
 20
-105.805866028
  0
VERTEX
  8
0
 62
7
  6
CONTINUOUS
 10
344.9621558207
 20
-105.580308664
  0
VERTEX
  8
0
 62
7
  6
CONTINUOUS
 10
344.9817369511
 20
-105.3574789372
  0
SEQEND
  0
LINE
  8
0
 62
7
  6
CONTINUOUS
 10
344.9817369511
 20
-105.3574789372
 11
345.019989774
 21
-104.9236158797
  0
LINE
  8
0
 62
7
  6
CONTINUOUS
 10
345.019989774
 20
-104.9236158797
 11
345.0566030686
 21
-104.5101256323
  0
POLYLINE
  8
0
 62
7
  6
CONTINUOUS
 66
1
 70
0
  0
VERTEX
  8
0
 62
7
  6
CONTINUOUS
 10
345.0566030686
 20
-104.5101256323
  0
VERTEX
  8
0
 62
7
  6
CONTINUOUS
 10
345.0894718662
 20
-104.1403896783
  0
VERTEX
  8
0
 62
7
  6
CONTINUOUS
 10
345.1040737747
 20
-103.9765765447
  0
SEQEND
  0
LINE
  8
0
 62
7
  6
CONTINUOUS
 10
345.1040737747
 20
-103.9765765447
 11
345.1304540174
 21
-103.6813105851
  0
POLYLINE
  8
0
 62
7
  6
CONTINUOUS
 66
1
 70
0
  0
VERTEX
  8
0
 62
7
  6
CONTINUOUS
 10
345.1304540174
 20
-103.6813105851
  0
VERTEX
  8
0
 62
7
  6
CONTINUOUS
 10
345.1522943563
 20
-103.43751999
  0
VERTEX
  8
0
 62
7
  6
CONTINUOUS
 10
345.1582640347
 20
-103.3709885989
  0
SEQEND
  0
LINE
  8
0
 62
7
  6
CONTINUOUS
 10
345.1582640347
 20
-103.3709885989
 11
345.1693634334
 21
-103.2474026735
  0
LINE
  8
0
 62
7
  6
CONTINUOUS
 10
345.1693634334
 20
-103.2474026735
 11
345.1880115565
 21
-103.0401121592
  0
LINE
  8
0
 62
7
  6
CONTINUOUS
 10
345.1880115565
 20
-103.0401121592
 11
345.2176470802
 21
-102.7115734543
  0
LINE
  8
0
 62
7
  6
CONTINUOUS
 10
345.2176470802
 20
-102.7115734543
 11
345.2519252443
 21
-102.3329039267
  0
LINE
  8
0
 62
7
  6
CONTINUOUS
 10
345.2884028632
 20
-101.9320211176
 11
345.3048987707
 21
-101.7502380384
  0
POLYLINE
  8
0
 62
7
  6
CONTINUOUS
 66
1
 70
0
  0
VERTEX
  8
0
 62
7
  6
CONTINUOUS
 10
345.2519252443
 20
-102.3329039267
  0
VERTEX
  8
0
 62
7
  6
CONTINUOUS
 10
345.2800843283
 20
-102.0232711841
  0
VERTEX
  8
0
 62
7
  6
CONTINUOUS
 10
345.2884028632
 20
-101.9320211176
  0
SEQEND
  0
LINE
  8
0
 62
7
  6
CONTINUOUS
 10
345.3288603999
 20
-101.4881695194
 11
345.3511360827
 21
-101.2449082938
  0
LINE
  8
0
 62
7
  6
CONTINUOUS
 10
345.3048987707
 20
-101.7502380384
 11
345.3288603999
 21
-101.4881695194
  0
LINE
  8
0
 62
7
  6
CONTINUOUS
 10
345.3511360827
 20
-101.2449082938
 11
345.3794289405
 21
-100.9367378764
  0
LINE
  8
0
 62
7
  6
CONTINUOUS
 10
345.3794289405
 20
-100.9367378764
 11
345.4128280144
 21
-100.5741228829
  0
POLYLINE
  8
0
 62
7
  6
CONTINUOUS
 66
1
 70
0
  0
VERTEX
  8
0
 62
7
  6
CONTINUOUS
 10
345.4128280144
 20
-100.5741228829
  0
VERTEX
  8
0
 62
7
  6
CONTINUOUS
 10
345.4536014056
 20
-100.1331534982
  0
VERTEX
  8
0
 62
7
  6
CONTINUOUS
 10
345.4757373767
 20
-99.8945275516
  0
VERTEX
  8
0
 62
7
  6
CONTINUOUS
 10
345.4982987394
 20
-99.6518776131
  0
VERTEX
  8
0
 62
7
  6
CONTINUOUS
 10
345.5206075707
 20
-99.4124948813
  0
VERTEX
  8
0
 62
7
  6
CONTINUOUS
 10
345.5420442593
 20
-99.1829856641
  0
SEQEND
  0
LINE
  8
0
 62
7
  6
CONTINUOUS
 10
345.5420442593
 20
-99.1829856641
 11
345.5799898074
 21
-98.7779831734
  0
LINE
  8
0
 62
7
  6
CONTINUOUS
 10
345.5799898074
 20
-98.7779831734
 11
345.6088548063
 21
-98.470973004
  0
LINE
  8
0
 62
7
  6
CONTINUOUS
 10
345.6088548063
 20
-98.470973004
 11
345.6280114641
 21
-98.2677305752
  0
POLYLINE
  8
0
 62
7
  6
CONTINUOUS
 66
1
 70
0
  0
VERTEX
  8
0
 62
7
  6
CONTINUOUS
 10
345.6280114641
 20
-98.2677305752
  0
VERTEX
  8
0
 62
7
  6
CONTINUOUS
 10
345.6396291548
 20
-98.144669863
  0
VERTEX
  8
0
 62
7
  6
CONTINUOUS
 10
345.6438505861
 20
-98.0999910384
  0
VERTEX
  8
0
 62
7
  6
CONTINUOUS
 10
345.647887182
 20
-98.057286734
  0
SEQEND
  0
LINE
  8
0
 62
7
  6
CONTINUOUS
 10
345.647887182
 20
-98.057286734
 11
345.6582985322
 21
-97.9472238996
  0
LINE
  8
0
 62
7
  6
CONTINUOUS
 10
345.6582985322
 20
-97.9472238996
 11
345.6776365323
 21
-97.7431091465
  0
LINE
  8
0
 62
7
  6
CONTINUOUS
 10
345.6776365323
 20
-97.7431091465
 11
345.707067082
 21
-97.4332521631
  0
LINE
  8
0
 62
7
  6
CONTINUOUS
 10
345.707067082
 20
-97.4332521631
 11
345.7375343232
 21
-97.1134693144
  0
POLYLINE
  8
0
 62
7
  6
CONTINUOUS
 66
1
 70
0
  0
VERTEX
  8
0
 62
7
  6
CONTINUOUS
 10
345.7375343232
 20
-97.1134693144
  0
VERTEX
  8
0
 62
7
  6
CONTINUOUS
 10
345.7686885644
 20
-96.7875130426
  0
VERTEX
  8
0
 62
7
  6
CONTINUOUS
 10
345.7844768118
 20
-96.6227248415
  0
SEQEND
  0
LINE
  8
0
 62
7
  6
CONTINUOUS
 10
345.7844768118
 20
-96.6227248415
 11
345.8164294018
 21
-96.2900399523
  0
LINE
  8
0
 62
7
  6
CONTINUOUS
 10
345.8164294018
 20
-96.2900399523
 11
345.8486948463
 21
-95.9552011121
  0
LINE
  8
0
 62
7
  6
CONTINUOUS
 10
345.8486948463
 20
-95.9552011121
 11
345.8812305365
 21
-95.6186736041
  0
LINE
  8
0
 62
7
  6
CONTINUOUS
 10
345.8812305365
 20
-95.6186736041
 11
345.9138555741
 21
-95.2823404162
  0
LINE
  8
0
 62
7
  6
CONTINUOUS
 10
345.9138555741
 20
-95.2823404162
 11
345.9465010618
 21
-94.9469093536
  0
LINE
  8
0
 62
7
  6
CONTINUOUS
 10
345.9465010618
 20
-94.9469093536
 11
345.9791186733
 21
-94.6128708555
  0
LINE
  8
0
 62
7
  6
CONTINUOUS
 10
345.9791186733
 20
-94.6128708555
 11
346.0116474017
 21
-94.2808356238
  0
LINE
  8
0
 62
7
  6
CONTINUOUS
 10
346.0116474017
 20
-94.2808356238
 11
346.0441204154
 21
-93.9504518287
  0
LINE
  8
0
 62
7
  6
CONTINUOUS
 10
346.0441204154
 20
-93.9504518287
 11
346.0767381664
 21
-93.6196778239
  0
LINE
  8
0
 62
7
  6
CONTINUOUS
 10
346.0767381664
 20
-93.6196778239
 11
346.1094269632
 21
-93.2892641392
  0
LINE
  8
0
 62
7
  6
CONTINUOUS
 10
346.1094269632
 20
-93.2892641392
 11
346.1423117738
 21
-92.9579547825
  0
LINE
  8
0
 62
7
  6
CONTINUOUS
 10
346.1423117738
 20
-92.9579547825
 11
346.1758404299
 21
-92.621272029
  0
LINE
  8
0
 62
7
  6
CONTINUOUS
 10
346.1758404299
 20
-92.621272029
 11
346.2097967603
 21
-92.28142969
  0
LINE
  8
0
 62
7
  6
CONTINUOUS
 10
346.2097967603
 20
-92.28142969
 11
346.2438723528
 21
-91.941534837
  0
LINE
  8
0
 62
7
  6
CONTINUOUS
 10
346.2438723528
 20
-91.941534837
 11
346.2787339877
 21
-91.5949747177
  0
LINE
  8
0
 62
7
  6
CONTINUOUS
 10
346.2787339877
 20
-91.5949747177
 11
346.3148342937
 21
-91.2373446186
  0
LINE
  8
0
 62
7
  6
CONTINUOUS
 10
346.3148342937
 20
-91.2373446186
 11
346.3518126352
 21
-90.8723191884
  0
LINE
  8
0
 62
7
  6
CONTINUOUS
 10
346.3518126352
 20
-90.8723191884
 11
346.3892608219
 21
-90.5039889711
  0
LINE
  8
0
 62
7
  6
CONTINUOUS
 10
346.3892608219
 20
-90.5039889711
 11
346.4272368022
 21
-90.1318281612
  0
LINE
  8
0
 62
7
  6
CONTINUOUS
 10
346.4272368022
 20
-90.1318281612
 11
346.4657353463
 21
-89.755933673
  0
LINE
  8
0
 62
7
  6
CONTINUOUS
 10
346.4657353463
 20
-89.755933673
 11
346.5047138876
 21
-89.376763687
  0
LINE
  8
0
 62
7
  6
CONTINUOUS
 10
346.5047138876
 20
-89.376763687
 11
346.5442203122
 21
-88.9938977387
  0
LINE
  8
0
 62
7
  6
CONTINUOUS
 10
346.5442203122
 20
-88.9938977387
 11
346.5842077872
 21
-88.6078312421
  0
LINE
  8
0
 62
7
  6
CONTINUOUS
 10
346.5842077872
 20
-88.6078312421
 11
346.6246444784
 21
-88.2189106647
  0
LINE
  8
0
 62
7
  6
CONTINUOUS
 10
346.6246444784
 20
-88.2189106647
 11
346.6656012046
 21
-87.8264963193
  0
LINE
  8
0
 62
7
  6
CONTINUOUS
 10
346.6656012046
 20
-87.8264963193
 11
346.7069858872
 21
-87.4315083602
  0
LINE
  8
0
 62
7
  6
CONTINUOUS
 10
346.7069858872
 20
-87.4315083602
 11
346.7487914612
 21
-87.0340478544
  0
LINE
  8
0
 62
7
  6
CONTINUOUS
 10
346.7487914612
 20
-87.0340478544
 11
346.7857241348
 21
-86.6841968148
  0
POLYLINE
  8
0
 62
7
  6
CONTINUOUS
 66
1
 70
0
  0
VERTEX
  8
0
 62
7
  6
CONTINUOUS
 10
346.7533026066
 20
-86.6808780778
  0
VERTEX
  8
0
 62
7
  6
CONTINUOUS
 10
346.8345095672
 20
-85.9280288472
  0
VERTEX
  8
0
 62
7
  6
CONTINUOUS
 10
346.9210064465
 20
-85.1363659672
  0
VERTEX
  8
0
 62
7
  6
CONTINUOUS
 10
347.0124346988
 20
-84.3092927161
  0
VERTEX
  8
0
 62
7
  6
CONTINUOUS
 10
347.1100895137
 20
-83.4369849604
  0
VERTEX
  8
0
 62
7
  6
CONTINUOUS
 10
347.2150474364
 20
-82.5112205752
  0
VERTEX
  8
0
 62
7
  6
CONTINUOUS
 10
347.3277124998
 20
-81.5306356902
  0
VERTEX
  8
0
 62
7
  6
CONTINUOUS
 10
347.4483822836
 20
-80.4943537023
  0
VERTEX
  8
0
 62
7
  6
CONTINUOUS
 10
347.5785390464
 20
-79.3924014564
  0
VERTEX
  8
0
 62
7
  6
CONTINUOUS
 10
347.7193991674
 20
-78.2166902758
  0
VERTEX
  8
0
 62
7
  6
CONTINUOUS
 10
347.8722425367
 20
-76.9602594757
  0
VERTEX
  8
0
 62
7
  6
CONTINUOUS
 10
348.0385353194
 20
-75.6140265852
  0
VERTEX
  8
0
 62
7
  6
CONTINUOUS
 10
348.2191740104
 20
-74.1752901336
  0
VERTEX
  8
0
 62
7
  6
CONTINUOUS
 10
348.4172079009
 20
-72.6243520613
  0
VERTEX
  8
0
 62
7
  6
CONTINUOUS
 10
348.6279018204
 20
-71.0014377462
  0
VERTEX
  8
0
 62
7
  6
CONTINUOUS
 10
348.8487655894
 20
-69.330046206
  0
VERTEX
  8
0
 62
7
  6
CONTINUOUS
 10
349.0757175508
 20
-67.6400809057
  0
VERTEX
  8
0
 62
7
  6
CONTINUOUS
 10
349.3042048501
 20
-65.9666615515
  0
VERTEX
  8
0
 62
7
  6
CONTINUOUS
 10
349.5324977515
 20
-64.3194749294
  0
VERTEX
  8
0
 62
7
  6
CONTINUOUS
 10
349.7579619575
 20
-62.7162426265
  0
VERTEX
  8
0
 62
7
  6
CONTINUOUS
 10
349.9783197052
 20
-61.1704221543
  0
VERTEX
  8
0
 62
7
  6
CONTINUOUS
 10
350.1896020196
 20
-59.7079330956
  0
VERTEX
  8
0
 62
7
  6
CONTINUOUS
 10
350.3938967227
 20
-58.3119321214
  0
VERTEX
  8
0
 62
7
  6
CONTINUOUS
 10
350.5922225098
 20
-56.9733394703
  0
VERTEX
  8
0
 62
7
  6
CONTINUOUS
 10
350.7839438597
 20
-55.6947343291
  0
VERTEX
  8
0
 62
7
  6
CONTINUOUS
 10
350.9663716313
 20
-54.4916326033
  0
VERTEX
  8
0
 62
7
  6
CONTINUOUS
 10
351.1467047222
 20
-53.316507945
  0
VERTEX
  8
0
 62
7
  6
CONTINUOUS
 10
351.3295799353
 20
-52.1373169305
  0
VERTEX
  8
0
 62
7
  6
CONTINUOUS
 10
351.5205083398
 20
-50.9189024748
  0
VERTEX
  8
0
 62
7
  6
CONTINUOUS
 10
351.7306426069
 20
-49.5886741511
  0
VERTEX
  8
0
 62
7
  6
CONTINUOUS
 10
351.9481907282
 20
-48.2212781723
  0
SEQEND
  0
POLYLINE
  8
0
 62
7
  6
CONTINUOUS
 66
1
 70
0
  0
VERTEX
  8
0
 62
7
  6
CONTINUOUS
 10
365.1096578065
 20
165.9557049968
  0
VERTEX
  8
0
 62
7
  6
CONTINUOUS
 10
365.1154733972
 20
165.9977653153
  0
VERTEX
  8
0
 62
7
  6
CONTINUOUS
 10
365.1206193556
 20
166.0384238941
  0
VERTEX
  8
0
 62
7
  6
CONTINUOUS
 10
365.1252746827
 20
166.0783882301
  0
VERTEX
  8
0
 62
7
  6
CONTINUOUS
 10
365.1295552217
 20
166.1181192202
  0
VERTEX
  8
0
 62
7
  6
CONTINUOUS
 10
365.1335685323
 20
166.1582223938
  0
VERTEX
  8
0
 62
7
  6
CONTINUOUS
 10
365.1373702484
 20
166.1989663688
  0
VERTEX
  8
0
 62
7
  6
CONTINUOUS
 10
365.1410178469
 20
166.2407521268
  0
VERTEX
  8
0
 62
7
  6
CONTINUOUS
 10
365.1445420951
 20
166.2837764424
  0
VERTEX
  8
0
 62
7
  6
CONTINUOUS
 10
365.1479749056
 20
166.3283148941
  0
SEQEND
  0
LINE
  8
0
 62
7
  6
CONTINUOUS
 10
212.0296626344
 20
564.8649847823
 11
213.3361239361
 21
561.2755118564
  0
POLYLINE
  8
0
 62
7
  6
CONTINUOUS
 66
1
 70
0
  0
VERTEX
  8
0
 62
7
  6
CONTINUOUS
 10
368.1254566887
 20
162.7983302873
  0
VERTEX
  8
0
 62
7
  6
CONTINUOUS
 10
368.0713391208
 20
163.2207464315
  0
VERTEX
  8
0
 62
7
  6
CONTINUOUS
 10
367.9704441672
 20
163.808119751
  0
VERTEX
  8
0
 62
7
  6
CONTINUOUS
 10
367.8405093795
 20
164.3896611581
  0
VERTEX
  8
0
 62
7
  6
CONTINUOUS
 10
367.681885135
 20
164.9639726166
  0
VERTEX
  8
0
 62
7
  6
CONTINUOUS
 10
367.4949279368
 20
165.5296493068
  0
VERTEX
  8
0
 62
7
  6
CONTINUOUS
 10
367.280099386
 20
166.0853220153
  0
VERTEX
  8
0
 62
7
  6
CONTINUOUS
 10
367.0379347743
 20
166.6296428236
  0
VERTEX
  8
0
 62
7
  6
CONTINUOUS
 10
366.7690011878
 20
167.1612816859
  0
VERTEX
  8
0
 62
7
  6
CONTINUOUS
 10
366.4739909816
 20
167.6789716685
  0
VERTEX
  8
0
 62
7
  6
CONTINUOUS
 10
366.153625091
 20
168.1814557051
  0
VERTEX
  8
0
 62
7
  6
CONTINUOUS
 10
365.8086307267
 20
168.6674837366
  0
VERTEX
  8
0
 62
7
  6
CONTINUOUS
 10
365.4398474309
 20
169.1358694172
  0
VERTEX
  8
0
 62
7
  6
CONTINUOUS
 10
365.2517373547
 20
169.3518011791
  0
SEQEND
  0
POLYLINE
  8
0
 62
7
  6
CONTINUOUS
 66
1
 70
0
  0
VERTEX
  8
0
 62
7
  6
CONTINUOUS
 10
371.4366712196
 20
546.1749115561
  0
VERTEX
  8
0
 62
7
  6
CONTINUOUS
 10
371.4216127857
 20
546.422246604
  0
VERTEX
  8
0
 62
7
  6
CONTINUOUS
 10
371.4041392753
 20
546.6708049881
  0
VERTEX
  8
0
 62
7
  6
CONTINUOUS
 10
371.3820168799
 20
546.9372948216
  0
VERTEX
  8
0
 62
7
  6
CONTINUOUS
 10
371.3573396364
 20
547.1866467826
  0
SEQEND
  0
LINE
  8
0
 62
7
  6
CONTINUOUS
 10
371.4506317749
 20
545.9140495263
 11
371.4366712196
 21
546.1749115561
  0
POLYLINE
  8
0
 62
7
  6
CONTINUOUS
 66
1
 70
0
  0
VERTEX
  8
0
 62
7
  6
CONTINUOUS
 10
371.5374660304
 20
543.4516387361
  0
VERTEX
  8
0
 62
7
  6
CONTINUOUS
 10
371.5263714384
 20
543.8552952991
  0
VERTEX
  8
0
 62
7
  6
CONTINUOUS
 10
371.5139328123
 20
544.2751777526
  0
VERTEX
  8
0
 62
7
  6
CONTINUOUS
 10
371.5015331759
 20
544.6602508707
  0
VERTEX
  8
0
 62
7
  6
CONTINUOUS
 10
371.4891005651
 20
545.013767098
  0
VERTEX
  8
0
 62
7
  6
CONTINUOUS
 10
371.4765769283
 20
545.3380182508
  0
VERTEX
  8
0
 62
7
  6
CONTINUOUS
 10
371.4638030713
 20
545.6371872477
  0
VERTEX
  8
0
 62
7
  6
CONTINUOUS
 10
371.4506317749
 20
545.9140495263
  0
SEQEND
  0
LINE
  8
0
 62
7
  6
CONTINUOUS
 10
371.5411020535
 20
543.1762899112
 11
371.5374581192
 21
543.4517314926
  0
POLYLINE
  8
0
 62
7
  6
CONTINUOUS
 66
1
 70
0
  0
VERTEX
  8
0
 62
7
  6
CONTINUOUS
 10
346.7857240153
 20
-86.6841968013
  0
VERTEX
  8
0
 62
7
  6
CONTINUOUS
 10
347.3528320813
 20
-81.8940524325
  0
VERTEX
  8
0
 62
7
  6
CONTINUOUS
 10
347.9889950213
 20
-76.7719895077
  0
VERTEX
  8
0
 62
7
  6
CONTINUOUS
 10
348.6184165263
 20
-71.8759368151
  0
VERTEX
  8
0
 62
7
  6
CONTINUOUS
 10
349.2446808747
 20
-67.1422499118
  0
VERTEX
  8
0
 62
7
  6
CONTINUOUS
 10
349.8761408343
 20
-62.4970696475
  0
VERTEX
  8
0
 62
7
  6
CONTINUOUS
 10
350.5225016233
 20
-57.8750124683
  0
VERTEX
  8
0
 62
7
  6
CONTINUOUS
 10
351.2090357501
 20
-53.1246772441
  0
VERTEX
  8
0
 62
7
  6
CONTINUOUS
 10
351.9095085593
 20
-48.4695551254
  0
VERTEX
  8
0
 62
7
  6
CONTINUOUS
 10
352.63835539
 20
-43.8307952135
  0
VERTEX
  8
0
 62
7
  6
CONTINUOUS
 10
353.3888442248
 20
-39.2424904086
  0
VERTEX
  8
0
 62
7
  6
CONTINUOUS
 10
354.1600018607
 20
-34.6742488989
  0
VERTEX
  8
0
 62
7
  6
CONTINUOUS
 10
354.9485447101
 20
-30.096357096
  0
VERTEX
  8
0
 62
7
  6
CONTINUOUS
 10
355.7351873665
 20
-25.5746188167
  0
VERTEX
  8
0
 62
7
  6
CONTINUOUS
 10
356.5030449568
 20
-21.1763620702
  0
SEQEND
  0
POLYLINE
  8
0
 62
7
  6
CONTINUOUS
 66
1
 70
0
  0
VERTEX
  8
0
 62
7
  6
CONTINUOUS
 10
351.9481907282
 20
-48.2212781723
  0
VERTEX
  8
0
 62
7
  6
CONTINUOUS
 10
352.1656028858
 20
-46.8651763813
  0
VERTEX
  8
0
 62
7
  6
CONTINUOUS
 10
352.380626052
 20
-45.5328155244
  0
VERTEX
  8
0
 62
7
  6
CONTINUOUS
 10
352.5866397502
 20
-44.2653181067
  0
VERTEX
  8
0
 62
7
  6
CONTINUOUS
 10
352.7888844343
 20
-43.0294235273
  0
VERTEX
  8
0
 62
7
  6
CONTINUOUS
 10
352.9907279469
 20
-41.8031950625
  0
VERTEX
  8
0
 62
7
  6
CONTINUOUS
 10
353.1913668582
 20
-40.5911074579
  0
VERTEX
  8
0
 62
7
  6
CONTINUOUS
 10
353.3912613742
 20
-39.3896112197
  0
VERTEX
  8
0
 62
7
  6
CONTINUOUS
 10
353.5900011609
 20
-38.200535006
  0
VERTEX
  8
0
 62
7
  6
CONTINUOUS
 10
353.7873363545
 20
-37.0247224809
  0
VERTEX
  8
0
 62
7
  6
CONTINUOUS
 10
353.9832332472
 20
-35.8617568667
  0
VERTEX
  8
0
 62
7
  6
CONTINUOUS
 10
354.1775737941
 20
-34.7117069089
  0
VERTEX
  8
0
 62
7
  6
CONTINUOUS
 10
354.3703545494
 20
-33.5740032935
  0
VERTEX
  8
0
 62
7
  6
CONTINUOUS
 10
354.5615986207
 20
-32.4478822228
  0
VERTEX
  8
0
 62
7
  6
CONTINUOUS
 10
354.7511024738
 20
-31.3339609244
  0
VERTEX
  8
0
 62
7
  6
CONTINUOUS
 10
354.9387493307
 20
-30.2323501016
  0
VERTEX
  8
0
 62
7
  6
CONTINUOUS
 10
355.1242965847
 20
-29.143899184
  0
VERTEX
  8
0
 62
7
  6
CONTINUOUS
 10
355.3075451908
 20
-28.0692462598
  0
VERTEX
  8
0
 62
7
  6
CONTINUOUS
 10
355.4882488964
 20
-27.0092969776
  0
SEQEND
  0
POLYLINE
  8
0
 62
7
  6
CONTINUOUS
 66
1
 70
0
  0
VERTEX
  8
0
 62
7
  6
CONTINUOUS
 10
357.2595292606
 20
-16.6883841365
  0
VERTEX
  8
0
 62
7
  6
CONTINUOUS
 10
358.0194542761
 20
-12.104603969
  0
VERTEX
  8
0
 62
7
  6
CONTINUOUS
 10
358.755990672
 20
-7.5743961721
  0
VERTEX
  8
0
 62
7
  6
CONTINUOUS
 10
359.4674523224
 20
-3.0988748673
  0
VERTEX
  8
0
 62
7
  6
CONTINUOUS
 10
360.1523134292
 20
1.3210108441
  0
VERTEX
  8
0
 62
7
  6
CONTINUOUS
 10
360.8090243017
 20
5.6833555387
  0
VERTEX
  8
0
 62
7
  6
CONTINUOUS
 10
361.4364220048
 20
9.9875899442
  0
VERTEX
  8
0
 62
7
  6
CONTINUOUS
 10
362.0331622296
 20
14.2310004083
  0
VERTEX
  8
0
 62
7
  6
CONTINUOUS
 10
362.5982970404
 20
18.412021336
  0
VERTEX
  8
0
 62
7
  6
CONTINUOUS
 10
363.1311184934
 20
22.5290470254
  0
VERTEX
  8
0
 62
7
  6
CONTINUOUS
 10
363.6312092874
 20
26.5810822182
  0
VERTEX
  8
0
 62
7
  6
CONTINUOUS
 10
364.0983027906
 20
30.5663128047
  0
VERTEX
  8
0
 62
7
  6
CONTINUOUS
 10
364.5324658914
 20
34.483340023
  0
VERTEX
  8
0
 62
7
  6
CONTINUOUS
 10
364.9340493649
 20
38.330859163
  0
VERTEX
  8
0
 62
7
  6
CONTINUOUS
 10
365.3036683206
 20
42.1075288149
  0
VERTEX
  8
0
 62
7
  6
CONTINUOUS
 10
365.64223504
 20
45.8119052266
  0
VERTEX
  8
0
 62
7
  6
CONTINUOUS
 10
365.9508656629
 20
49.442009757
  0
VERTEX
  8
0
 62
7
  6
CONTINUOUS
 10
366.2310827881
 20
52.9970253834
  0
VERTEX
  8
0
 62
7
  6
CONTINUOUS
 10
366.4845976847
 20
56.4750773707
  0
VERTEX
  8
0
 62
7
  6
CONTINUOUS
 10
366.713383364
 20
59.8751872436
  0
VERTEX
  8
0
 62
7
  6
CONTINUOUS
 10
366.919640351
 20
63.1955849689
  0
VERTEX
  8
0
 62
7
  6
CONTINUOUS
 10
367.0994721913
 20
66.3208285549
  0
SEQEND
  0
LINE
  8
0
 62
7
  6
CONTINUOUS
 10
356.3445985106
 20
-21.9669489815
 11
356.5053831985
 21
-21.0136602767
  0
POLYLINE
  8
0
 62
7
  6
CONTINUOUS
 66
1
 70
0
  0
VERTEX
  8
0
 62
7
  6
CONTINUOUS
 10
355.4882488964
 20
-27.0092969776
  0
VERTEX
  8
0
 62
7
  6
CONTINUOUS
 10
355.6662244733
 20
-25.9646594463
  0
VERTEX
  8
0
 62
7
  6
CONTINUOUS
 10
355.8410944665
 20
-24.9370453662
  0
VERTEX
  8
0
 62
7
  6
CONTINUOUS
 10
356.0123950342
 20
-23.9287855159
  0
VERTEX
  8
0
 62
7
  6
CONTINUOUS
 10
356.1802322423
 20
-22.9389069679
  0
VERTEX
  8
0
 62
7
  6
CONTINUOUS
 10
356.3445985106
 20
-21.9669489815
  0
SEQEND
  0
LINE
  8
0
 62
7
  6
CONTINUOUS
 10
356.5030990037
 20
-21.1763724247
 11
357.2595292606
 21
-16.6883841365
  0
POLYLINE
  8
0
 62
7
  6
CONTINUOUS
 66
1
 70
0
  0
VERTEX
  8
0
 62
7
  6
CONTINUOUS
 10
192.9379540137
 20
567.0202914473
  0
VERTEX
  8
0
 62
7
  6
CONTINUOUS
 10
192.3553386712
 20
568.0073087378
  0
VERTEX
  8
0
 62
7
  6
CONTINUOUS
 10
191.7978202481
 20
568.9468348922
  0
VERTEX
  8
0
 62
7
  6
CONTINUOUS
 10
191.2653987444
 20
569.8388699105
  0
SEQEND
  0
POLYLINE
  8
0
 62
7
  6
CONTINUOUS
 66
1
 70
0
  0
VERTEX
  8
0
 62
7
  6
CONTINUOUS
 10
371.3576559985
 20
547.1837057931
  0
VERTEX
  8
0
 62
7
  6
CONTINUOUS
 10
371.3433867357
 20
547.3145355008
  0
VERTEX
  8
0
 62
7
  6
CONTINUOUS
 10
371.3274005425
 20
547.4566522494
  0
VERTEX
  8
0
 62
7
  6
CONTINUOUS
 10
371.311215219
 20
547.5958581602
  0
VERTEX
  8
0
 62
7
  6
CONTINUOUS
 10
371.294779548
 20
547.7325273198
  0
VERTEX
  8
0
 62
7
  6
CONTINUOUS
 10
371.2780498713
 20
547.8669306659
  0
VERTEX
  8
0
 62
7
  6
CONTINUOUS
 10
371.2609693341
 20
547.9994074835
  0
VERTEX
  8
0
 62
7
  6
CONTINUOUS
 10
371.2434812918
 20
548.1302517605
  0
VERTEX
  8
0
 62
7
  6
CONTINUOUS
 10
371.2255103016
 20
548.2598505002
  0
VERTEX
  8
0
 62
7
  6
CONTINUOUS
 10
371.2069809829
 20
548.388534039
  0
VERTEX
  8
0
 62
7
  6
CONTINUOUS
 10
371.187793262
 20
548.516743007
  0
VERTEX
  8
0
 62
7
  6
CONTINUOUS
 10
371.1678465048
 20
548.6448496356
  0
VERTEX
  8
0
 62
7
  6
CONTINUOUS
 10
371.1470063294
 20
548.7733638477
  0
VERTEX
  8
0
 62
7
  6
CONTINUOUS
 10
371.1251383727
 20
548.9027023853
  0
VERTEX
  8
0
 62
7
  6
CONTINUOUS
 10
371.1020558957
 20
549.0334880462
  0
VERTEX
  8
0
 62
7
  6
CONTINUOUS
 10
371.07757328
 20
549.1662117677
  0
VERTEX
  8
0
 62
7
  6
CONTINUOUS
 10
371.0514273554
 20
549.3016444134
  0
VERTEX
  8
0
 62
7
  6
CONTINUOUS
 10
371.0233565398
 20
549.4403767726
  0
VERTEX
  8
0
 62
7
  6
CONTINUOUS
 10
370.9929834353
 20
549.583378337
  0
VERTEX
  8
0
 62
7
  6
CONTINUOUS
 10
370.9599297516
 20
549.7313826015
  0
VERTEX
  8
0
 62
7
  6
CONTINUOUS
 10
370.9236518689
 20
549.8855926973
  0
VERTEX
  8
0
 62
7
  6
CONTINUOUS
 10
370.8835705232
 20
550.0470188881
  0
VERTEX
  8
0
 62
7
  6
CONTINUOUS
 10
370.8389771199
 20
550.2168249147
  0
VERTEX
  8
0
 62
7
  6
CONTINUOUS
 10
370.7890878961
 20
550.3960449446
  0
VERTEX
  8
0
 62
7
  6
CONTINUOUS
 10
370.7329405808
 20
550.5858976572
  0
VERTEX
  8
0
 62
7
  6
CONTINUOUS
 10
370.6694968129
 20
550.7873507933
  0
VERTEX
  8
0
 62
7
  6
CONTINUOUS
 10
370.5973747257
 20
551.0018895206
  0
VERTEX
  8
0
 62
7
  6
CONTINUOUS
 10
370.515126131
 20
551.2305229178
  0
VERTEX
  8
0
 62
7
  6
CONTINUOUS
 10
370.4207422867
 20
551.4750609739
  0
VERTEX
  8
0
 62
7
  6
CONTINUOUS
 10
370.3120827787
 20
551.7367230895
  0
VERTEX
  8
0
 62
7
  6
CONTINUOUS
 10
370.1863895512
 20
552.0172089024
  0
VERTEX
  8
0
 62
7
  6
CONTINUOUS
 10
370.0405153953
 20
552.3178763114
  0
VERTEX
  8
0
 62
7
  6
CONTINUOUS
 10
369.8711729835
 20
552.6391547686
  0
VERTEX
  8
0
 62
7
  6
CONTINUOUS
 10
369.6738973815
 20
552.9823570919
  0
VERTEX
  8
0
 62
7
  6
CONTINUOUS
 10
369.4466313009
 20
553.3435511292
  0
VERTEX
  8
0
 62
7
  6
CONTINUOUS
 10
369.1858400878
 20
553.7208307779
  0
VERTEX
  8
0
 62
7
  6
CONTINUOUS
 10
368.8913935169
 20
554.1072669349
  0
VERTEX
  8
0
 62
7
  6
CONTINUOUS
 10
368.5630001688
 20
554.4970993935
  0
VERTEX
  8
0
 62
7
  6
CONTINUOUS
 10
368.2009479765
 20
554.8846862096
  0
VERTEX
  8
0
 62
7
  6
CONTINUOUS
 10
367.8070463157
 20
555.2637648766
  0
VERTEX
  8
0
 62
7
  6
CONTINUOUS
 10
367.3805566937
 20
555.6313056149
  0
VERTEX
  8
0
 62
7
  6
CONTINUOUS
 10
366.9223486807
 20
555.9830860213
  0
VERTEX
  8
0
 62
7
  6
CONTINUOUS
 10
366.4318553134
 20
556.316253726
  0
VERTEX
  8
0
 62
7
  6
CONTINUOUS
 10
365.9099663941
 20
556.6269985784
  0
VERTEX
  8
0
 62
7
  6
CONTINUOUS
 10
365.3549208868
 20
556.9130225387
  0
VERTEX
  8
0
 62
7
  6
CONTINUOUS
 10
364.7662524401
 20
557.1708486813
  0
VERTEX
  8
0
 62
7
  6
CONTINUOUS
 10
364.1420096104
 20
557.3971638832
  0
VERTEX
  8
0
 62
7
  6
CONTINUOUS
 10
363.4809185585
 20
557.5876329255
  0
VERTEX
  8
0
 62
7
  6
CONTINUOUS
 10
362.782154109
 20
557.7370733567
  0
VERTEX
  8
0
 62
7
  6
CONTINUOUS
 10
362.044184559
 20
557.8395696021
  0
VERTEX
  8
0
 62
7
  6
CONTINUOUS
 10
361.4279826656
 20
557.8828604298
  0
SEQEND
  0
LINE
  8
0
 62
7
  6
CONTINUOUS
 10
191.2653987444
 20
569.8388699105
 11
190.7580741602
 21
570.6834137926
  0
POLYLINE
  8
0
 62
7
  6
CONTINUOUS
 66
1
 70
0
  0
VERTEX
  8
0
 62
7
  6
CONTINUOUS
 10
191.178785838
 20
570.5059809353
  0
VERTEX
  8
0
 62
7
  6
CONTINUOUS
 10
191.4879433039
 20
569.9861382332
  0
VERTEX
  8
0
 62
7
  6
CONTINUOUS
 10
191.8069220011
 20
569.4477137937
  0
VERTEX
  8
0
 62
7
  6
CONTINUOUS
 10
192.1357443791
 20
568.8906905144
  0
VERTEX
  8
0
 62
7
  6
CONTINUOUS
 10
192.4743430897
 20
568.3151197023
  0
VERTEX
  8
0
 62
7
  6
CONTINUOUS
 10
192.8226507844
 20
567.7210526643
  0
VERTEX
  8
0
 62
7
  6
CONTINUOUS
 10
193.1806899128
 20
567.1084722981
  0
SEQEND
  0
LINE
  8
0
 62
7
  6
CONTINUOUS
 10
202.784086864
 20
570.5059807721
 11
205.41740272
 21
567.1084729191
  0
LINE
  8
0
 62
7
  6
CONTINUOUS
 10
368.5411216701
 20
512.4863778527
 11
0.0096500381
 21
512.4863778527
  0
POLYLINE
  8
0
 62
7
  6
CONTINUOUS
 66
1
 70
0
  0
VERTEX
  8
0
 62
7
  6
CONTINUOUS
 10
184.9476528554
 20
572.1053180117
  0
VERTEX
  8
0
 62
7
  6
CONTINUOUS
 10
184.8571243327
 20
572.1323173406
  0
VERTEX
  8
0
 62
7
  6
CONTINUOUS
 10
184.7767858049
 20
572.15941651
  0
VERTEX
  8
0
 62
7
  6
CONTINUOUS
 10
184.7068238251
 20
572.1865514331
  0
VERTEX
  8
0
 62
7
  6
CONTINUOUS
 10
184.6473437555
 20
572.2136993623
  0
VERTEX
  8
0
 62
7
  6
CONTINUOUS
 10
184.5988548943
 20
572.2406346347
  0
VERTEX
  8
0
 62
7
  6
CONTINUOUS
 10
184.5614258462
 20
572.2672653756
  0
VERTEX
  8
0
 62
7
  6
CONTINUOUS
 10
184.5353954818
 20
572.2931674726
  0
VERTEX
  8
0
 62
7
  6
CONTINUOUS
 10
184.5204723166
 20
572.3178293461
  0
VERTEX
  8
0
 62
7
  6
CONTINUOUS
 10
184.5156795683
 20
572.3414215225
  0
SEQEND
  0
POLYLINE
  8
0
 62
7
  6
CONTINUOUS
 66
1
 70
0
  0
VERTEX
  8
0
 62
7
  6
CONTINUOUS
 10
190.7580741602
 20
570.6834137926
  0
VERTEX
  8
0
 62
7
  6
CONTINUOUS
 10
189.7874638945
 20
570.9785375976
  0
VERTEX
  8
0
 62
7
  6
CONTINUOUS
 10
188.8569609544
 20
571.2401703528
  0
SEQEND
  0
LINE
  8
0
 62
7
  6
CONTINUOUS
 10
190.7938725073
 20
570.6238202385
 11
191.178785838
 21
570.5059809353
  0
LINE
  8
0
 62
7
  6
CONTINUOUS
 10
162.8124004871
 20
567.0208321614
 11
157.1973936614
 21
565.4876491511
  0
POLYLINE
  8
0
 62
7
  6
CONTINUOUS
 66
1
 70
0
  0
VERTEX
  8
0
 62
7
  6
CONTINUOUS
 10
7.1227893553
 20
557.882860442
  0
VERTEX
  8
0
 62
7
  6
CONTINUOUS
 10
6.515285023
 20
557.8404464009
  0
VERTEX
  8
0
 62
7
  6
CONTINUOUS
 10
5.7770550352
 20
557.7385624117
  0
VERTEX
  8
0
 62
7
  6
CONTINUOUS
 10
5.0780370251
 20
557.589686454
  0
VERTEX
  8
0
 62
7
  6
CONTINUOUS
 10
4.4166819675
 20
557.3997388491
  0
VERTEX
  8
0
 62
7
  6
CONTINUOUS
 10
3.792154915
 20
557.1739023241
  0
VERTEX
  8
0
 62
7
  6
CONTINUOUS
 10
3.2031718761
 20
556.9165083697
  0
VERTEX
  8
0
 62
7
  6
CONTINUOUS
 10
2.6477716613
 20
556.6308630437
  0
VERTEX
  8
0
 62
7
  6
CONTINUOUS
 10
2.1254822518
 20
556.3204329829
  0
VERTEX
  8
0
 62
7
  6
CONTINUOUS
 10
1.6345360067
 20
555.9875031582
  0
VERTEX
  8
0
 62
7
  6
CONTINUOUS
 10
1.1758262466
 20
555.6358714768
  0
VERTEX
  8
0
 62
7
  6
CONTINUOUS
 10
0.748784463
 20
555.2683734878
  0
VERTEX
  8
0
 62
7
  6
CONTINUOUS
 10
0.3542987903
 20
554.8892292705
  0
VERTEX
  8
0
 62
7
  6
CONTINUOUS
 10
-0.0083669286
 20
554.5014539243
  0
VERTEX
  8
0
 62
7
  6
CONTINUOUS
 10
-0.3373585182
 20
554.1113419192
  0
VERTEX
  8
0
 62
7
  6
CONTINUOUS
 10
-0.6323595924
 20
553.7245654983
  0
VERTEX
  8
0
 62
7
  6
CONTINUOUS
 10
-0.8936464952
 20
553.3469098264
  0
VERTEX
  8
0
 62
7
  6
CONTINUOUS
 10
-1.1213313825
 20
552.9853432859
  0
VERTEX
  8
0
 62
7
  6
CONTINUOUS
 10
-1.3189603867
 20
552.6417753001
  0
VERTEX
  8
0
 62
7
  6
CONTINUOUS
 10
-1.4885936678
 20
552.3201525918
  0
VERTEX
  8
0
 62
7
  6
CONTINUOUS
 10
-1.6347083613
 20
552.0191611556
  0
VERTEX
  8
0
 62
7
  6
CONTINUOUS
 10
-1.7606013902
 20
551.738369517
  0
VERTEX
  8
0
 62
7
  6
CONTINUOUS
 10
-1.8694242323
 20
551.4764265403
  0
VERTEX
  8
0
 62
7
  6
CONTINUOUS
 10
-1.9639394549
 20
551.2316371424
  0
VERTEX
  8
0
 62
7
  6
CONTINUOUS
 10
-2.0462928994
 20
551.0027815643
  0
VERTEX
  8
0
 62
7
  6
CONTINUOUS
 10
-2.1184977091
 20
550.7880497223
  0
VERTEX
  8
0
 62
7
  6
CONTINUOUS
 10
-2.1820054004
 20
550.5864331682
  0
VERTEX
  8
0
 62
7
  6
CONTINUOUS
 10
-2.2382003465
 20
550.3964484027
  0
VERTEX
  8
0
 62
7
  6
CONTINUOUS
 10
-2.2881245833
 20
550.2171234724
  0
VERTEX
  8
0
 62
7
  6
CONTINUOUS
 10
-2.3327427693
 20
550.0472379116
  0
VERTEX
  8
0
 62
7
  6
CONTINUOUS
 10
-2.3728417332
 20
549.8857512009
  0
VERTEX
  8
0
 62
7
  6
CONTINUOUS
 10
-2.4091326732
 20
549.7314927883
  0
VERTEX
  8
0
 62
7
  6
CONTINUOUS
 10
-2.4421958624
 20
549.5834507074
  0
VERTEX
  8
0
 62
7
  6
CONTINUOUS
 10
-2.4725762559
 20
549.4404177201
  0
VERTEX
  8
0
 62
7
  6
CONTINUOUS
 10
-2.5006524861
 20
549.3016600607
  0
VERTEX
  8
0
 62
7
  6
CONTINUOUS
 10
-2.5268024766
 20
549.1662067129
  0
VERTEX
  8
0
 62
7
  6
CONTINUOUS
 10
-2.5512880646
 20
549.0334663908
  0
VERTEX
  8
0
 62
7
  6
CONTINUOUS
 10
-2.574372723
 20
548.9026672296
  0
VERTEX
  8
0
 62
7
  6
CONTINUOUS
 10
-2.5962421745
 20
548.7733182102
  0
VERTEX
  8
0
 62
7
  6
CONTINUOUS
 10
-2.6170833037
 20
548.6447960977
  0
VERTEX
  8
0
 62
7
  6
CONTINUOUS
 10
-2.6370305299
 20
548.5166841835
  0
VERTEX
  8
0
 62
7
  6
CONTINUOUS
 10
-2.6562182948
 20
548.3884725129
  0
VERTEX
  8
0
 62
7
  6
CONTINUOUS
 10
-2.674747317
 20
548.2597885983
  0
VERTEX
  8
0
 62
7
  6
CONTINUOUS
 10
-2.6927177404
 20
548.1301915757
  0
VERTEX
  8
0
 62
7
  6
CONTINUOUS
 10
-2.7102049928
 20
547.9993509835
  0
VERTEX
  8
0
 62
7
  6
CONTINUOUS
 10
-2.7272845688
 20
547.8668796107
  0
VERTEX
  8
0
 62
7
  6
CONTINUOUS
 10
-2.7440131368
 20
547.7324834383
  0
VERTEX
  8
0
 62
7
  6
CONTINUOUS
 10
-2.7604475808
 20
547.5958230807
  0
VERTEX
  8
0
 62
7
  6
CONTINUOUS
 10
-2.7766315763
 20
547.4566275718
  0
VERTEX
  8
0
 62
7
  6
CONTINUOUS
 10
-2.7926163712
 20
547.3145226576
  0
VERTEX
  8
0
 62
7
  6
CONTINUOUS
 10
-2.8068842984
 20
547.1837067427
  0
SEQEND
  0
LINE
  8
0
 62
7
  6
CONTINUOUS
 10
162.8124004871
 20
567.0208321614
 11
192.9406865607
 21
567.0208321614
  0
LINE
  8
0
 62
7
  6
CONTINUOUS
 10
192.8859023639
 20
567.1084729191
 11
205.41740272
 21
567.1084729191
  0
LINE
  8
0
 62
7
  6
CONTINUOUS
 10
191.1787835661
 20
570.5059807721
 11
202.784086864
 21
570.5059807721
  0
LINE
  8
0
 62
7
  6
CONTINUOUS
 10
165.6511528781
 20
570.6833945233
 11
190.7579675166
 21
570.6833945233
  0
POLYLINE
  8
0
 62
7
  6
CONTINUOUS
 66
1
 70
0
  0
VERTEX
  8
0
 62
7
  6
CONTINUOUS
 10
185.5408058342
 20
571.9751066006
  0
VERTEX
  8
0
 62
7
  6
CONTINUOUS
 10
185.4046933474
 20
572.0002734318
  0
VERTEX
  8
0
 62
7
  6
CONTINUOUS
 10
185.2769209792
 20
572.0258979704
  0
SEQEND
  0
LINE
  8
0
 62
7
  6
CONTINUOUS
 10
186.3078898528
 20
571.8328715196
 11
185.5408058342
 21
571.9751220746
  0
LINE
  8
0
 62
7
  6
CONTINUOUS
 10
187.1162768863
 20
571.6629627479
 11
186.3078898528
 21
571.8328715196
  0
LINE
  8
0
 62
7
  6
CONTINUOUS
 10
185.2769209792
 20
572.0258979704
 11
185.15790636
 21
572.0520212073
  0
LINE
  8
0
 62
7
  6
CONTINUOUS
 10
187.9662662181
 20
571.4668538949
 11
187.1162768863
 21
571.6629627479
  0
LINE
  8
0
 62
7
  6
CONTINUOUS
 10
185.15790636
 20
572.0520212073
 11
185.0480345968
 21
572.0785201695
  0
LINE
  8
0
 62
7
  6
CONTINUOUS
 10
188.8569607973
 20
571.2401703927
 11
187.9662662181
 21
571.4668538949
  0
LINE
  8
0
 62
7
  6
CONTINUOUS
 10
185.0480345968
 20
572.0785201695
 11
184.9476528554
 21
572.1053180117
  0
LINE
  8
0
 62
7
  6
CONTINUOUS
 10
205.41740272
 20
567.1084729191
 11
211.3533780468
 21
565.4876491511
  0
ARC
  8
0
 62
7
  6
CONTINUOUS
 10
184.2753858541
 20
-3938.7611887056
 40
4500.1323024325
 50
87.7439063353
 51
92.2560936647
  0
ARC
  8
0
 62
7
  6
CONTINUOUS
 10
184.2753858541
 20
495.6984220997
 40
77.2632392753
 50
89.8218061009
 51
103.9484663514
  0
ARC
  8
0
 62
7
  6
CONTINUOUS
 10
184.2753858541
 20
495.6984220997
 40
77.0632392753
 50
76.1031020349
 51
89.4495902558
  0
ARC
  8
0
 62
7
  6
CONTINUOUS
 10
34.316562674
 20
-264.0136221473
 40
5.0
 50
179.5611314706
 51
270.0
  0
ARC
  8
0
 62
7
  6
CONTINUOUS
 10
334.2342090342
 20
-264.0136221473
 40
5.0
 50
270.0
 51
0.4388607458
  0
ARC
  8
0
 62
7
  6
CONTINUOUS
 10
3.0097280626
 20
509.4863783617
 40
3.0000007636
 50
89.999990278
 51
180.0000097221
  0
ARC
  8
0
 62
7
  6
CONTINUOUS
 10
368.5411216701
 20
515.4863778527
 40
3.0
 50
270.0
 51
360.0
  0
ARC
  8
0
 62
7
  6
CONTINUOUS
 10
0.0096500381
 20
515.4863778527
 40
3.0
 50
180.0
 51
270.0
  0
ARC
  8
0
 62
7
  6
CONTINUOUS
 10
365.5410431366
 20
509.4863778527
 40
3.0
 50
0.0
 51
90.0
  0
ARC
  8
0
 62
7
  6
CONTINUOUS
 10
157.4608016946
 20
564.5229646389
 40
1.0
 50
105.2723793093
 51
160.0
  0
ARC
  8
0
 62
7
  6
CONTINUOUS
 10
211.0899700136
 20
564.5229646389
 40
1.0
 50
20.0
 51
74.7276206907
  0
ENDSEC
  0
EOF
