999
DXF file: K:\Client\125_Heirloom\001\00\Final_Data\Drawings\TOILETS\lofts-172125_2.dxf
999
Pro/ENGINEER 2017110 by Parametric Technology Corporation
  0
SECTION
  2
HEADER
  9
$EXTMAX
 10
420.0
 20
297.0
 30
0.0
  9
$EXTMIN
 10
0.0
 20
0.0
 30
0.0
  9
$LIMMIN
 10
0.0
 20
0.0
  9
$LIMMAX
 10
420.0
 20
297.0
  9
$VIEWCTR
 10
210.0
 20
148.5
  9
$VIEWSIZE
 40
297.0
  9
$CLAYER
  8
0
  9
$LTSCALE
 40
23.1
  9
$CELTYPE
  6
BYLAYER
  9
$DIMSCALE
 40
1.0
  9
$DIMASZ
 40
3.0
  9
$DIMEXO
 40
1.0
  9
$DIMDLI
 40
15.96
  9
$DIMEXE
 40
1.0
  9
$DIMCEN
 40
3.78
  9
$DIMLFAC
 40
1.0
  9
$DIMBLK
  1
_FILLED
  9
$DIMALT
 70
0
  9
$DIMALTF
 40
0.0393700787
  9
$DIMTXT
 40
3.0
  9
$AUNITS
 70
0
  9
$PDMODE
 70
3
  9
$PDSIZE
 40
5.0
  9
$TILEMODE
 70
1
  0
ENDSEC
  0
SECTION
  2
TABLES
  0
TABLE
  2
LTYPE
 70
6
  0
LTYPE
  2
BYBLOCK
 70
0
  3

 72
65
 73
0
 40
0.0
  0
LTYPE
  2
BYLAYER
 70
0
  3

 72
65
 73
0
 40
0.0
  0
LTYPE
  2
CONTINUOUS
 70
64
  3
Solid line
 72
65
 73
0
 40
0.0
  0
LTYPE
  2
CENTER
 70
64
  3
____ _ ____ _ ____ _ ____ _ ____ _ ____ _ ____
 72
65
 73
4
 40
0.6
 49
0.375
 49
-0.075
 49
0.075
 49
-0.075
  0
LTYPE
  2
HIDDEN
 70
64
  3
- - - - - - - - - - - - - - - - - - - -
 72
65
 73
2
 40
0.2
 49
0.1
 49
-0.1
  0
LTYPE
  2
PHANTOM
 70
64
  3
_____ _ _ _____ _ _ _____ _ _ _____
 72
65
 73
6
 40
0.8
 49
0.45
 49
-0.05
 49
0.1
 49
-0.05
 49
0.1
 49
-0.05
  0
LTYPE
  2
DOT
 70
64
  3
. . . . . . . . . . . . . . . . . . . .
 72
65
 73
2
 40
0.2
 49
0.1
 49
-0.1
  0
LTYPE
  2
DASHED
 70
64
  3
- - - - - - - - - - - - - - - - - - - -
 72
65
 73
2
 40
0.2
 49
0.1
 49
-0.1
  0
ENDTAB
  0
TABLE
  2
LAYER
 70
36
  0
LAYER
  2
0
 70
0
 62
7
  6
CONTINUOUS
  0
LAYER
  2
DEFAULT_1
 70
0
 62
7
  6
CENTER
  0
LAYER
  2
DEFAULT_2
 70
0
 62
8
  6
HIDDEN
  0
LAYER
  2
DEFAULT_3
 70
0
 62
7
  6
PHANTOM
  0
LAYER
  2
0000_BOM
 70
0
 62
7
  6
CONTINUOUS
  0
LAYER
  2
0000_REV_TABLE
 70
0
 62
7
  6
CONTINUOUS
  0
LAYER
  2
0000_STEVENS_NOTE
 70
0
 62
7
  6
CONTINUOUS
  0
LAYER
  2
01_DATUM_PLANES
 70
0
 62
7
  6
CONTINUOUS
  0
LAYER
  2
01_DEF_PLANES
 70
0
 62
7
  6
CONTINUOUS
  0
LAYER
  2
02_DATUM_COS
 70
0
 62
7
  6
CONTINUOUS
  0
LAYER
  2
90_IMP_FEAT
 70
0
 62
7
  6
CONTINUOUS
  0
LAYER
  2
95_STL
 70
0
 62
7
  6
CONTINUOUS
  0
LAYER
  2
99_SOLID
 70
0
 62
7
  6
CONTINUOUS
  0
LAYER
  2
CAD-MASTER_ZINC-PL
 70
0
 62
7
  6
CONTINUOUS
  0
LAYER
  2
CURVE
 70
0
 62
7
  6
CONTINUOUS
  0
LAYER
  2
SHELL
 70
0
 62
7
  6
CONTINUOUS
  0
LAYER
  2
SKEL
 70
0
 62
7
  6
CONTINUOUS
  0
LAYER
  2
SKETCH
 70
0
 62
7
  6
CONTINUOUS
  0
LAYER
  2
SURFACE
 70
0
 62
7
  6
CONTINUOUS
  0
ENDTAB
  0
TABLE
  2
STYLE
 70
1
  0
STYLE
  2
STANDARD
 70
0
 40
0.0
 41
0.75
 50
0.0
 71
0
 42
0.2
  3
txt
  4

  0
STYLE
  2
TEXTSTYLE_1
 70
0
 40
0.0
 41
0.8
 50
0.0
 71
0
 42
0.2
  3
gdt
  4

  0
ENDTAB
  0
ENDSEC
  0
SECTION
  2
BLOCKS
  0
BLOCK
  8
0
 62
5
  6
CONTINUOUS
  2
PLUMBING_BL1
 70
64
 10
384.6594369675
 20
-267.1660146779
  0
CIRCLE
  8
0
 62
5
  6
CONTINUOUS
 10
384.6594369675
 20
-267.1660146779
 40
12.5
  0
LINE
  8
0
 62
5
  6
CONTINUOUS
 10
397.1594369675
 20
-254.6660146779
 11
372.1594369675
 21
-279.6660146779
  0
LINE
  8
0
 62
5
  6
CONTINUOUS
 10
384.6594369675
 20
-267.1660146779
 11
372.1594369675
 21
-254.6660146779
  0
LINE
  8
0
 62
5
  6
CONTINUOUS
 10
384.6594369675
 20
-267.1660146779
 11
397.1594369675
 21
-279.6660146779
  0
ENDBLK
  8
0
  6
BYBLOCK
 62
0
  0
BLOCK
  8
0
 62
1
  6
CONTINUOUS
  2
PLUMBING_BL0
 70
64
 10
299.1547192982
 20
-88.4068156405
  0
CIRCLE
  8
0
 62
1
  6
CONTINUOUS
 10
299.1547192982
 20
-88.4068156405
 40
12.5
  0
LINE
  8
0
 62
1
  6
CONTINUOUS
 10
311.6547192982
 20
-75.9068156405
 11
286.6547192982
 21
-100.9068156405
  0
LINE
  8
0
 62
1
  6
CONTINUOUS
 10
299.1547192982
 20
-88.4068156405
 11
286.6547192982
 21
-75.9068156405
  0
LINE
  8
0
 62
1
  6
CONTINUOUS
 10
299.1547192982
 20
-88.4068156405
 11
311.6547192982
 21
-100.9068156405
  0
ENDBLK
  8
0
  6
BYBLOCK
 62
0
  0
ENDSEC
  0
SECTION
  2
ENTITIES
  0
INSERT
  8
0
 62
1
  6
CONTINUOUS
  2
PLUMBING_BL0
 10
299.1547192982
 20
-88.4068156405
  0
INSERT
  8
0
 62
5
  6
CONTINUOUS
  2
PLUMBING_BL1
 10
384.6594369675
 20
-267.1660146779
  0
LINE
  8
DEFAULT_2
 62
8
  6
HIDDEN
 10
249.1547192982
 20
-138.4068156405
 11
299.1547192982
 21
-138.4068156405
  0
LINE
  8
DEFAULT_2
 62
8
  6
HIDDEN
 10
249.1547192982
 20
-38.4068156405
 11
299.1547192982
 21
-38.4068156405
  0
LINE
  8
DEFAULT_2
 62
8
  6
HIDDEN
 10
299.1547192982
 20
-38.4068156405
 11
299.1547192982
 21
-138.4068156405
  0
LINE
  8
0
 62
7
  6
CONTINUOUS
 10
381.362707892
 20
-268.4068156405
 11
-36.5814093211
 21
-268.4068156405
  0
POLYLINE
  8
0
 62
7
  6
CONTINUOUS
 66
1
 70
0
  0
VERTEX
  8
0
 62
7
  6
CONTINUOUS
 10
-151.7999673442
 20
145.4684876249
  0
VERTEX
  8
0
 62
7
  6
CONTINUOUS
 10
-151.7163231365
 20
143.9656145707
  0
VERTEX
  8
0
 62
7
  6
CONTINUOUS
 10
-151.3156789292
 20
138.1300191303
  0
VERTEX
  8
0
 62
7
  6
CONTINUOUS
 10
-150.7693340717
 20
132.1132907167
  0
VERTEX
  8
0
 62
7
  6
CONTINUOUS
 10
-150.0826670191
 20
126.1035010183
  0
VERTEX
  8
0
 62
7
  6
CONTINUOUS
 10
-149.2814678159
 20
120.3048091346
  0
VERTEX
  8
0
 62
7
  6
CONTINUOUS
 10
-148.3574090511
 20
114.6064074955
  0
VERTEX
  8
0
 62
7
  6
CONTINUOUS
 10
-147.31031729
 20
108.9880189165
  0
VERTEX
  8
0
 62
7
  6
CONTINUOUS
 10
-146.1386948495
 20
103.4329603331
  0
VERTEX
  8
0
 62
7
  6
CONTINUOUS
 10
-144.842266049
 20
97.9322908133
  0
VERTEX
  8
0
 62
7
  6
CONTINUOUS
 10
-143.4249113522
 20
92.4958907194
  0
VERTEX
  8
0
 62
7
  6
CONTINUOUS
 10
-141.8776497711
 20
87.0890083513
  0
VERTEX
  8
0
 62
7
  6
CONTINUOUS
 10
-140.1984954006
 20
81.707301014
  0
VERTEX
  8
0
 62
7
  6
CONTINUOUS
 10
-138.3926096347
 20
76.369795697
  0
VERTEX
  8
0
 62
7
  6
CONTINUOUS
 10
-136.4596341717
 20
71.0755967476
  0
VERTEX
  8
0
 62
7
  6
CONTINUOUS
 10
-134.3989738906
 20
65.821123507
  0
VERTEX
  8
0
 62
7
  6
CONTINUOUS
 10
-132.205126639
 20
60.594938431
  0
VERTEX
  8
0
 62
7
  6
CONTINUOUS
 10
-129.8732071149
 20
55.3873191399
  0
VERTEX
  8
0
 62
7
  6
CONTINUOUS
 10
-127.3846190866
 20
50.1622126826
  0
VERTEX
  8
0
 62
7
  6
CONTINUOUS
 10
-124.7312000283
 20
44.9116157551
  0
VERTEX
  8
0
 62
7
  6
CONTINUOUS
 10
-121.9009825139
 20
39.62095855
  0
VERTEX
  8
0
 62
7
  6
CONTINUOUS
 10
-118.8688434622
 20
34.2552722248
  0
VERTEX
  8
0
 62
7
  6
CONTINUOUS
 10
-115.5962624221
 20
28.7617820183
  0
VERTEX
  8
0
 62
7
  6
CONTINUOUS
 10
-112.0771615675
 20
23.1492008141
  0
VERTEX
  8
0
 62
7
  6
CONTINUOUS
 10
-108.2643680982
 20
17.3591494082
  0
VERTEX
  8
0
 62
7
  6
CONTINUOUS
 10
-104.1063063816
 20
11.3364559727
  0
VERTEX
  8
0
 62
7
  6
CONTINUOUS
 10
-99.4796464133
 20
4.9334679865
  0
VERTEX
  8
0
 62
7
  6
CONTINUOUS
 10
-94.3334633961
 20
-1.8850735489
  0
VERTEX
  8
0
 62
7
  6
CONTINUOUS
 10
-88.4739056315
 20
-9.3344593219
  0
VERTEX
  8
0
 62
7
  6
CONTINUOUS
 10
-81.6763181559
 20
-17.6499875237
  0
VERTEX
  8
0
 62
7
  6
CONTINUOUS
 10
-79.1487714445
 20
-20.6708133179
  0
SEQEND
  0
LINE
  8
0
 62
7
  6
CONTINUOUS
 10
-152.7400694947
 20
178.2812461264
 11
-152.7400694947
 21
160.1250571331
  0
POLYLINE
  8
0
 62
7
  6
CONTINUOUS
 66
1
 70
0
  0
VERTEX
  8
0
 62
7
  6
CONTINUOUS
 10
416.6952331776
 20
571.2902202995
  0
VERTEX
  8
0
 62
7
  6
CONTINUOUS
 10
417.6658434432
 20
571.5853441045
  0
VERTEX
  8
0
 62
7
  6
CONTINUOUS
 10
418.5963463834
 20
571.8469768596
  0
VERTEX
  8
0
 62
7
  6
CONTINUOUS
 10
419.4870409597
 20
572.0736603649
  0
VERTEX
  8
0
 62
7
  6
CONTINUOUS
 10
420.3370302874
 20
572.2697692202
  0
VERTEX
  8
0
 62
7
  6
CONTINUOUS
 10
421.1454174815
 20
572.4396780258
  0
VERTEX
  8
0
 62
7
  6
CONTINUOUS
 10
421.9125015036
 20
572.5819285814
  0
SEQEND
  0
LINE
  8
0
 62
7
  6
CONTINUOUS
 10
414.7605692061
 20
567.715279426
 11
414.515353324
 21
567.6270979542
  0
POLYLINE
  8
0
 62
7
  6
CONTINUOUS
 66
1
 70
0
  0
VERTEX
  8
0
 62
7
  6
CONTINUOUS
 10
-79.1473836259
 20
-20.6696678484
  0
VERTEX
  8
0
 62
7
  6
CONTINUOUS
 10
-75.8221429487
 20
-24.607052908
  0
VERTEX
  8
0
 62
7
  6
CONTINUOUS
 10
-72.5148678307
 20
-28.5264907188
  0
VERTEX
  8
0
 62
7
  6
CONTINUOUS
 10
-69.3554813462
 20
-32.2694190325
  0
VERTEX
  8
0
 62
7
  6
CONTINUOUS
 10
-66.3460165541
 20
-35.8265441221
  0
VERTEX
  8
0
 62
7
  6
CONTINUOUS
 10
-63.4814534398
 20
-39.2213972175
  0
VERTEX
  8
0
 62
7
  6
CONTINUOUS
 10
-60.8708251229
 20
-42.3420879709
  0
SEQEND
  0
POLYLINE
  8
0
 62
7
  6
CONTINUOUS
 66
1
 70
0
  0
VERTEX
  8
0
 62
7
  6
CONTINUOUS
 10
-60.8708251309
 20
-42.3420879614
  0
VERTEX
  8
0
 62
7
  6
CONTINUOUS
 10
-58.4030631251
 20
-45.3243760671
  0
VERTEX
  8
0
 62
7
  6
CONTINUOUS
 10
-55.9223505732
 20
-48.3920784647
  0
VERTEX
  8
0
 62
7
  6
CONTINUOUS
 10
-53.5515855366
 20
-51.4046383436
  0
VERTEX
  8
0
 62
7
  6
CONTINUOUS
 10
-51.2829875035
 20
-54.3679460451
  0
VERTEX
  8
0
 62
7
  6
CONTINUOUS
 10
-49.1165251804
 20
-57.2919289972
  0
VERTEX
  8
0
 62
7
  6
CONTINUOUS
 10
-47.0548195236
 20
-60.1872791485
  0
VERTEX
  8
0
 62
7
  6
CONTINUOUS
 10
-45.1011910299
 20
-63.0611164769
  0
VERTEX
  8
0
 62
7
  6
CONTINUOUS
 10
-43.258389285
 20
-65.9199620542
  0
VERTEX
  8
0
 62
7
  6
CONTINUOUS
 10
-41.5282305686
 20
-68.7706466546
  0
VERTEX
  8
0
 62
7
  6
CONTINUOUS
 10
-39.9152578259
 20
-71.6135754283
  0
VERTEX
  8
0
 62
7
  6
CONTINUOUS
 10
-38.4201858948
 20
-74.4547178717
  0
VERTEX
  8
0
 62
7
  6
CONTINUOUS
 10
-37.0406995484
 20
-77.296865336
  0
VERTEX
  8
0
 62
7
  6
CONTINUOUS
 10
-35.7725894899
 20
-80.1417284716
  0
VERTEX
  8
0
 62
7
  6
CONTINUOUS
 10
-34.6051594931
 20
-82.9997153681
  0
VERTEX
  8
0
 62
7
  6
CONTINUOUS
 10
-33.537410132
 20
-85.8694344212
  0
VERTEX
  8
0
 62
7
  6
CONTINUOUS
 10
-32.5669546284
 20
-88.7762566216
  0
VERTEX
  8
0
 62
7
  6
CONTINUOUS
 10
-31.6852334346
 20
-91.734840455
  0
VERTEX
  8
0
 62
7
  6
CONTINUOUS
 10
-30.8871283151
 20
-94.7440530382
  0
VERTEX
  8
0
 62
7
  6
CONTINUOUS
 10
-30.1679423941
 20
-97.8184127701
  0
VERTEX
  8
0
 62
7
  6
CONTINUOUS
 10
-29.5231609822
 20
-100.989712069
  0
VERTEX
  8
0
 62
7
  6
CONTINUOUS
 10
-28.9511196944
 20
-104.2766356688
  0
VERTEX
  8
0
 62
7
  6
CONTINUOUS
 10
-28.4518644428
 20
-107.6838632361
  0
VERTEX
  8
0
 62
7
  6
CONTINUOUS
 10
-28.0272988013
 20
-111.2133931171
  0
VERTEX
  8
0
 62
7
  6
CONTINUOUS
 10
-27.6764534753
 20
-114.9004747023
  0
VERTEX
  8
0
 62
7
  6
CONTINUOUS
 10
-27.3974107848
 20
-118.7939939017
  0
VERTEX
  8
0
 62
7
  6
CONTINUOUS
 10
-27.1990114864
 20
-122.7038498506
  0
SEQEND
  0
POLYLINE
  8
0
 62
7
  6
CONTINUOUS
 66
1
 70
0
  0
VERTEX
  8
0
 62
7
  6
CONTINUOUS
 10
-27.1990114868
 20
-122.7038498395
  0
VERTEX
  8
0
 62
7
  6
CONTINUOUS
 10
-27.1495216965
 20
-124.014440604
  0
VERTEX
  8
0
 62
7
  6
CONTINUOUS
 10
-27.1086397044
 20
-125.4126599308
  0
VERTEX
  8
0
 62
7
  6
CONTINUOUS
 10
-27.0835716989
 20
-126.7543664079
  0
VERTEX
  8
0
 62
7
  6
CONTINUOUS
 10
-27.0737244785
 20
-128.0415075169
  0
VERTEX
  8
0
 62
7
  6
CONTINUOUS
 10
-27.0769872969
 20
-129.2651375253
  0
VERTEX
  8
0
 62
7
  6
CONTINUOUS
 10
-27.0885202408
 20
-130.2653682013
  0
SEQEND
  0
POLYLINE
  8
0
 62
7
  6
CONTINUOUS
 66
1
 70
0
  0
VERTEX
  8
0
 62
7
  6
CONTINUOUS
 10
-27.0885081244
 20
-130.2652729515
  0
VERTEX
  8
0
 62
7
  6
CONTINUOUS
 10
-27.1132095261
 20
-131.6812163236
  0
VERTEX
  8
0
 62
7
  6
CONTINUOUS
 10
-27.1475623206
 20
-133.2990806434
  0
VERTEX
  8
0
 62
7
  6
CONTINUOUS
 10
-27.1891627883
 20
-134.9496013402
  0
VERTEX
  8
0
 62
7
  6
CONTINUOUS
 10
-27.2374711428
 20
-136.6138274899
  0
VERTEX
  8
0
 62
7
  6
CONTINUOUS
 10
-27.2928539926
 20
-138.3081881748
  0
VERTEX
  8
0
 62
7
  6
CONTINUOUS
 10
-27.3498577508
 20
-139.8938193299
  0
SEQEND
  0
POLYLINE
  8
0
 62
7
  6
CONTINUOUS
 66
1
 70
0
  0
VERTEX
  8
0
 62
7
  6
CONTINUOUS
 10
-27.3498577213
 20
-139.8938193262
  0
VERTEX
  8
0
 62
7
  6
CONTINUOUS
 10
-27.4174115661
 20
-141.6247100607
  0
VERTEX
  8
0
 62
7
  6
CONTINUOUS
 10
-27.5001932958
 20
-143.5776073177
  0
VERTEX
  8
0
 62
7
  6
CONTINUOUS
 10
-27.5951174339
 20
-145.6512049074
  0
VERTEX
  8
0
 62
7
  6
CONTINUOUS
 10
-27.7028120014
 20
-147.8414761337
  0
VERTEX
  8
0
 62
7
  6
CONTINUOUS
 10
-27.8230273366
 20
-150.1338856486
  0
VERTEX
  8
0
 62
7
  6
CONTINUOUS
 10
-27.9442097282
 20
-152.3177061502
  0
SEQEND
  0
POLYLINE
  8
0
 62
7
  6
CONTINUOUS
 66
1
 70
0
  0
VERTEX
  8
0
 62
7
  6
CONTINUOUS
 10
-27.9442096875
 20
-152.3177061461
  0
VERTEX
  8
0
 62
7
  6
CONTINUOUS
 10
-28.1320244188
 20
-155.5117652715
  0
VERTEX
  8
0
 62
7
  6
CONTINUOUS
 10
-28.3444949117
 20
-158.9031703413
  0
VERTEX
  8
0
 62
7
  6
CONTINUOUS
 10
-28.5725000752
 20
-162.3442035365
  0
VERTEX
  8
0
 62
7
  6
CONTINUOUS
 10
-28.8159379868
 20
-165.8421535182
  0
VERTEX
  8
0
 62
7
  6
CONTINUOUS
 10
-29.0758036896
 20
-169.4117623819
  0
VERTEX
  8
0
 62
7
  6
CONTINUOUS
 10
-29.3378163664
 20
-172.874078676
  0
SEQEND
  0
POLYLINE
  8
0
 62
7
  6
CONTINUOUS
 66
1
 70
0
  0
VERTEX
  8
0
 62
7
  6
CONTINUOUS
 10
-29.3378163664
 20
-172.874078676
  0
VERTEX
  8
0
 62
7
  6
CONTINUOUS
 10
-29.605054915
 20
-176.2829172059
  0
VERTEX
  8
0
 62
7
  6
CONTINUOUS
 10
-29.8825087354
 20
-179.7073702325
  0
VERTEX
  8
0
 62
7
  6
CONTINUOUS
 10
-30.1650431537
 20
-183.0880499943
  0
VERTEX
  8
0
 62
7
  6
CONTINUOUS
 10
-30.4528268103
 20
-186.4270473933
  0
VERTEX
  8
0
 62
7
  6
CONTINUOUS
 10
-30.7454156988
 20
-189.713239521
  0
VERTEX
  8
0
 62
7
  6
CONTINUOUS
 10
-31.028583812
 20
-192.8031308883
  0
SEQEND
  0
POLYLINE
  8
0
 62
7
  6
CONTINUOUS
 66
1
 70
0
  0
VERTEX
  8
0
 62
7
  6
CONTINUOUS
 10
-31.028583812
 20
-192.8031308883
  0
VERTEX
  8
0
 62
7
  6
CONTINUOUS
 10
-31.33557428
 20
-196.0519886998
  0
VERTEX
  8
0
 62
7
  6
CONTINUOUS
 10
-31.6577251217
 20
-199.3524202867
  0
VERTEX
  8
0
 62
7
  6
CONTINUOUS
 10
-31.9857093848
 20
-202.5971144301
  0
VERTEX
  8
0
 62
7
  6
CONTINUOUS
 10
-32.318757417
 20
-205.7749397095
  0
VERTEX
  8
0
 62
7
  6
CONTINUOUS
 10
-32.6548307707
 20
-208.8691128374
  0
VERTEX
  8
0
 62
7
  6
CONTINUOUS
 10
-32.9784191931
 20
-211.7462856216
  0
SEQEND
  0
POLYLINE
  8
0
 62
7
  6
CONTINUOUS
 66
1
 70
0
  0
VERTEX
  8
0
 62
7
  6
CONTINUOUS
 10
-32.9784191931
 20
-211.7462856216
  0
VERTEX
  8
0
 62
7
  6
CONTINUOUS
 10
-34.066043177
 20
-220.7556208499
  0
VERTEX
  8
0
 62
7
  6
CONTINUOUS
 10
-35.1736182925
 20
-228.9973272445
  0
VERTEX
  8
0
 62
7
  6
CONTINUOUS
 10
-36.2667872399
 20
-236.3120531558
  0
VERTEX
  8
0
 62
7
  6
CONTINUOUS
 10
-37.3641337126
 20
-242.9168047301
  0
VERTEX
  8
0
 62
7
  6
CONTINUOUS
 10
-38.4031815881
 20
-248.558433012
  0
VERTEX
  8
0
 62
7
  6
CONTINUOUS
 10
-39.4286890212
 20
-253.6026643458
  0
VERTEX
  8
0
 62
7
  6
CONTINUOUS
 10
-40.4630192329
 20
-258.2334686149
  0
VERTEX
  8
0
 62
7
  6
CONTINUOUS
 10
-41.4275031513
 20
-262.1757557562
  0
SEQEND
  0
LINE
  8
0
 62
7
  6
CONTINUOUS
 10
415.5304863222
 20
571.2902010301
 11
412.6917339312
 21
567.6276386683
  0
POLYLINE
  8
0
 62
7
  6
CONTINUOUS
 66
1
 70
0
  0
VERTEX
  8
0
 62
7
  6
CONTINUOUS
 10
414.515353324
 20
567.6270979542
  0
VERTEX
  8
0
 62
7
  6
CONTINUOUS
 10
415.0979686666
 20
568.6141152447
  0
VERTEX
  8
0
 62
7
  6
CONTINUOUS
 10
415.6554870897
 20
569.553641399
  0
VERTEX
  8
0
 62
7
  6
CONTINUOUS
 10
416.1879085934
 20
570.4456764173
  0
VERTEX
  8
0
 62
7
  6
CONTINUOUS
 10
416.6952331776
 20
571.2902202995
  0
SEQEND
  0
POLYLINE
  8
0
 62
7
  6
CONTINUOUS
 66
1
 70
0
  0
VERTEX
  8
0
 62
7
  6
CONTINUOUS
 10
416.9816282809
 20
571.1127874421
  0
VERTEX
  8
0
 62
7
  6
CONTINUOUS
 10
416.672470815
 20
570.5929447401
  0
VERTEX
  8
0
 62
7
  6
CONTINUOUS
 10
416.3534921178
 20
570.0545203006
  0
VERTEX
  8
0
 62
7
  6
CONTINUOUS
 10
416.0246697398
 20
569.4974970213
  0
VERTEX
  8
0
 62
7
  6
CONTINUOUS
 10
415.6860710293
 20
568.9219262092
  0
VERTEX
  8
0
 62
7
  6
CONTINUOUS
 10
415.3377633345
 20
568.3278591711
  0
VERTEX
  8
0
 62
7
  6
CONTINUOUS
 10
414.9797242061
 20
567.7152788049
  0
SEQEND
  0
POLYLINE
  8
0
 62
7
  6
CONTINUOUS
 66
1
 70
0
  0
VERTEX
  8
0
 62
7
  6
CONTINUOUS
 10
-140.6858243763
 20
158.0836623571
  0
VERTEX
  8
0
 62
7
  6
CONTINUOUS
 10
-141.3676657327
 20
158.054407697
  0
VERTEX
  8
0
 62
7
  6
CONTINUOUS
 10
-142.0282941914
 20
158.0044587835
  0
VERTEX
  8
0
 62
7
  6
CONTINUOUS
 10
-142.6660167744
 20
157.9338545035
  0
VERTEX
  8
0
 62
7
  6
CONTINUOUS
 10
-143.2849501362
 20
157.8418835009
  0
VERTEX
  8
0
 62
7
  6
CONTINUOUS
 10
-143.8892927566
 20
157.7271098329
  0
VERTEX
  8
0
 62
7
  6
CONTINUOUS
 10
-144.474826775
 20
157.5895786044
  0
VERTEX
  8
0
 62
7
  6
CONTINUOUS
 10
-145.0399942169
 20
157.4293397436
  0
VERTEX
  8
0
 62
7
  6
CONTINUOUS
 10
-145.5827246881
 20
157.2468718664
  0
VERTEX
  8
0
 62
7
  6
CONTINUOUS
 10
-146.1013261439
 20
157.0429049124
  0
VERTEX
  8
0
 62
7
  6
CONTINUOUS
 10
-146.5946691244
 20
156.8183005187
  0
VERTEX
  8
0
 62
7
  6
CONTINUOUS
 10
-147.0614026664
 20
156.574385846
  0
VERTEX
  8
0
 62
7
  6
CONTINUOUS
 10
-147.5019262608
 20
156.311868114
  0
VERTEX
  8
0
 62
7
  6
CONTINUOUS
 10
-147.9154815683
 20
156.0323990652
  0
VERTEX
  8
0
 62
7
  6
CONTINUOUS
 10
-148.3050583115
 20
155.7352341622
  0
VERTEX
  8
0
 62
7
  6
CONTINUOUS
 10
-148.6721438324
 20
155.4201273737
  0
VERTEX
  8
0
 62
7
  6
CONTINUOUS
 10
-149.0189226753
 20
155.0856690654
  0
VERTEX
  8
0
 62
7
  6
CONTINUOUS
 10
-149.3469429836
 20
154.7302446701
  0
VERTEX
  8
0
 62
7
  6
CONTINUOUS
 10
-149.6572575233
 20
154.3519929934
  0
VERTEX
  8
0
 62
7
  6
CONTINUOUS
 10
-149.9510854354
 20
153.9479110127
  0
VERTEX
  8
0
 62
7
  6
CONTINUOUS
 10
-150.2271652429
 20
153.5176937118
  0
VERTEX
  8
0
 62
7
  6
CONTINUOUS
 10
-150.4852572525
 20
153.0593705062
  0
VERTEX
  8
0
 62
7
  6
CONTINUOUS
 10
-150.7231746534
 20
152.5744774705
  0
VERTEX
  8
0
 62
7
  6
CONTINUOUS
 10
-150.9396046772
 20
152.0638854761
  0
VERTEX
  8
0
 62
7
  6
CONTINUOUS
 10
-151.1333455791
 20
151.5291537449
  0
VERTEX
  8
0
 62
7
  6
CONTINUOUS
 10
-151.303580145
 20
150.971996586
  0
VERTEX
  8
0
 62
7
  6
CONTINUOUS
 10
-151.4497669254
 20
150.3945851239
  0
VERTEX
  8
0
 62
7
  6
CONTINUOUS
 10
-151.5716152822
 20
149.7998860969
  0
VERTEX
  8
0
 62
7
  6
CONTINUOUS
 10
-151.6695528518
 20
149.1890132631
  0
VERTEX
  8
0
 62
7
  6
CONTINUOUS
 10
-151.7439975325
 20
148.5640094081
  0
VERTEX
  8
0
 62
7
  6
CONTINUOUS
 10
-151.7956385645
 20
147.9258718549
  0
VERTEX
  8
0
 62
7
  6
CONTINUOUS
 10
-151.8251814518
 20
147.2759925471
  0
VERTEX
  8
0
 62
7
  6
CONTINUOUS
 10
-151.8334050214
 20
146.615553459
  0
VERTEX
  8
0
 62
7
  6
CONTINUOUS
 10
-151.821136881
 20
145.9460759676
  0
VERTEX
  8
0
 62
7
  6
CONTINUOUS
 10
-151.8001879883
 20
145.4606477799
  0
SEQEND
  0
LINE
  8
0
 62
7
  6
CONTINUOUS
 10
-140.8015260552
 20
158.080206708
 11
-140.6858243763
 21
158.0836623571
  0
POLYLINE
  8
0
 62
7
  6
CONTINUOUS
 66
1
 70
0
  0
VERTEX
  8
0
 62
7
  6
CONTINUOUS
 10
-140.6638878292
 20
158.0842831142
  0
VERTEX
  8
0
 62
7
  6
CONTINUOUS
 10
-140.7632402949
 20
158.0814266545
  0
VERTEX
  8
0
 62
7
  6
CONTINUOUS
 10
-140.8351933501
 20
158.07908922
  0
SEQEND
  0
POLYLINE
  8
0
 62
7
  6
CONTINUOUS
 66
1
 70
0
  0
VERTEX
  8
0
 62
7
  6
CONTINUOUS
 10
-140.5347123621
 20
158.0873726761
  0
VERTEX
  8
0
 62
7
  6
CONTINUOUS
 10
-140.591508216
 20
158.0860991058
  0
VERTEX
  8
0
 62
7
  6
CONTINUOUS
 10
-140.6638878292
 20
158.0842831142
  0
SEQEND
  0
LINE
  8
0
 62
7
  6
CONTINUOUS
 10
-140.2628693906
 20
158.0915051518
 11
-140.6858243763
 21
158.0836623571
  0
LINE
  8
0
 62
7
  6
CONTINUOUS
 10
267.2696718335
 20
164.762541826
 11
-150.7083147318
 21
158.1253092403
  0
POLYLINE
  8
0
 62
7
  6
CONTINUOUS
 66
1
 70
0
  0
VERTEX
  8
0
 62
7
  6
CONTINUOUS
 10
-140.1223232097
 20
158.0930021535
  0
VERTEX
  8
0
 62
7
  6
CONTINUOUS
 10
-140.1718343973
 20
158.0926318449
  0
VERTEX
  8
0
 62
7
  6
CONTINUOUS
 10
-140.221844753
 20
158.0921799574
  0
VERTEX
  8
0
 62
7
  6
CONTINUOUS
 10
-140.2722595852
 20
158.0916417073
  0
VERTEX
  8
0
 62
7
  6
CONTINUOUS
 10
-140.3231677566
 20
158.0910104828
  0
VERTEX
  8
0
 62
7
  6
CONTINUOUS
 10
-140.3744731183
 20
158.0902817944
  0
VERTEX
  8
0
 62
7
  6
CONTINUOUS
 10
-140.4266258297
 20
158.0894425014
  0
VERTEX
  8
0
 62
7
  6
CONTINUOUS
 10
-140.4794824333
 20
158.0884871322
  0
VERTEX
  8
0
 62
7
  6
CONTINUOUS
 10
-140.5347123621
 20
158.0873726761
  0
SEQEND
  0
LINE
  8
0
 62
7
  6
CONTINUOUS
 10
-139.9040963791
 20
158.0935212365
 11
-140.2628693906
 21
158.0915051518
  0
LINE
  8
0
 62
7
  6
CONTINUOUS
 10
-140.0249828809
 20
158.093520592
 11
-140.1223232097
 21
158.0930021535
  0
LINE
  8
0
 62
7
  6
CONTINUOUS
 10
-139.9303268422
 20
158.0937821695
 11
-140.0249828809
 21
158.093520592
  0
LINE
  8
0
 62
7
  6
CONTINUOUS
 10
-139.8766998252
 20
158.0938360519
 11
-139.9303268422
 21
158.0937821695
  0
LINE
  8
0
 62
7
  6
CONTINUOUS
 10
-138.6475175566
 20
158.0934506613
 11
-138.859331845
 21
158.0931843595
  0
LINE
  8
0
 62
7
  6
CONTINUOUS
 10
-138.4662290835
 20
158.0935970263
 11
-138.6475175566
 21
158.0934506613
  0
LINE
  8
0
 62
7
  6
CONTINUOUS
 10
-139.8555668584
 20
158.0935597185
 11
-139.9040963791
 21
158.0935212365
  0
LINE
  8
0
 62
7
  6
CONTINUOUS
 10
-139.8538141599
 20
158.0931843595
 11
357.322854767
 21
158.0931843595
  0
LINE
  8
0
 62
7
  6
CONTINUOUS
 10
-138.2280784439
 20
158.093667735
 11
-138.4662290835
 21
158.0935970263
  0
LINE
  8
0
 62
7
  6
CONTINUOUS
 10
277.4083891705
 20
168.0931843595
 11
309.7593760222
 21
168.0931843595
  0
LINE
  8
0
 62
7
  6
CONTINUOUS
 10
504.1547192982
 20
174.0931843595
 11
360.1933093075
 21
174.0931843595
  0
LINE
  8
0
 62
7
  6
CONTINUOUS
 10
253.7228264657
 20
164.5474262783
 11
253.7228264657
 21
158.0931843595
  0
LINE
  8
0
 62
7
  6
CONTINUOUS
 10
406.4004425179
 20
565.4717912891
 11
404.9317630759
 21
561.436627686
  0
LINE
  8
0
 62
7
  6
CONTINUOUS
 10
282.8859005619
 20
206.3129480324
 11
-146.0829939117
 21
185.2728412838
  0
LINE
  8
0
 62
7
  6
CONTINUOUS
 10
284.9838789671
 20
182.7602728618
 11
284.9838789671
 21
204.315349416
  0
LINE
  8
0
 62
7
  6
CONTINUOUS
 10
309.7593760222
 20
168.0931843595
 11
309.7593760222
 21
158.0931843595
  0
LINE
  8
0
 62
7
  6
CONTINUOUS
 10
344.3452531748
 20
516.0408271402
 11
343.8227624787
 21
545.97429907
  0
LINE
  8
0
 62
7
  6
CONTINUOUS
 10
353.1943754414
 20
180.9710175145
 11
347.4504405485
 21
510.0408271402
  0
LINE
  8
0
 62
7
  6
CONTINUOUS
 10
358.5482868249
 20
167.0931843595
 11
358.5482868249
 21
165.0931843595
  0
LINE
  8
0
 62
7
  6
CONTINUOUS
 10
386.362707892
 20
-85.5515864591
 11
386.362707892
 21
-263.4068156405
  0
LINE
  8
0
 62
7
  6
CONTINUOUS
 10
386.3626977844
 20
-85.5526437111
 11
386.362707892
 21
-85.5515864591
  0
LINE
  8
0
 62
7
  6
CONTINUOUS
 10
386.3626977844
 20
-85.5526437111
 11
386.4207325022
 21
-83.4513986758
  0
POLYLINE
  8
0
 62
7
  6
CONTINUOUS
 66
1
 70
0
  0
VERTEX
  8
0
 62
7
  6
CONTINUOUS
 10
386.3626884883
 20
-85.5530513183
  0
VERTEX
  8
0
 62
7
  6
CONTINUOUS
 10
386.4776880912
 20
-82.2902417622
  0
VERTEX
  8
0
 62
7
  6
CONTINUOUS
 10
386.6601077474
 20
-78.6274526806
  0
VERTEX
  8
0
 62
7
  6
CONTINUOUS
 10
386.8938723797
 20
-74.8548205115
  0
VERTEX
  8
0
 62
7
  6
CONTINUOUS
 10
387.1800972367
 20
-70.9269551325
  0
VERTEX
  8
0
 62
7
  6
CONTINUOUS
 10
387.5283816641
 20
-66.7658914589
  0
VERTEX
  8
0
 62
7
  6
CONTINUOUS
 10
387.9349946698
 20
-62.4951962723
  0
SEQEND
  0
POLYLINE
  8
0
 62
7
  6
CONTINUOUS
 66
1
 70
0
  0
VERTEX
  8
0
 62
7
  6
CONTINUOUS
 10
389.9087772592
 20
-47.3067135516
  0
VERTEX
  8
0
 62
7
  6
CONTINUOUS
 10
390.17863854
 20
-45.7502947219
  0
VERTEX
  8
0
 62
7
  6
CONTINUOUS
 10
391.1173191223
 20
-40.9998003018
  0
VERTEX
  8
0
 62
7
  6
CONTINUOUS
 10
392.2679641911
 20
-36.1761055661
  0
VERTEX
  8
0
 62
7
  6
CONTINUOUS
 10
393.6483421056
 20
-31.262374575
  0
VERTEX
  8
0
 62
7
  6
CONTINUOUS
 10
395.2261337207
 20
-26.3202050545
  0
VERTEX
  8
0
 62
7
  6
CONTINUOUS
 10
396.9715882012
 20
-21.3411292526
  0
SEQEND
  0
LINE
  8
0
 62
7
  6
CONTINUOUS
 10
390.8591280257
 20
-42.2711446581
 11
391.5673903368
 21
-39.0811530046
  0
POLYLINE
  8
0
 62
7
  6
CONTINUOUS
 66
1
 70
0
  0
VERTEX
  8
0
 62
7
  6
CONTINUOUS
 10
391.5673903368
 20
-39.0811530046
  0
VERTEX
  8
0
 62
7
  6
CONTINUOUS
 10
392.386436647
 20
-35.8084746535
  0
VERTEX
  8
0
 62
7
  6
CONTINUOUS
 10
393.3465163812
 20
-32.3650033653
  0
VERTEX
  8
0
 62
7
  6
CONTINUOUS
 10
394.4454607695
 20
-28.7733819493
  0
VERTEX
  8
0
 62
7
  6
CONTINUOUS
 10
395.6677080086
 20
-25.0693216477
  0
SEQEND
  0
LINE
  8
0
 62
7
  6
CONTINUOUS
 10
507.4814750115
 20
111.881193363
 11
453.1657988181
 21
63.4719254673
  0
LINE
  8
0
 62
7
  6
CONTINUOUS
 10
396.9724575377
 20
-21.3386567833
 11
395.6677080086
 21
-25.0693216477
  0
LINE
  8
0
 62
7
  6
CONTINUOUS
 10
509.1547192982
 20
169.0931843595
 11
509.1547192982
 21
115.6138460957
  0
LINE
  8
0
 62
7
  6
CONTINUOUS
 10
509.1547192982
 20
179.0931843595
 11
509.1547192982
 21
508.0931843595
  0
LINE
  8
0
 62
7
  6
CONTINUOUS
 10
509.1547192982
 20
518.0931843595
 11
509.1547192982
 21
552.4684535171
  0
LINE
  8
0
 62
7
  6
CONTINUOUS
 10
509.1547192982
 20
548.6155723874
 11
509.154712705
 21
548.7930897157
  0
LINE
  8
0
 62
7
  6
CONTINUOUS
 10
412.6917339312
 20
567.6276386683
 11
407.0767271054
 21
566.094455658
  0
LINE
  8
0
 62
7
  6
CONTINUOUS
 10
504.1547192982
 20
513.0931843595
 11
347.3447962603
 21
513.0931843595
  0
POLYLINE
  8
0
 62
7
  6
CONTINUOUS
 66
1
 70
0
  0
VERTEX
  8
0
 62
7
  6
CONTINUOUS
 10
422.2660548942
 20
572.4286903744
  0
VERTEX
  8
0
 62
7
  6
CONTINUOUS
 10
421.4969044976
 20
572.2858783703
  0
VERTEX
  8
0
 62
7
  6
CONTINUOUS
 10
420.6827775771
 20
572.1141821579
  0
VERTEX
  8
0
 62
7
  6
CONTINUOUS
 10
419.8233539063
 20
571.9152122236
  0
VERTEX
  8
0
 62
7
  6
CONTINUOUS
 10
418.9195941647
 20
571.6841371081
  0
VERTEX
  8
0
 62
7
  6
CONTINUOUS
 10
417.9724590317
 20
571.4161253521
  0
VERTEX
  8
0
 62
7
  6
CONTINUOUS
 10
416.9816282809
 20
571.1127874421
  0
SEQEND
  0
POLYLINE
  8
0
 62
7
  6
CONTINUOUS
 66
1
 70
0
  0
VERTEX
  8
0
 62
7
  6
CONTINUOUS
 10
421.9125015036
 20
572.5819131075
  0
VERTEX
  8
0
 62
7
  6
CONTINUOUS
 10
422.0565489992
 20
572.6070799387
  0
VERTEX
  8
0
 62
7
  6
CONTINUOUS
 10
422.2081089873
 20
572.6327044772
  0
VERTEX
  8
0
 62
7
  6
CONTINUOUS
 10
422.3666990416
 20
572.6588277142
  0
VERTEX
  8
0
 62
7
  6
CONTINUOUS
 10
422.5318205166
 20
572.6853266763
  0
VERTEX
  8
0
 62
7
  6
CONTINUOUS
 10
422.7029726466
 20
572.7121245186
  0
VERTEX
  8
0
 62
7
  6
CONTINUOUS
 10
422.8795526939
 20
572.7391238475
  0
VERTEX
  8
0
 62
7
  6
CONTINUOUS
 10
423.0608884532
 20
572.7662230168
  0
VERTEX
  8
0
 62
7
  6
CONTINUOUS
 10
423.2465537484
 20
572.79335794
  0
VERTEX
  8
0
 62
7
  6
CONTINUOUS
 10
423.436421058
 20
572.8205058691
  0
VERTEX
  8
0
 62
7
  6
CONTINUOUS
 10
423.6288838755
 20
572.8474411415
  0
VERTEX
  8
0
 62
7
  6
CONTINUOUS
 10
423.8233440127
 20
572.8740718825
  0
VERTEX
  8
0
 62
7
  6
CONTINUOUS
 10
424.0163999323
 20
572.8999739795
  0
VERTEX
  8
0
 62
7
  6
CONTINUOUS
 10
424.2042734426
 20
572.9246358529
  0
SEQEND
  0
POLYLINE
  8
0
 62
7
  6
CONTINUOUS
 66
1
 70
0
  0
VERTEX
  8
0
 62
7
  6
CONTINUOUS
 10
424.3873752377
 20
572.7433984095
  0
VERTEX
  8
0
 62
7
  6
CONTINUOUS
 10
424.2381402222
 20
572.7241307972
  0
VERTEX
  8
0
 62
7
  6
CONTINUOUS
 10
424.0848845576
 20
572.7039875662
  0
VERTEX
  8
0
 62
7
  6
CONTINUOUS
 10
423.9278697125
 20
572.6829217884
  0
VERTEX
  8
0
 62
7
  6
CONTINUOUS
 10
423.7681971414
 20
572.661074248
  0
VERTEX
  8
0
 62
7
  6
CONTINUOUS
 10
423.6066984792
 20
572.6385095972
  0
VERTEX
  8
0
 62
7
  6
CONTINUOUS
 10
423.444765903
 20
572.6154093035
  0
VERTEX
  8
0
 62
7
  6
CONTINUOUS
 10
423.2838556503
 20
572.5919454234
  0
VERTEX
  8
0
 62
7
  6
CONTINUOUS
 10
423.1246660588
 20
572.5682108413
  0
VERTEX
  8
0
 62
7
  6
CONTINUOUS
 10
422.9678570846
 20
572.5442786619
  0
VERTEX
  8
0
 62
7
  6
CONTINUOUS
 10
422.815034481
 20
572.5203802796
  0
VERTEX
  8
0
 62
7
  6
CONTINUOUS
 10
422.6675465082
 20
572.4967244411
  0
VERTEX
  8
0
 62
7
  6
CONTINUOUS
 10
422.5263110054
 20
572.4734521951
  0
VERTEX
  8
0
 62
7
  6
CONTINUOUS
 10
422.3924481991
 20
572.4508005018
  0
VERTEX
  8
0
 62
7
  6
CONTINUOUS
 10
422.2660548942
 20
572.4286903744
  0
SEQEND
  0
LINE
  8
0
 62
7
  6
CONTINUOUS
 10
424.2042734426
 20
572.9246358529
 11
424.3873752377
 21
572.9482280293
  0
LINE
  8
0
 62
7
  6
CONTINUOUS
 10
412.6917339312
 20
567.6276386683
 11
414.5187241737
 21
567.6276386683
  0
LINE
  8
0
 62
7
  6
CONTINUOUS
 10
453.7907144226
 20
567.6276386683
 11
455.6177046651
 21
567.6276386683
  0
LINE
  8
0
 62
7
  6
CONTINUOUS
 10
414.7605692061
 20
567.715279426
 11
453.5488693902
 21
567.715279426
  0
LINE
  8
0
 62
7
  6
CONTINUOUS
 10
416.9816265918
 20
571.112787279
 11
451.3278120046
 21
571.112787279
  0
LINE
  8
0
 62
7
  6
CONTINUOUS
 10
415.5304863222
 20
571.2902010301
 11
416.6951033536
 21
571.2902010301
  0
LINE
  8
0
 62
7
  6
CONTINUOUS
 10
451.6143352427
 20
571.2902010301
 11
452.7789522741
 21
571.2902010301
  0
LINE
  8
0
 62
7
  6
CONTINUOUS
 10
461.9089960785
 20
565.4717912891
 11
463.3778293705
 21
561.4362049862
  0
POLYLINE
  8
0
 62
7
  6
CONTINUOUS
 66
1
 70
0
  0
VERTEX
  8
0
 62
7
  6
CONTINUOUS
 10
443.9220633586
 20
572.9482283169
  0
VERTEX
  8
0
 62
7
  6
CONTINUOUS
 10
444.1014780044
 20
572.9251201047
  0
VERTEX
  8
0
 62
7
  6
CONTINUOUS
 10
444.2868933005
 20
572.9007893504
  0
VERTEX
  8
0
 62
7
  6
CONTINUOUS
 10
444.4788779985
 20
572.8750481489
  0
VERTEX
  8
0
 62
7
  6
CONTINUOUS
 10
444.6731914056
 20
572.8484602149
  0
VERTEX
  8
0
 62
7
  6
CONTINUOUS
 10
444.8660662277
 20
572.821488128
  0
VERTEX
  8
0
 62
7
  6
CONTINUOUS
 10
445.0567297404
 20
572.7942473874
  0
VERTEX
  8
0
 62
7
  6
CONTINUOUS
 10
445.2433142841
 20
572.7669964567
  0
VERTEX
  8
0
 62
7
  6
CONTINUOUS
 10
445.4256162614
 20
572.7397690217
  0
VERTEX
  8
0
 62
7
  6
CONTINUOUS
 10
445.6030367278
 20
572.7126549044
  0
VERTEX
  8
0
 62
7
  6
CONTINUOUS
 10
445.7749835528
 20
572.6857441598
  0
VERTEX
  8
0
 62
7
  6
CONTINUOUS
 10
445.9408919165
 20
572.6591270433
  0
VERTEX
  8
0
 62
7
  6
CONTINUOUS
 10
446.100201686
 20
572.6328927751
  0
VERTEX
  8
0
 62
7
  6
CONTINUOUS
 10
446.2523728649
 20
572.6071755734
  0
VERTEX
  8
0
 62
7
  6
CONTINUOUS
 10
446.3969370927
 20
572.581930699
  0
SEQEND
  0
POLYLINE
  8
0
 62
7
  6
CONTINUOUS
 66
1
 70
0
  0
VERTEX
  8
0
 62
7
  6
CONTINUOUS
 10
446.0433837022
 20
572.4286903744
  0
VERTEX
  8
0
 62
7
  6
CONTINUOUS
 10
445.9225662677
 20
572.4498350309
  0
VERTEX
  8
0
 62
7
  6
CONTINUOUS
 10
445.7945419814
 20
572.4715429078
  0
VERTEX
  8
0
 62
7
  6
CONTINUOUS
 10
445.659347047
 20
572.493882799
  0
VERTEX
  8
0
 62
7
  6
CONTINUOUS
 10
445.5179238316
 20
572.5166483226
  0
VERTEX
  8
0
 62
7
  6
CONTINUOUS
 10
445.3712903416
 20
572.5396791778
  0
VERTEX
  8
0
 62
7
  6
CONTINUOUS
 10
445.2198526099
 20
572.5629059158
  0
VERTEX
  8
0
 62
7
  6
CONTINUOUS
 10
445.064214139
 20
572.586236597
  0
VERTEX
  8
0
 62
7
  6
CONTINUOUS
 10
444.9049944174
 20
572.6095783937
  0
VERTEX
  8
0
 62
7
  6
CONTINUOUS
 10
444.7426426695
 20
572.6328643988
  0
VERTEX
  8
0
 62
7
  6
CONTINUOUS
 10
444.5783991121
 20
572.6559249119
  0
VERTEX
  8
0
 62
7
  6
CONTINUOUS
 10
444.4134724683
 20
572.6785930306
  0
VERTEX
  8
0
 62
7
  6
CONTINUOUS
 10
444.2485680244
 20
572.700793454
  0
VERTEX
  8
0
 62
7
  6
CONTINUOUS
 10
444.0846372502
 20
572.7223788801
  0
VERTEX
  8
0
 62
7
  6
CONTINUOUS
 10
443.9220633586
 20
572.7433984095
  0
SEQEND
  0
POLYLINE
  8
0
 62
7
  6
CONTINUOUS
 66
1
 70
0
  0
VERTEX
  8
0
 62
7
  6
CONTINUOUS
 10
446.3969370927
 20
572.5819285814
  0
VERTEX
  8
0
 62
7
  6
CONTINUOUS
 10
447.1640209327
 20
572.439678064
  0
VERTEX
  8
0
 62
7
  6
CONTINUOUS
 10
447.9724080178
 20
572.269769284
  0
VERTEX
  8
0
 62
7
  6
CONTINUOUS
 10
448.82239731
 20
572.0736604442
  0
VERTEX
  8
0
 62
7
  6
CONTINUOUS
 10
449.7130919235
 20
571.8469769368
  0
VERTEX
  8
0
 62
7
  6
CONTINUOUS
 10
450.6435949724
 20
571.5853441544
  0
VERTEX
  8
0
 62
7
  6
CONTINUOUS
 10
451.6142054187
 20
571.2902202995
  0
SEQEND
  0
POLYLINE
  8
0
 62
7
  6
CONTINUOUS
 66
1
 70
0
  0
VERTEX
  8
0
 62
7
  6
CONTINUOUS
 10
451.6142054187
 20
571.2902202995
  0
VERTEX
  8
0
 62
7
  6
CONTINUOUS
 10
452.121530003
 20
570.4456764173
  0
VERTEX
  8
0
 62
7
  6
CONTINUOUS
 10
452.6539515066
 20
569.553641399
  0
VERTEX
  8
0
 62
7
  6
CONTINUOUS
 10
453.2114699297
 20
568.6141152447
  0
VERTEX
  8
0
 62
7
  6
CONTINUOUS
 10
453.7940852723
 20
567.6270979542
  0
SEQEND
  0
POLYLINE
  8
0
 62
7
  6
CONTINUOUS
 66
1
 70
0
  0
VERTEX
  8
0
 62
7
  6
CONTINUOUS
 10
453.3297143902
 20
567.7152788049
  0
VERTEX
  8
0
 62
7
  6
CONTINUOUS
 10
452.9716752618
 20
568.3278591711
  0
VERTEX
  8
0
 62
7
  6
CONTINUOUS
 10
452.623367567
 20
568.9219262092
  0
VERTEX
  8
0
 62
7
  6
CONTINUOUS
 10
452.2847688565
 20
569.4974970213
  0
VERTEX
  8
0
 62
7
  6
CONTINUOUS
 10
451.9559464785
 20
570.0545203006
  0
VERTEX
  8
0
 62
7
  6
CONTINUOUS
 10
451.6369677813
 20
570.5929447401
  0
VERTEX
  8
0
 62
7
  6
CONTINUOUS
 10
451.3278103154
 20
571.1127874421
  0
SEQEND
  0
LINE
  8
0
 62
7
  6
CONTINUOUS
 10
455.6177046651
 20
567.6276386683
 11
461.2327114909
 21
566.094455658
  0
POLYLINE
  8
0
 62
7
  6
CONTINUOUS
 66
1
 70
0
  0
VERTEX
  8
0
 62
7
  6
CONTINUOUS
 10
451.3278103154
 20
571.1127874421
  0
VERTEX
  8
0
 62
7
  6
CONTINUOUS
 10
450.3369798064
 20
571.416125285
  0
VERTEX
  8
0
 62
7
  6
CONTINUOUS
 10
449.3898448189
 20
571.6841370043
  0
VERTEX
  8
0
 62
7
  6
CONTINUOUS
 10
448.486085127
 20
571.915212117
  0
VERTEX
  8
0
 62
7
  6
CONTINUOUS
 10
447.6266614088
 20
572.1141820723
  0
VERTEX
  8
0
 62
7
  6
CONTINUOUS
 10
446.8125343425
 20
572.285878319
  0
VERTEX
  8
0
 62
7
  6
CONTINUOUS
 10
446.0433837022
 20
572.4286903744
  0
SEQEND
  0
LINE
  8
0
 62
7
  6
CONTINUOUS
 10
453.7940852723
 20
567.6270979542
 11
453.5488693902
 21
567.715279426
  0
LINE
  8
0
 62
7
  6
CONTINUOUS
 10
452.7789522741
 20
571.2902010301
 11
455.6177046651
 21
567.6276386683
  0
ARC
  8
0
 62
7
  6
CONTINUOUS
 10
585.9841602413
 20
-85.5515864591
 40
199.6214523492
 50
161.2358361959
 51
180.0
  0
ARC
  8
0
 62
7
  6
CONTINUOUS
 10
-36.5814224536
 20
-263.4068156405
 40
5.0
 50
165.7465328096
 51
270.0
  0
ARC
  8
0
 62
7
  6
CONTINUOUS
 10
-145.7400694948
 20
178.2812461264
 40
7.0
 50
92.8114124022
 51
180.0
  0
ARC
  8
0
 62
7
  6
CONTINUOUS
 10
-150.7400694948
 20
160.1250571331
 40
2.0
 50
180.0
 51
270.8877894165
  0
ARC
  8
0
 62
7
  6
CONTINUOUS
 10
434.1329460053
 20
-235.2410704635
 40
797.2189906972
 50
86.1686593124
 51
94.5444649572
  0
ARC
  8
0
 62
7
  6
CONTINUOUS
 10
585.9841602413
 20
-85.5515864591
 40
199.6214523492
 50
179.3978914091
 51
180.0
  0
ARC
  8
0
 62
7
  6
CONTINUOUS
 10
585.9841602413
 20
-85.5515864591
 40
199.6214523492
 50
131.7092697412
 51
168.9628823227
  0
ARC
  8
0
 62
7
  6
CONTINUOUS
 10
504.1547192982
 20
115.6138460957
 40
5.0
 50
311.7092697412
 51
360.0
  0
ARC
  8
0
 62
7
  6
CONTINUOUS
 10
381.362707892
 20
-263.4068156405
 40
5.0
 50
270.0
 51
360.0
  0
ARC
  8
0
 62
7
  6
CONTINUOUS
 10
480.7813718901
 20
461.3226601093
 40
99.095
 50
75.6170534696
 51
86.1686593124
  0
ARC
  8
0
 62
7
  6
CONTINUOUS
 10
378.6225686151
 20
463.1553382959
 40
96.62
 50
94.5444649572
 51
106.6379680138
  0
ARC
  8
0
 62
7
  6
CONTINUOUS
 10
434.1547192982
 20
496.3052286066
 40
77.2632392753
 50
98.8744770456
 51
103.9484663514
  0
ARC
  8
0
 62
7
  6
CONTINUOUS
 10
434.1547192982
 20
496.3052286066
 40
77.2632392753
 50
76.0515336486
 51
81.1255229544
  0
ARC
  8
0
 62
7
  6
CONTINUOUS
 10
434.1547192982
 20
496.3052286066
 40
77.2628656098
 50
82.7374036211
 51
97.2625963789
  0
ARC
  8
0
 62
7
  6
CONTINUOUS
 10
434.1547192982
 20
496.3052286066
 40
77.0596834461
 50
82.7181508037
 51
97.2818491963
  0
ARC
  8
0
 62
7
  6
CONTINUOUS
 10
266.9838789671
 20
182.7602728618
 40
18.0
 50
270.9097451738
 51
360.0
  0
ARC
  8
0
 62
7
  6
CONTINUOUS
 10
353.8212396816
 20
546.1488231387
 40
10.0000000482
 50
106.6379680172
 51
180.9999999996
  0
ARC
  8
0
 62
7
  6
CONTINUOUS
 10
360.1933093075
 20
181.0931843595
 40
7.0
 50
181.0
 51
270.0
  0
ARC
  8
0
 62
7
  6
CONTINUOUS
 10
365.5482868249
 20
167.0931843595
 40
7.0
 50
90.0
 51
180.0
  0
ARC
  8
0
 62
7
  6
CONTINUOUS
 10
351.5482868249
 20
165.0931843595
 40
7.0
 50
270.0
 51
360.0
  0
ARC
  8
0
 62
7
  6
CONTINUOUS
 10
504.1547192982
 20
552.4684535171
 40
5.0
 50
0.0
 51
75.6170534696
  0
ARC
  8
0
 62
7
  6
CONTINUOUS
 10
504.1547192982
 20
518.0931843595
 40
5.0
 50
270.0
 51
360.0
  0
ARC
  8
0
 62
7
  6
CONTINUOUS
 10
504.1547192982
 20
179.0931843595
 40
5.0
 50
270.0
 51
360.0
  0
ARC
  8
0
 62
7
  6
CONTINUOUS
 10
504.1547192982
 20
508.0931843595
 40
5.0
 50
0.0
 51
90.0
  0
ARC
  8
0
 62
7
  6
CONTINUOUS
 10
504.1547192982
 20
169.0931751363
 40
4.9999931616
 50
0.0001056902
 51
90.0
  0
ARC
  8
0
 62
7
  6
CONTINUOUS
 10
347.3447962603
 20
516.0931843595
 40
3.0
 50
181.0000000001
 51
270.0
  0
ARC
  8
0
 62
7
  6
CONTINUOUS
 10
350.449983634
 20
510.0931843595
 40
3.0
 50
90.0
 51
181.0
  0
ARC
  8
0
 62
7
  6
CONTINUOUS
 10
282.9838789671
 20
204.3153490412
 40
1.9999998503
 50
0.0000107369
 51
92.8079984855
  0
ARC
  8
0
 62
7
  6
CONTINUOUS
 10
407.3401351386
 20
565.1297711458
 40
1.0
 50
105.2723793093
 51
160.0
  0
ARC
  8
0
 62
7
  6
CONTINUOUS
 10
460.9693034577
 20
565.1297711458
 40
1.0
 50
20.0
 51
74.7276206907
  0
ENDSEC
  0
EOF
