999
DXF file: K:\Client\125_Heirloom\001\00\Final_Data\Drawings\TOILETS\lofts-172125_3.dxf
999
Pro/ENGINEER 2017110 by Parametric Technology Corporation
  0
SECTION
  2
HEADER
  9
$EXTMAX
 10
420.0
 20
297.0
 30
0.0
  9
$EXTMIN
 10
0.0
 20
0.0
 30
0.0
  9
$LIMMIN
 10
0.0
 20
0.0
  9
$LIMMAX
 10
420.0
 20
297.0
  9
$VIEWCTR
 10
210.0
 20
148.5
  9
$VIEWSIZE
 40
297.0
  9
$CLAYER
  8
0
  9
$LTSCALE
 40
23.1
  9
$CELTYPE
  6
BYLAYER
  9
$DIMSCALE
 40
1.0
  9
$DIMASZ
 40
3.0
  9
$DIMEXO
 40
1.0
  9
$DIMDLI
 40
15.96
  9
$DIMEXE
 40
1.0
  9
$DIMCEN
 40
3.78
  9
$DIMLFAC
 40
1.0
  9
$DIMBLK
  1
_FILLED
  9
$DIMALT
 70
0
  9
$DIMALTF
 40
0.0393700787
  9
$DIMTXT
 40
3.0
  9
$AUNITS
 70
0
  9
$PDMODE
 70
3
  9
$PDSIZE
 40
5.0
  9
$TILEMODE
 70
1
  0
ENDSEC
  0
SECTION
  2
TABLES
  0
TABLE
  2
LTYPE
 70
6
  0
LTYPE
  2
BYBLOCK
 70
0
  3

 72
65
 73
0
 40
0.0
  0
LTYPE
  2
BYLAYER
 70
0
  3

 72
65
 73
0
 40
0.0
  0
LTYPE
  2
CONTINUOUS
 70
64
  3
Solid line
 72
65
 73
0
 40
0.0
  0
LTYPE
  2
CENTER
 70
64
  3
____ _ ____ _ ____ _ ____ _ ____ _ ____ _ ____
 72
65
 73
4
 40
0.6
 49
0.375
 49
-0.075
 49
0.075
 49
-0.075
  0
LTYPE
  2
HIDDEN
 70
64
  3
- - - - - - - - - - - - - - - - - - - -
 72
65
 73
2
 40
0.2
 49
0.1
 49
-0.1
  0
LTYPE
  2
PHANTOM
 70
64
  3
_____ _ _ _____ _ _ _____ _ _ _____
 72
65
 73
6
 40
0.8
 49
0.45
 49
-0.05
 49
0.1
 49
-0.05
 49
0.1
 49
-0.05
  0
LTYPE
  2
DOT
 70
64
  3
. . . . . . . . . . . . . . . . . . . .
 72
65
 73
2
 40
0.2
 49
0.1
 49
-0.1
  0
LTYPE
  2
DASHED
 70
64
  3
- - - - - - - - - - - - - - - - - - - -
 72
65
 73
2
 40
0.2
 49
0.1
 49
-0.1
  0
ENDTAB
  0
TABLE
  2
LAYER
 70
36
  0
LAYER
  2
0
 70
0
 62
7
  6
CONTINUOUS
  0
LAYER
  2
DEFAULT_1
 70
0
 62
7
  6
CENTER
  0
LAYER
  2
DEFAULT_2
 70
0
 62
8
  6
HIDDEN
  0
LAYER
  2
DEFAULT_3
 70
0
 62
7
  6
PHANTOM
  0
LAYER
  2
0000_BOM
 70
0
 62
7
  6
CONTINUOUS
  0
LAYER
  2
0000_REV_TABLE
 70
0
 62
7
  6
CONTINUOUS
  0
LAYER
  2
0000_STEVENS_NOTE
 70
0
 62
7
  6
CONTINUOUS
  0
LAYER
  2
01_DATUM_PLANES
 70
0
 62
7
  6
CONTINUOUS
  0
LAYER
  2
01_DEF_PLANES
 70
0
 62
7
  6
CONTINUOUS
  0
LAYER
  2
02_DATUM_COS
 70
0
 62
7
  6
CONTINUOUS
  0
LAYER
  2
90_IMP_FEAT
 70
0
 62
7
  6
CONTINUOUS
  0
LAYER
  2
95_STL
 70
0
 62
7
  6
CONTINUOUS
  0
LAYER
  2
99_SOLID
 70
0
 62
7
  6
CONTINUOUS
  0
LAYER
  2
CAD-MASTER_ZINC-PL
 70
0
 62
7
  6
CONTINUOUS
  0
LAYER
  2
CURVE
 70
0
 62
7
  6
CONTINUOUS
  0
LAYER
  2
SHELL
 70
0
 62
7
  6
CONTINUOUS
  0
LAYER
  2
SKEL
 70
0
 62
7
  6
CONTINUOUS
  0
LAYER
  2
SKETCH
 70
0
 62
7
  6
CONTINUOUS
  0
LAYER
  2
SURFACE
 70
0
 62
7
  6
CONTINUOUS
  0
ENDTAB
  0
TABLE
  2
STYLE
 70
1
  0
STYLE
  2
STANDARD
 70
0
 40
0.0
 41
0.75
 50
0.0
 71
0
 42
0.2
  3
txt
  4

  0
STYLE
  2
TEXTSTYLE_1
 70
0
 40
0.0
 41
0.8
 50
0.0
 71
0
 42
0.2
  3
gdt
  4

  0
ENDTAB
  0
ENDSEC
  0
SECTION
  2
BLOCKS
  0
BLOCK
  8
0
 62
5
  6
CONTINUOUS
  2
PLUMBING_BL1
 70
64
 10
185.9261348667
 20
359.8678616316
  0
CIRCLE
  8
0
 62
5
  6
CONTINUOUS
 10
185.9261348667
 20
359.8678616316
 40
12.5
  0
LINE
  8
0
 62
5
  6
CONTINUOUS
 10
198.4261348667
 20
372.3678616316
 11
173.4261348667
 21
347.3678616316
  0
LINE
  8
0
 62
5
  6
CONTINUOUS
 10
185.9261348667
 20
359.8678616316
 11
173.4261348667
 21
372.3678616316
  0
LINE
  8
0
 62
5
  6
CONTINUOUS
 10
185.9261348667
 20
359.8678616316
 11
198.4261348667
 21
347.3678616316
  0
ENDBLK
  8
0
  6
BYBLOCK
 62
0
  0
BLOCK
  8
0
 62
1
  6
CONTINUOUS
  2
PLUMBING_BL0
 70
64
 10
186.0326981957
 20
272.6598730378
  0
CIRCLE
  8
0
 62
1
  6
CONTINUOUS
 10
186.0326981957
 20
272.6598730378
 40
12.5
  0
LINE
  8
0
 62
1
  6
CONTINUOUS
 10
198.5326981957
 20
285.1598730378
 11
173.5326981957
 21
260.1598730378
  0
LINE
  8
0
 62
1
  6
CONTINUOUS
 10
186.0326981957
 20
272.6598730378
 11
173.5326981957
 21
285.1598730378
  0
LINE
  8
0
 62
1
  6
CONTINUOUS
 10
186.0326981957
 20
272.6598730378
 11
198.5326981957
 21
260.1598730378
  0
ENDBLK
  8
0
  6
BYBLOCK
 62
0
  0
ENDSEC
  0
SECTION
  2
ENTITIES
  0
INSERT
  8
0
 62
1
  6
CONTINUOUS
  2
PLUMBING_BL0
 10
186.0326981957
 20
272.6598730378
  0
INSERT
  8
0
 62
5
  6
CONTINUOUS
  2
PLUMBING_BL1
 10
185.9261348667
 20
359.8678616316
  0
POLYLINE
  8
0
 62
7
  6
CONTINUOUS
 66
1
 70
0
  0
VERTEX
  8
0
 62
7
  6
CONTINUOUS
 10
5.2932808031
 20
257.5962568657
  0
VERTEX
  8
0
 62
7
  6
CONTINUOUS
 10
5.2587357009
 20
259.7764265062
  0
VERTEX
  8
0
 62
7
  6
CONTINUOUS
 10
5.2151486654
 20
262.4031768083
  0
VERTEX
  8
0
 62
7
  6
CONTINUOUS
 10
5.1665167533
 20
265.2072884402
  0
VERTEX
  8
0
 62
7
  6
CONTINUOUS
 10
5.119111475
 20
267.8402440107
  0
VERTEX
  8
0
 62
7
  6
CONTINUOUS
 10
5.0695237893
 20
270.51213645
  0
VERTEX
  8
0
 62
7
  6
CONTINUOUS
 10
5.0148459548
 20
273.3835019445
  0
VERTEX
  8
0
 62
7
  6
CONTINUOUS
 10
4.9627202722
 20
276.0662232268
  0
VERTEX
  8
0
 62
7
  6
CONTINUOUS
 10
4.9107953759
 20
278.7007742516
  0
VERTEX
  8
0
 62
7
  6
CONTINUOUS
 10
4.8601427805
 20
281.2467808076
  0
VERTEX
  8
0
 62
7
  6
CONTINUOUS
 10
4.8110712216
 20
283.7011593868
  0
VERTEX
  8
0
 62
7
  6
CONTINUOUS
 10
4.7636472931
 20
286.0706996198
  0
VERTEX
  8
0
 62
7
  6
CONTINUOUS
 10
4.7195087278
 20
288.2799724283
  0
VERTEX
  8
0
 62
7
  6
CONTINUOUS
 10
4.6733549186
 20
290.5986446952
  0
VERTEX
  8
0
 62
7
  6
CONTINUOUS
 10
4.6255096994
 20
293.0164794301
  0
VERTEX
  8
0
 62
7
  6
CONTINUOUS
 10
4.582506225
 20
295.2064979819
  0
VERTEX
  8
0
 62
7
  6
CONTINUOUS
 10
4.5410080235
 20
297.3392106712
  0
VERTEX
  8
0
 62
7
  6
CONTINUOUS
 10
4.4953443306
 20
299.7131139657
  0
VERTEX
  8
0
 62
7
  6
CONTINUOUS
 10
4.4433549163
 20
302.4582922577
  0
VERTEX
  8
0
 62
7
  6
CONTINUOUS
 10
4.3887056159
 20
305.4039185008
  0
VERTEX
  8
0
 62
7
  6
CONTINUOUS
 10
4.3387597289
 20
308.1621263928
  0
VERTEX
  8
0
 62
7
  6
CONTINUOUS
 10
4.2945102779
 20
310.6697847907
  0
VERTEX
  8
0
 62
7
  6
CONTINUOUS
 10
4.2495419948
 20
313.2922838156
  0
VERTEX
  8
0
 62
7
  6
CONTINUOUS
 10
4.199979872
 20
316.2824801284
  0
VERTEX
  8
0
 62
7
  6
CONTINUOUS
 10
4.1461631155
 20
319.6581406571
  0
VERTEX
  8
0
 62
7
  6
CONTINUOUS
 10
4.0877843574
 20
323.4853528476
  0
VERTEX
  8
0
 62
7
  6
CONTINUOUS
 10
4.025521755
 20
327.7762325254
  0
VERTEX
  8
0
 62
7
  6
CONTINUOUS
 10
3.966322751
 20
332.0779314756
  0
VERTEX
  8
0
 62
7
  6
CONTINUOUS
 10
3.9569752476
 20
332.7785220559
  0
SEQEND
  0
POLYLINE
  8
0
 62
7
  6
CONTINUOUS
 66
1
 70
0
  0
VERTEX
  8
0
 62
7
  6
CONTINUOUS
 10
368.1084211233
 20
332.7785220099
  0
VERTEX
  8
0
 62
7
  6
CONTINUOUS
 10
368.0564560812
 20
332.7015133113
  0
VERTEX
  8
0
 62
7
  6
CONTINUOUS
 10
367.9063231029
 20
332.4824370508
  0
VERTEX
  8
0
 62
7
  6
CONTINUOUS
 10
367.7538580478
 20
332.2649585878
  0
VERTEX
  8
0
 62
7
  6
CONTINUOUS
 10
367.5990818634
 20
332.0491082884
  0
VERTEX
  8
0
 62
7
  6
CONTINUOUS
 10
367.4420162301
 20
331.8349164749
  0
VERTEX
  8
0
 62
7
  6
CONTINUOUS
 10
367.2826833278
 20
331.6224130835
  0
VERTEX
  8
0
 62
7
  6
CONTINUOUS
 10
367.1211049075
 20
331.4116264683
  0
VERTEX
  8
0
 62
7
  6
CONTINUOUS
 10
366.9573016765
 20
331.2025827543
  0
VERTEX
  8
0
 62
7
  6
CONTINUOUS
 10
366.791294542
 20
330.9953075769
  0
VERTEX
  8
0
 62
7
  6
CONTINUOUS
 10
366.623104632
 20
330.789826128
  0
VERTEX
  8
0
 62
7
  6
CONTINUOUS
 10
366.4527504335
 20
330.5861597876
  0
VERTEX
  8
0
 62
7
  6
CONTINUOUS
 10
366.2802469513
 20
330.3843255254
  0
VERTEX
  8
0
 62
7
  6
CONTINUOUS
 10
366.1056089878
 20
330.1843400708
  0
VERTEX
  8
0
 62
7
  6
CONTINUOUS
 10
365.9288514699
 20
329.9862203016
  0
VERTEX
  8
0
 62
7
  6
CONTINUOUS
 10
365.7499894205
 20
329.7899831938
  0
VERTEX
  8
0
 62
7
  6
CONTINUOUS
 10
365.569038306
 20
329.59564618
  0
VERTEX
  8
0
 62
7
  6
CONTINUOUS
 10
365.3860216658
 20
329.4032350366
  0
VERTEX
  8
0
 62
7
  6
CONTINUOUS
 10
365.2009711706
 20
329.2127830632
  0
VERTEX
  8
0
 62
7
  6
CONTINUOUS
 10
365.0139155552
 20
329.0243192201
  0
VERTEX
  8
0
 62
7
  6
CONTINUOUS
 10
364.8248800503
 20
328.837867957
  0
VERTEX
  8
0
 62
7
  6
CONTINUOUS
 10
364.6338900496
 20
328.6534531321
  0
VERTEX
  8
0
 62
7
  6
CONTINUOUS
 10
364.4409711616
 20
328.4710980822
  0
VERTEX
  8
0
 62
7
  6
CONTINUOUS
 10
364.2461468163
 20
328.2908234452
  0
VERTEX
  8
0
 62
7
  6
CONTINUOUS
 10
364.0494380075
 20
328.1126471742
  0
VERTEX
  8
0
 62
7
  6
CONTINUOUS
 10
363.8508656241
 20
327.936586838
  0
VERTEX
  8
0
 62
7
  6
CONTINUOUS
 10
363.6504505766
 20
327.7626597555
  0
VERTEX
  8
0
 62
7
  6
CONTINUOUS
 10
363.4482134665
 20
327.5908827229
  0
VERTEX
  8
0
 62
7
  6
CONTINUOUS
 10
363.2441745539
 20
327.4212720264
  0
VERTEX
  8
0
 62
7
  6
CONTINUOUS
 10
363.0383541689
 20
327.2538438121
  0
VERTEX
  8
0
 62
7
  6
CONTINUOUS
 10
362.8307734377
 20
327.0886146598
  0
VERTEX
  8
0
 62
7
  6
CONTINUOUS
 10
362.6214697146
 20
326.9256134103
  0
VERTEX
  8
0
 62
7
  6
CONTINUOUS
 10
362.4104957854
 20
326.7648792133
  0
VERTEX
  8
0
 62
7
  6
CONTINUOUS
 10
362.1978788911
 20
326.6064301069
  0
VERTEX
  8
0
 62
7
  6
CONTINUOUS
 10
361.9836191226
 20
326.4502640251
  0
VERTEX
  8
0
 62
7
  6
CONTINUOUS
 10
361.7677285328
 20
326.2963885556
  0
VERTEX
  8
0
 62
7
  6
CONTINUOUS
 10
361.5502340032
 20
326.1448219235
  0
VERTEX
  8
0
 62
7
  6
CONTINUOUS
 10
361.3311633769
 20
325.9955824835
  0
VERTEX
  8
0
 62
7
  6
CONTINUOUS
 10
361.1105446979
 20
325.8486881642
  0
VERTEX
  8
0
 62
7
  6
CONTINUOUS
 10
360.8884051167
 20
325.7041557676
  0
VERTEX
  8
0
 62
7
  6
CONTINUOUS
 10
360.6647707381
 20
325.5620009591
  0
VERTEX
  8
0
 62
7
  6
CONTINUOUS
 10
360.439667733
 20
325.4222390412
  0
VERTEX
  8
0
 62
7
  6
CONTINUOUS
 10
360.2131224053
 20
325.2848850017
  0
VERTEX
  8
0
 62
7
  6
CONTINUOUS
 10
359.9851618894
 20
325.1499539249
  0
VERTEX
  8
0
 62
7
  6
CONTINUOUS
 10
359.7558143467
 20
325.0174610577
  0
VERTEX
  8
0
 62
7
  6
CONTINUOUS
 10
359.5251081698
 20
324.887421305
  0
VERTEX
  8
0
 62
7
  6
CONTINUOUS
 10
359.293072172
 20
324.7598493303
  0
VERTEX
  8
0
 62
7
  6
CONTINUOUS
 10
359.059740324
 20
324.6347620462
  0
VERTEX
  8
0
 62
7
  6
CONTINUOUS
 10
358.8251503367
 20
324.5121775494
  0
VERTEX
  8
0
 62
7
  6
CONTINUOUS
 10
358.5893202257
 20
324.3921031147
  0
VERTEX
  8
0
 62
7
  6
CONTINUOUS
 10
358.3522489843
 20
324.2745368475
  0
VERTEX
  8
0
 62
7
  6
CONTINUOUS
 10
358.113951212
 20
324.1594854121
  0
VERTEX
  8
0
 62
7
  6
CONTINUOUS
 10
357.8744582017
 20
324.046963497
  0
VERTEX
  8
0
 62
7
  6
CONTINUOUS
 10
357.633802138
 20
323.9369856211
  0
VERTEX
  8
0
 62
7
  6
CONTINUOUS
 10
357.3920154778
 20
323.8295658187
  0
VERTEX
  8
0
 62
7
  6
CONTINUOUS
 10
357.1491322002
 20
323.724718169
  0
VERTEX
  8
0
 62
7
  6
CONTINUOUS
 10
356.9051878098
 20
323.6224567159
  0
VERTEX
  8
0
 62
7
  6
CONTINUOUS
 10
356.6602180721
 20
323.5227948822
  0
VERTEX
  8
0
 62
7
  6
CONTINUOUS
 10
356.414258604
 20
323.4257453089
  0
VERTEX
  8
0
 62
7
  6
CONTINUOUS
 10
356.1673385251
 20
323.3313174897
  0
VERTEX
  8
0
 62
7
  6
CONTINUOUS
 10
355.9194807764
 20
323.23951829
  0
VERTEX
  8
0
 62
7
  6
CONTINUOUS
 10
355.670707846
 20
323.1503543393
  0
VERTEX
  8
0
 62
7
  6
CONTINUOUS
 10
355.4210404522
 20
323.0638316113
  0
VERTEX
  8
0
 62
7
  6
CONTINUOUS
 10
355.1704890584
 20
322.9799527363
  0
VERTEX
  8
0
 62
7
  6
CONTINUOUS
 10
354.9190569559
 20
322.8987185741
  0
VERTEX
  8
0
 62
7
  6
CONTINUOUS
 10
354.6667726718
 20
322.8201385267
  0
VERTEX
  8
0
 62
7
  6
CONTINUOUS
 10
354.4136876093
 20
322.7442283798
  0
VERTEX
  8
0
 62
7
  6
CONTINUOUS
 10
354.1598430525
 20
322.6709996715
  0
VERTEX
  8
0
 62
7
  6
CONTINUOUS
 10
353.905269891
 20
322.6004602139
  0
VERTEX
  8
0
 62
7
  6
CONTINUOUS
 10
353.6499986597
 20
322.5326173038
  0
VERTEX
  8
0
 62
7
  6
CONTINUOUS
 10
353.3940597848
 20
322.4674778099
  0
VERTEX
  8
0
 62
7
  6
CONTINUOUS
 10
353.1374805952
 20
322.4050474727
  0
VERTEX
  8
0
 62
7
  6
CONTINUOUS
 10
352.8802853256
 20
322.3453310816
  0
VERTEX
  8
0
 62
7
  6
CONTINUOUS
 10
352.6224979938
 20
322.288333269
  0
VERTEX
  8
0
 62
7
  6
CONTINUOUS
 10
352.3641424399
 20
322.2340585315
  0
VERTEX
  8
0
 62
7
  6
CONTINUOUS
 10
352.1052428332
 20
322.1825113377
  0
VERTEX
  8
0
 62
7
  6
CONTINUOUS
 10
351.8458236972
 20
322.1336961155
  0
VERTEX
  8
0
 62
7
  6
CONTINUOUS
 10
351.5859095774
 20
322.0876171763
  0
VERTEX
  8
0
 62
7
  6
CONTINUOUS
 10
351.3255265277
 20
322.044278954
  0
VERTEX
  8
0
 62
7
  6
CONTINUOUS
 10
351.0647225515
 20
322.0036889963
  0
VERTEX
  8
0
 62
7
  6
CONTINUOUS
 10
350.8035597601
 20
321.9658556919
  0
VERTEX
  8
0
 62
7
  6
CONTINUOUS
 10
350.5420606357
 20
321.9307806033
  0
VERTEX
  8
0
 62
7
  6
CONTINUOUS
 10
350.2802174609
 20
321.8984617102
  0
VERTEX
  8
0
 62
7
  6
CONTINUOUS
 10
350.0180403683
 20
321.8689001803
  0
VERTEX
  8
0
 62
7
  6
CONTINUOUS
 10
349.7555545228
 20
321.8420991393
  0
VERTEX
  8
0
 62
7
  6
CONTINUOUS
 10
349.4927855702
 20
321.8180616158
  0
VERTEX
  8
0
 62
7
  6
CONTINUOUS
 10
349.2297592158
 20
321.7967904852
  0
VERTEX
  8
0
 62
7
  6
CONTINUOUS
 10
348.9665012167
 20
321.7782884672
  0
VERTEX
  8
0
 62
7
  6
CONTINUOUS
 10
348.7030374172
 20
321.7625581332
  0
SEQEND
  0
POLYLINE
  8
0
 62
7
  6
CONTINUOUS
 66
1
 70
0
  0
VERTEX
  8
0
 62
7
  6
CONTINUOUS
 10
368.1084211233
 20
332.7785220099
  0
VERTEX
  8
0
 62
7
  6
CONTINUOUS
 10
368.0990742782
 20
332.0779790633
  0
VERTEX
  8
0
 62
7
  6
CONTINUOUS
 10
368.0398740614
 20
327.7761918238
  0
VERTEX
  8
0
 62
7
  6
CONTINUOUS
 10
367.9775992675
 20
323.4844958863
  0
VERTEX
  8
0
 62
7
  6
CONTINUOUS
 10
367.919203458
 20
319.6562311132
  0
VERTEX
  8
0
 62
7
  6
CONTINUOUS
 10
367.8653722978
 20
316.2797628911
  0
VERTEX
  8
0
 62
7
  6
CONTINUOUS
 10
367.8158209616
 20
313.2888662252
  0
VERTEX
  8
0
 62
7
  6
CONTINUOUS
 10
367.7708155738
 20
310.6657331311
  0
VERTEX
  8
0
 62
7
  6
CONTINUOUS
 10
367.7265446664
 20
308.1569796585
  0
VERTEX
  8
0
 62
7
  6
CONTINUOUS
 10
367.6765649777
 20
305.3970568166
  0
VERTEX
  8
0
 62
7
  6
CONTINUOUS
 10
367.6218946786
 20
302.4504683767
  0
VERTEX
  8
0
 62
7
  6
CONTINUOUS
 10
367.5699014052
 20
299.7052287844
  0
VERTEX
  8
0
 62
7
  6
CONTINUOUS
 10
367.5242386424
 20
297.3314766183
  0
VERTEX
  8
0
 62
7
  6
CONTINUOUS
 10
367.4827280646
 20
295.1982071064
  0
VERTEX
  8
0
 62
7
  6
CONTINUOUS
 10
367.4396877593
 20
293.006389147
  0
VERTEX
  8
0
 62
7
  6
CONTINUOUS
 10
367.3918294534
 20
290.5879663836
  0
VERTEX
  8
0
 62
7
  6
CONTINUOUS
 10
367.3456895483
 20
288.2700414828
  0
VERTEX
  8
0
 62
7
  6
CONTINUOUS
 10
367.3015522812
 20
286.0605158114
  0
VERTEX
  8
0
 62
7
  6
CONTINUOUS
 10
367.2541188339
 20
283.6908507756
  0
VERTEX
  8
0
 62
7
  6
CONTINUOUS
 10
367.2050541261
 20
281.2367856337
  0
VERTEX
  8
0
 62
7
  6
CONTINUOUS
 10
367.1544094993
 20
278.6911102492
  0
VERTEX
  8
0
 62
7
  6
CONTINUOUS
 10
367.102500795
 20
276.0572714507
  0
VERTEX
  8
0
 62
7
  6
CONTINUOUS
 10
367.0503916558
 20
273.3752572772
  0
VERTEX
  8
0
 62
7
  6
CONTINUOUS
 10
366.9957237136
 20
270.5037677131
  0
VERTEX
  8
0
 62
7
  6
CONTINUOUS
 10
366.9461224029
 20
267.8313604418
  0
VERTEX
  8
0
 62
7
  6
CONTINUOUS
 10
366.8986890279
 20
265.1965186176
  0
VERTEX
  8
0
 62
7
  6
CONTINUOUS
 10
366.8500432855
 20
262.3911282097
  0
VERTEX
  8
0
 62
7
  6
CONTINUOUS
 10
366.8064909576
 20
259.7653269117
  0
VERTEX
  8
0
 62
7
  6
CONTINUOUS
 10
366.7721248188
 20
257.5962377707
  0
SEQEND
  0
POLYLINE
  8
0
 62
7
  6
CONTINUOUS
 66
1
 70
0
  0
VERTEX
  8
0
 62
7
  6
CONTINUOUS
 10
23.3623589743
 20
321.7625581332
  0
VERTEX
  8
0
 62
7
  6
CONTINUOUS
 10
23.0988797247
 20
321.7782893127
  0
VERTEX
  8
0
 62
7
  6
CONTINUOUS
 10
22.8356023262
 20
321.7967929741
  0
VERTEX
  8
0
 62
7
  6
CONTINUOUS
 10
22.5725527127
 20
321.8180665049
  0
VERTEX
  8
0
 62
7
  6
CONTINUOUS
 10
22.3097568657
 20
321.8421072838
  0
VERTEX
  8
0
 62
7
  6
CONTINUOUS
 10
22.0472407236
 20
321.8689125223
  0
VERTEX
  8
0
 62
7
  6
CONTINUOUS
 10
21.7850301753
 20
321.8984792661
  0
VERTEX
  8
0
 62
7
  6
CONTINUOUS
 10
21.5231507759
 20
321.9308044341
  0
VERTEX
  8
0
 62
7
  6
CONTINUOUS
 10
21.2616179086
 20
321.9658862182
  0
VERTEX
  8
0
 62
7
  6
CONTINUOUS
 10
21.0004348656
 20
322.0037249156
  0
VERTEX
  8
0
 62
7
  6
CONTINUOUS
 10
20.7396256867
 20
322.0443182855
  0
VERTEX
  8
0
 62
7
  6
CONTINUOUS
 10
20.4792415793
 20
322.0876593304
  0
VERTEX
  8
0
 62
7
  6
CONTINUOUS
 10
20.2193238852
 20
322.1337415874
  0
VERTEX
  8
0
 62
7
  6
CONTINUOUS
 10
19.9598986801
 20
322.182560701
  0
VERTEX
  8
0
 62
7
  6
CONTINUOUS
 10
19.7009909533
 20
322.2341123498
  0
VERTEX
  8
0
 62
7
  6
CONTINUOUS
 10
19.4426256368
 20
322.288392083
  0
VERTEX
  8
0
 62
7
  6
CONTINUOUS
 10
19.1848274371
 20
322.3453953606
  0
VERTEX
  8
0
 62
7
  6
CONTINUOUS
 10
18.9276211229
 20
322.4051175021
  0
VERTEX
  8
0
 62
7
  6
CONTINUOUS
 10
18.6710320916
 20
322.4675535479
  0
VERTEX
  8
0
 62
7
  6
CONTINUOUS
 10
18.4150859577
 20
322.5326983189
  0
VERTEX
  8
0
 62
7
  6
CONTINUOUS
 10
18.1598118628
 20
322.6005455032
  0
VERTEX
  8
0
 62
7
  6
CONTINUOUS
 10
17.9052422878
 20
322.6710875072
  0
VERTEX
  8
0
 62
7
  6
CONTINUOUS
 10
17.6514056668
 20
322.7443174342
  0
VERTEX
  8
0
 62
7
  6
CONTINUOUS
 10
17.3983267045
 20
322.8202292132
  0
VERTEX
  8
0
 62
7
  6
CONTINUOUS
 10
17.146045199
 20
322.8988118382
  0
VERTEX
  8
0
 62
7
  6
CONTINUOUS
 10
16.8946160905
 20
322.9800484719
  0
VERTEX
  8
0
 62
7
  6
CONTINUOUS
 10
16.6440685209
 20
323.0639294902
  0
VERTEX
  8
0
 62
7
  6
CONTINUOUS
 10
16.3944030856
 20
323.1504549478
  0
VERTEX
  8
0
 62
7
  6
CONTINUOUS
 10
16.1456290922
 20
323.2396226939
  0
VERTEX
  8
0
 62
7
  6
CONTINUOUS
 10
15.8977683062
 20
323.331426467
  0
VERTEX
  8
0
 62
7
  6
CONTINUOUS
 10
15.6508447791
 20
323.4258591109
  0
VERTEX
  8
0
 62
7
  6
CONTINUOUS
 10
15.4048829069
 20
323.5229132012
  0
VERTEX
  8
0
 62
7
  6
CONTINUOUS
 10
15.1599122882
 20
323.6225790158
  0
VERTEX
  8
0
 62
7
  6
CONTINUOUS
 10
14.9159679803
 20
323.7248441004
  0
VERTEX
  8
0
 62
7
  6
CONTINUOUS
 10
14.6730850555
 20
323.8296953038
  0
VERTEX
  8
0
 62
7
  6
CONTINUOUS
 10
14.4312982753
 20
323.9371189086
  0
VERTEX
  8
0
 62
7
  6
CONTINUOUS
 10
14.1906415311
 20
324.0471008952
  0
VERTEX
  8
0
 62
7
  6
CONTINUOUS
 10
13.9511478417
 20
324.1596269825
  0
VERTEX
  8
0
 62
7
  6
CONTINUOUS
 10
13.7128498896
 20
324.2746824066
  0
VERTEX
  8
0
 62
7
  6
CONTINUOUS
 10
13.4757793204
 20
324.3922522788
  0
VERTEX
  8
0
 62
7
  6
CONTINUOUS
 10
13.2399498304
 20
324.5123303627
  0
VERTEX
  8
0
 62
7
  6
CONTINUOUS
 10
13.0053587317
 20
324.6349194443
  0
VERTEX
  8
0
 62
7
  6
CONTINUOUS
 10
12.7720250822
 20
324.7600117588
  0
VERTEX
  8
0
 62
7
  6
CONTINUOUS
 10
12.5399899179
 20
324.8875873916
  0
VERTEX
  8
0
 62
7
  6
CONTINUOUS
 10
12.3092883881
 20
325.0176286511
  0
VERTEX
  8
0
 62
7
  6
CONTINUOUS
 10
12.0799480595
 20
325.1501214436
  0
VERTEX
  8
0
 62
7
  6
CONTINUOUS
 10
11.8519958945
 20
325.2850516095
  0
VERTEX
  8
0
 62
7
  6
CONTINUOUS
 10
11.6254586309
 20
325.422404723
  0
VERTEX
  8
0
 62
7
  6
CONTINUOUS
 10
11.4003629461
 20
325.5621659978
  0
VERTEX
  8
0
 62
7
  6
CONTINUOUS
 10
11.1767354843
 20
325.7043202597
  0
VERTEX
  8
0
 62
7
  6
CONTINUOUS
 10
10.9546026947
 20
325.8488520403
  0
VERTEX
  8
0
 62
7
  6
CONTINUOUS
 10
10.7339908764
 20
325.9957455476
  0
VERTEX
  8
0
 62
7
  6
CONTINUOUS
 10
10.5149274108
 20
326.1449838144
  0
VERTEX
  8
0
 62
7
  6
CONTINUOUS
 10
10.2974405962
 20
326.2965487153
  0
VERTEX
  8
0
 62
7
  6
CONTINUOUS
 10
10.0815584472
 20
326.4504217407
  0
VERTEX
  8
0
 62
7
  6
CONTINUOUS
 10
9.8673078495
 20
326.6065846213
  0
VERTEX
  8
0
 62
7
  6
CONTINUOUS
 10
9.6546991731
 20
326.7650309958
  0
VERTEX
  8
0
 62
7
  6
CONTINUOUS
 10
9.4437296862
 20
326.9257651485
  0
VERTEX
  8
0
 62
7
  6
CONTINUOUS
 10
9.2344276356
 20
327.0887684389
  0
VERTEX
  8
0
 62
7
  6
CONTINUOUS
 10
9.0268502656
 20
327.2539982724
  0
VERTEX
  8
0
 62
7
  6
CONTINUOUS
 10
8.8210366936
 20
327.42142427
  0
VERTEX
  8
0
 62
7
  6
CONTINUOUS
 10
8.6170070736
 20
327.5910304826
  0
VERTEX
  8
0
 62
7
  6
CONTINUOUS
 10
8.4147806166
 20
327.7628015848
  0
VERTEX
  8
0
 62
7
  6
CONTINUOUS
 10
8.2143764475
 20
327.9367222036
  0
VERTEX
  8
0
 62
7
  6
CONTINUOUS
 10
8.0158142148
 20
328.112776375
  0
VERTEX
  8
0
 62
7
  6
CONTINUOUS
 10
7.8191140864
 20
328.2909474927
  0
VERTEX
  8
0
 62
7
  6
CONTINUOUS
 10
7.6242965772
 20
328.4712184144
  0
VERTEX
  8
0
 62
7
  6
CONTINUOUS
 10
7.4313825317
 20
328.6535714317
  0
VERTEX
  8
0
 62
7
  6
CONTINUOUS
 10
7.2403956027
 20
328.8379858049
  0
VERTEX
  8
0
 62
7
  6
CONTINUOUS
 10
7.0513619501
 20
329.0244377545
  0
VERTEX
  8
0
 62
7
  6
CONTINUOUS
 10
6.8643074723
 20
329.2129029842
  0
VERTEX
  8
0
 62
7
  6
CONTINUOUS
 10
6.6792578838
 20
329.4033565884
  0
VERTEX
  8
0
 62
7
  6
CONTINUOUS
 10
6.4962431922
 20
329.595768271
  0
VERTEX
  8
0
 62
7
  6
CONTINUOUS
 10
6.3152970143
 20
329.7901025505
  0
VERTEX
  8
0
 62
7
  6
CONTINUOUS
 10
6.1364433505
 20
329.9863329305
  0
VERTEX
  8
0
 62
7
  6
CONTINUOUS
 10
5.9596966633
 20
330.1844428648
  0
VERTEX
  8
0
 62
7
  6
CONTINUOUS
 10
5.7850707936
 20
330.3844165565
  0
VERTEX
  8
0
 62
7
  6
CONTINUOUS
 10
5.6125793915
 20
330.5862385286
  0
VERTEX
  8
0
 62
7
  6
CONTINUOUS
 10
5.4422361727
 20
330.7898933433
  0
VERTEX
  8
0
 62
7
  6
CONTINUOUS
 10
5.2740552403
 20
330.995365204
  0
VERTEX
  8
0
 62
7
  6
CONTINUOUS
 10
5.1080548473
 20
331.2026331639
  0
VERTEX
  8
0
 62
7
  6
CONTINUOUS
 10
4.9442564005
 20
331.4116718373
  0
VERTEX
  8
0
 62
7
  6
CONTINUOUS
 10
4.7826810787
 20
331.6224553829
  0
VERTEX
  8
0
 62
7
  6
CONTINUOUS
 10
4.6233498686
 20
331.8349574366
  0
VERTEX
  8
0
 62
7
  6
CONTINUOUS
 10
4.4662851078
 20
332.0491489577
  0
VERTEX
  8
0
 62
7
  6
CONTINUOUS
 10
4.3115097273
 20
332.2649990256
  0
VERTEX
  8
0
 62
7
  6
CONTINUOUS
 10
4.1590461091
 20
332.4824763144
  0
VERTEX
  8
0
 62
7
  6
CONTINUOUS
 10
4.0089158036
 20
332.7015495076
  0
VERTEX
  8
0
 62
7
  6
CONTINUOUS
 10
3.9569752476
 20
332.7785220559
  0
SEQEND
  0
LINE
  8
0
 62
7
  6
CONTINUOUS
 10
-0.1704898609
 20
344.3090863924
 11
-0.2842387612
 21
346.5155682031
  0
LINE
  8
0
 62
7
  6
CONTINUOUS
 10
8.5535627956
 20
21.433438821
 11
4.9590640292
 21
256.4584480599
  0
POLYLINE
  8
0
 62
7
  6
CONTINUOUS
 66
1
 70
0
  0
VERTEX
  8
0
 62
7
  6
CONTINUOUS
 10
-0.2842365017
 20
346.5155685422
  0
VERTEX
  8
0
 62
7
  6
CONTINUOUS
 10
-0.2810571657
 20
346.2586559203
  0
VERTEX
  8
0
 62
7
  6
CONTINUOUS
 10
-0.269880246
 20
345.830559733
  0
VERTEX
  8
0
 62
7
  6
CONTINUOUS
 10
-0.251361181
 20
345.4027317722
  0
VERTEX
  8
0
 62
7
  6
CONTINUOUS
 10
-0.2255075945
 20
344.9752970294
  0
VERTEX
  8
0
 62
7
  6
CONTINUOUS
 10
-0.1923270372
 20
344.548380501
  0
VERTEX
  8
0
 62
7
  6
CONTINUOUS
 10
-0.1703893373
 20
344.3079250875
  0
SEQEND
  0
LINE
  8
0
 62
7
  6
CONTINUOUS
 10
-0.2842387614
 20
346.5155682347
 11
-1.2329067345
 21
477.6236951455
  0
LINE
  8
0
 62
7
  6
CONTINUOUS
 10
187.2981181758
 20
419.9020908324
 11
194.6952663553
 21
427.2992390119
  0
LINE
  8
0
 62
7
  6
CONTINUOUS
 10
194.9380022544
 20
426.8348681298
 11
187.6516715664
 21
419.5485374418
  0
LINE
  8
0
 62
7
  6
CONTINUOUS
 10
-0.1704888899
 20
344.3090864074
 11
-0.1703893519
 21
344.3079252388
  0
POLYLINE
  8
0
 62
7
  6
CONTINUOUS
 66
1
 70
0
  0
VERTEX
  8
0
 62
7
  6
CONTINUOUS
 10
-0.170391048
 20
344.307924948
  0
VERTEX
  8
0
 62
7
  6
CONTINUOUS
 10
-0.0399120892
 20
343.207450643
  0
VERTEX
  8
0
 62
7
  6
CONTINUOUS
 10
0.1715150825
 20
341.9445331002
  0
VERTEX
  8
0
 62
7
  6
CONTINUOUS
 10
0.4475393259
 20
340.6937005112
  0
VERTEX
  8
0
 62
7
  6
CONTINUOUS
 10
0.7875063499
 20
339.4583562586
  0
VERTEX
  8
0
 62
7
  6
CONTINUOUS
 10
1.1905206358
 20
338.2419557552
  0
VERTEX
  8
0
 62
7
  6
CONTINUOUS
 10
1.655514485
 20
337.0476189638
  0
VERTEX
  8
0
 62
7
  6
CONTINUOUS
 10
2.1813162976
 20
335.8785971137
  0
VERTEX
  8
0
 62
7
  6
CONTINUOUS
 10
2.7665910785
 20
334.7379236135
  0
VERTEX
  8
0
 62
7
  6
CONTINUOUS
 10
3.4097567099
 20
333.6287090083
  0
VERTEX
  8
0
 62
7
  6
CONTINUOUS
 10
4.1091625942
 20
332.5538867803
  0
VERTEX
  8
0
 62
7
  6
CONTINUOUS
 10
4.8628968044
 20
331.5163623477
  0
VERTEX
  8
0
 62
7
  6
CONTINUOUS
 10
5.6689141225
 20
330.518866838
  0
VERTEX
  8
0
 62
7
  6
CONTINUOUS
 10
6.5251234263
 20
329.5641278877
  0
VERTEX
  8
0
 62
7
  6
CONTINUOUS
 10
7.429148784
 20
328.6546341255
  0
VERTEX
  8
0
 62
7
  6
CONTINUOUS
 10
8.3785954134
 20
327.7927811498
  0
VERTEX
  8
0
 62
7
  6
CONTINUOUS
 10
9.3707818526
 20
326.9809776706
  0
VERTEX
  8
0
 62
7
  6
CONTINUOUS
 10
10.402961923
 20
326.221342589
  0
VERTEX
  8
0
 62
7
  6
CONTINUOUS
 10
11.4722569387
 20
325.5158818
  0
VERTEX
  8
0
 62
7
  6
CONTINUOUS
 10
12.5757878403
 20
324.8663648955
  0
VERTEX
  8
0
 62
7
  6
CONTINUOUS
 10
13.7104984933
 20
324.2744747526
  0
VERTEX
  8
0
 62
7
  6
CONTINUOUS
 10
14.8734107516
 20
323.7416208852
  0
VERTEX
  8
0
 62
7
  6
CONTINUOUS
 10
16.0614123924
 20
323.2690559783
  0
VERTEX
  8
0
 62
7
  6
CONTINUOUS
 10
17.2715461008
 20
322.8579057912
  0
VERTEX
  8
0
 62
7
  6
CONTINUOUS
 10
18.5006022206
 20
322.5091426648
  0
VERTEX
  8
0
 62
7
  6
CONTINUOUS
 10
19.745575277
 20
322.22353831
  0
VERTEX
  8
0
 62
7
  6
CONTINUOUS
 10
21.0031194394
 20
322.001812802
  0
VERTEX
  8
0
 62
7
  6
CONTINUOUS
 10
22.2697852129
 20
321.8444938986
  0
VERTEX
  8
0
 62
7
  6
CONTINUOUS
 10
23.3582831082
 20
321.7612641977
  0
SEQEND
  0
LINE
  8
0
 62
7
  6
CONTINUOUS
 10
186.27299191
 20
397.8925289773
 11
186.27299191
 21
417.4272170982
  0
LINE
  8
0
 62
7
  6
CONTINUOUS
 10
186.77299191
 20
417.4272170982
 11
186.77299191
 21
397.8925289773
  0
LINE
  8
0
 62
7
  6
CONTINUOUS
 10
6.9588301604
 20
258.4890327067
 11
365.1065662311
 21
258.4890327067
  0
LINE
  8
0
 62
7
  6
CONTINUOUS
 10
367.1063323623
 20
256.4584480599
 11
363.5118335959
 21
21.433438821
  0
LINE
  8
0
 62
7
  6
CONTINUOUS
 10
372.2357858625
 20
344.3079259407
 11
372.2358854034
 21
344.309087139
  0
POLYLINE
  8
0
 62
7
  6
CONTINUOUS
 66
1
 70
0
  0
VERTEX
  8
0
 62
7
  6
CONTINUOUS
 10
372.2357858625
 20
344.3079259407
  0
VERTEX
  8
0
 62
7
  6
CONTINUOUS
 10
372.2577289103
 20
344.5484442972
  0
VERTEX
  8
0
 62
7
  6
CONTINUOUS
 10
372.2909062896
 20
344.9753320132
  0
VERTEX
  8
0
 62
7
  6
CONTINUOUS
 10
372.316757742
 20
345.4027376932
  0
VERTEX
  8
0
 62
7
  6
CONTINUOUS
 10
372.3352757265
 20
345.8305362391
  0
VERTEX
  8
0
 62
7
  6
CONTINUOUS
 10
372.3464526537
 20
346.2586025303
  0
VERTEX
  8
0
 62
7
  6
CONTINUOUS
 10
372.3496306482
 20
346.5152377745
  0
SEQEND
  0
POLYLINE
  8
0
 62
7
  6
CONTINUOUS
 66
1
 70
0
  0
VERTEX
  8
0
 62
7
  6
CONTINUOUS
 10
348.7071091972
 20
321.7612717116
  0
VERTEX
  8
0
 62
7
  6
CONTINUOUS
 10
349.7964417392
 20
321.8445793315
  0
VERTEX
  8
0
 62
7
  6
CONTINUOUS
 10
351.0579928482
 20
322.0011696043
  0
VERTEX
  8
0
 62
7
  6
CONTINUOUS
 10
352.3104758521
 20
322.2216457032
  0
VERTEX
  8
0
 62
7
  6
CONTINUOUS
 10
353.55046016
 20
322.5054747451
  0
VERTEX
  8
0
 62
7
  6
CONTINUOUS
 10
354.7746507822
 20
322.8519378162
  0
VERTEX
  8
0
 62
7
  6
CONTINUOUS
 10
355.9800753204
 20
323.2602591762
  0
VERTEX
  8
0
 62
7
  6
CONTINUOUS
 10
357.1635509895
 20
323.7294819348
  0
VERTEX
  8
0
 62
7
  6
CONTINUOUS
 10
358.3221716104
 20
324.2584854996
  0
VERTEX
  8
0
 62
7
  6
CONTINUOUS
 10
359.4528454942
 20
324.8460156553
  0
VERTEX
  8
0
 62
7
  6
CONTINUOUS
 10
360.5526313457
 20
325.4906746059
  0
VERTEX
  8
0
 62
7
  6
CONTINUOUS
 10
361.6185259443
 20
326.1908013057
  0
VERTEX
  8
0
 62
7
  6
CONTINUOUS
 10
362.6477111087
 20
326.9446572774
  0
VERTEX
  8
0
 62
7
  6
CONTINUOUS
 10
363.637358347
 20
327.7502770487
  0
VERTEX
  8
0
 62
7
  6
CONTINUOUS
 10
364.5847643731
 20
328.605566936
  0
VERTEX
  8
0
 62
7
  6
CONTINUOUS
 10
365.4872818395
 20
329.5081744516
  0
VERTEX
  8
0
 62
7
  6
CONTINUOUS
 10
366.3425687979
 20
330.4557597631
  0
VERTEX
  8
0
 62
7
  6
CONTINUOUS
 10
367.1482836174
 20
331.4458784853
  0
VERTEX
  8
0
 62
7
  6
CONTINUOUS
 10
367.9023522277
 20
332.475878431
  0
VERTEX
  8
0
 62
7
  6
CONTINUOUS
 10
368.6027639307
 20
333.5430800213
  0
VERTEX
  8
0
 62
7
  6
CONTINUOUS
 10
369.2476126945
 20
334.6446359712
  0
VERTEX
  8
0
 62
7
  6
CONTINUOUS
 10
369.8352467107
 20
335.7776639621
  0
VERTEX
  8
0
 62
7
  6
CONTINUOUS
 10
370.3640876752
 20
336.9390995061
  0
VERTEX
  8
0
 62
7
  6
CONTINUOUS
 10
370.8327805016
 20
338.1259428278
  0
VERTEX
  8
0
 62
7
  6
CONTINUOUS
 10
371.2401536249
 20
339.334983619
  0
VERTEX
  8
0
 62
7
  6
CONTINUOUS
 10
371.5851344638
 20
340.5631344903
  0
VERTEX
  8
0
 62
7
  6
CONTINUOUS
 10
371.8668133673
 20
341.8070057372
  0
VERTEX
  8
0
 62
7
  6
CONTINUOUS
 10
372.0845182627
 20
343.0632060714
  0
VERTEX
  8
0
 62
7
  6
CONTINUOUS
 10
372.2357880418
 20
344.307930735
  0
SEQEND
  0
POLYLINE
  8
0
 62
7
  6
CONTINUOUS
 66
1
 70
0
  0
VERTEX
  8
0
 62
7
  6
CONTINUOUS
 10
23.3582824825
 20
321.7612544559
  0
VERTEX
  8
0
 62
7
  6
CONTINUOUS
 10
46.4237560696
 20
320.5917280021
  0
VERTEX
  8
0
 62
7
  6
CONTINUOUS
 10
69.6937774896
 20
319.5932884661
  0
VERTEX
  8
0
 62
7
  6
CONTINUOUS
 10
92.9543419986
 20
318.7771024716
  0
VERTEX
  8
0
 62
7
  6
CONTINUOUS
 10
116.2172909131
 20
318.1424276609
  0
VERTEX
  8
0
 62
7
  6
CONTINUOUS
 10
139.4817638975
 20
317.6891444331
  0
VERTEX
  8
0
 62
7
  6
CONTINUOUS
 10
162.7472745766
 20
317.417152227
  0
VERTEX
  8
0
 62
7
  6
CONTINUOUS
 10
186.0181059872
 20
317.3263934089
  0
VERTEX
  8
0
 62
7
  6
CONTINUOUS
 10
209.2892700247
 20
317.4169299866
  0
VERTEX
  8
0
 62
7
  6
CONTINUOUS
 10
232.5557569357
 20
317.6887093136
  0
VERTEX
  8
0
 62
7
  6
CONTINUOUS
 10
255.8218762487
 20
318.1418166476
  0
VERTEX
  8
0
 62
7
  6
CONTINUOUS
 10
279.0871060554
 20
318.7763578559
  0
VERTEX
  8
0
 62
7
  6
CONTINUOUS
 10
302.3506046931
 20
319.5924680835
  0
VERTEX
  8
0
 62
7
  6
CONTINUOUS
 10
325.6242310566
 20
320.590913277
  0
VERTEX
  8
0
 62
7
  6
CONTINUOUS
 10
348.7071142242
 20
321.7612573561
  0
SEQEND
  0
LINE
  8
0
 62
7
  6
CONTINUOUS
 10
194.6952663553
 20
388.0205070636
 11
187.2981181758
 21
395.4176552432
  0
LINE
  8
0
 62
7
  6
CONTINUOUS
 10
187.6516715664
 20
395.7712086338
 11
194.9380022544
 21
388.4848779458
  0
LINE
  8
0
 62
7
  6
CONTINUOUS
 10
372.3496351527
 20
346.5155682014
 11
372.3496327498
 21
346.515236417
  0
LINE
  8
0
 62
7
  6
CONTINUOUS
 10
373.298303126
 20
477.6236951455
 11
372.3496351529
 21
346.5155682347
  0
POLYLINE
  8
0
 62
7
  6
CONTINUOUS
 66
1
 70
0
  0
VERTEX
  8
0
 62
7
  6
CONTINUOUS
 10
372.3496327498
 20
346.515236417
  0
VERTEX
  8
0
 62
7
  6
CONTINUOUS
 10
372.3442528192
 20
346.1472858571
  0
VERTEX
  8
0
 62
7
  6
CONTINUOUS
 10
372.3334359267
 20
345.7790959447
  0
VERTEX
  8
0
 62
7
  6
CONTINUOUS
 10
372.3171839429
 20
345.4110447681
  0
VERTEX
  8
0
 62
7
  6
CONTINUOUS
 10
372.2955044994
 20
345.0433139571
  0
VERTEX
  8
0
 62
7
  6
CONTINUOUS
 10
372.2684124009
 20
344.676084717
  0
VERTEX
  8
0
 62
7
  6
CONTINUOUS
 10
372.235916638
 20
344.3094026965
  0
SEQEND
  0
LINE
  8
0
 62
7
  6
CONTINUOUS
 10
3.7669623798
 20
482.6598730378
 11
368.2984340117
 21
482.6598730378
  0
ARC
  8
0
 62
7
  6
CONTINUOUS
 10
6.9588301604
 20
256.4890327067
 40
2.0
 50
90.0
 51
146.3848286194
  0
ARC
  8
0
 62
7
  6
CONTINUOUS
 10
365.1065638914
 20
256.4890327067
 40
1.9999990642
 50
33.614532325
 51
89.9999329716
  0
ARC
  8
0
 62
7
  6
CONTINUOUS
 10
116.4452215742
 20
25.2121032065
 40
247.0955059899
 50
333.0062567724
 51
359.1237802572
  0
ARC
  8
0
 62
7
  6
CONTINUOUS
 10
108.7926914643
 20
255.2462549836
 40
28.0182747782
 50
6.6478214989
 51
173.3522779937
  0
ARC
  8
0
 62
7
  6
CONTINUOUS
 10
3.7669623798
 20
477.6598730378
 40
5.0
 50
90.0
 51
180.4145717258
  0
ARC
  8
0
 62
7
  6
CONTINUOUS
 10
6.9588301636
 20
256.4890324987
 40
2.0
 50
90.0000000911
 51
180.8762137833
  0
ARC
  8
0
 62
7
  6
CONTINUOUS
 10
255.6201748173
 20
25.2121032065
 40
247.0955059899
 50
180.8762197428
 51
206.9937432276
  0
ARC
  8
0
 62
7
  6
CONTINUOUS
 10
186.0326981957
 20
-10.2349157551
 40
169.0
 50
206.9937432276
 51
333.0062567724
  0
ARC
  8
0
 62
7
  6
CONTINUOUS
 10
263.2727049272
 20
255.2462549836
 40
28.0182747782
 50
6.6478214989
 51
173.3522779937
  0
ARC
  8
0
 62
7
  6
CONTINUOUS
 10
186.0326981957
 20
407.6598730378
 40
21.462985367
 50
66.1882883411
 51
293.8117116589
  0
ARC
  8
0
 62
7
  6
CONTINUOUS
 10
186.0326981957
 20
407.6598730378
 40
21.1420168659
 50
293.4615672859
 51
66.5384327141
  0
ARC
  8
0
 62
7
  6
CONTINUOUS
 10
186.0326981957
 20
407.6598730378
 40
18.624232976
 50
69.6305396407
 51
290.3694603593
  0
ARC
  8
0
 62
7
  6
CONTINUOUS
 10
186.0326981957
 20
407.6598730378
 40
18.5087010099
 50
291.8995941767
 51
68.1004058233
  0
ARC
  8
0
 62
7
  6
CONTINUOUS
 10
368.2984340117
 20
477.6598730378
 40
5.0
 50
359.5854282742
 51
90.0
  0
ARC
  8
0
 62
7
  6
CONTINUOUS
 10
189.77299191
 20
397.8925289773
 40
3.5
 50
180.0
 51
225.0
  0
ARC
  8
0
 62
7
  6
CONTINUOUS
 10
189.77299191
 20
417.4272170982
 40
3.5
 50
135.0
 51
180.0
  0
ARC
  8
0
 62
7
  6
CONTINUOUS
 10
189.77299191
 20
417.4272170982
 40
3.0
 50
135.0
 51
180.0
  0
ARC
  8
0
 62
7
  6
CONTINUOUS
 10
189.77299191
 20
397.8925289773
 40
3.0
 50
180.0
 51
225.0
  0
ARC
  8
0
 62
7
  6
CONTINUOUS
 10
365.1065638914
 20
256.4890327067
 40
1.9999990642
 50
359.1237812822
 51
89.9999329716
  0
ENDSEC
  0
EOF
