999
DXF file: K:\Client\125_Heirloom\001\00\Final_Data\Drawings\TOILETS\loftwf-373110s_1.dxf
999
Pro/ENGINEER 2017110 by Parametric Technology Corporation
  0
SECTION
  2
HEADER
  9
$EXTMAX
 10
420.0
 20
297.0
 30
0.0
  9
$EXTMIN
 10
0.0
 20
0.0
 30
0.0
  9
$LIMMIN
 10
0.0
 20
0.0
  9
$LIMMAX
 10
420.0
 20
297.0
  9
$VIEWCTR
 10
210.0
 20
148.5
  9
$VIEWSIZE
 40
297.0
  9
$CLAYER
  8
0
  9
$LTSCALE
 40
23.1
  9
$CELTYPE
  6
BYLAYER
  9
$DIMSCALE
 40
1.0
  9
$DIMASZ
 40
3.0
  9
$DIMEXO
 40
1.0
  9
$DIMDLI
 40
15.96
  9
$DIMEXE
 40
1.0
  9
$DIMCEN
 40
3.78
  9
$DIMLFAC
 40
1.0
  9
$DIMBLK
  1
_FILLED
  9
$DIMALT
 70
0
  9
$DIMALTF
 40
0.0393700787
  9
$DIMTXT
 40
3.0
  9
$AUNITS
 70
0
  9
$PDMODE
 70
3
  9
$PDSIZE
 40
5.0
  9
$TILEMODE
 70
1
  0
ENDSEC
  0
SECTION
  2
TABLES
  0
TABLE
  2
LTYPE
 70
6
  0
LTYPE
  2
BYBLOCK
 70
0
  3

 72
65
 73
0
 40
0.0
  0
LTYPE
  2
BYLAYER
 70
0
  3

 72
65
 73
0
 40
0.0
  0
LTYPE
  2
CONTINUOUS
 70
64
  3
Solid line
 72
65
 73
0
 40
0.0
  0
LTYPE
  2
CENTER
 70
64
  3
____ _ ____ _ ____ _ ____ _ ____ _ ____ _ ____
 72
65
 73
4
 40
0.6
 49
0.375
 49
-0.075
 49
0.075
 49
-0.075
  0
LTYPE
  2
HIDDEN
 70
64
  3
- - - - - - - - - - - - - - - - - - - -
 72
65
 73
2
 40
0.2
 49
0.1
 49
-0.1
  0
LTYPE
  2
PHANTOM
 70
64
  3
_____ _ _ _____ _ _ _____ _ _ _____
 72
65
 73
6
 40
0.8
 49
0.45
 49
-0.05
 49
0.1
 49
-0.05
 49
0.1
 49
-0.05
  0
LTYPE
  2
DOT
 70
64
  3
. . . . . . . . . . . . . . . . . . . .
 72
65
 73
2
 40
0.2
 49
0.1
 49
-0.1
  0
LTYPE
  2
DASHED
 70
64
  3
- - - - - - - - - - - - - - - - - - - -
 72
65
 73
2
 40
0.2
 49
0.1
 49
-0.1
  0
ENDTAB
  0
TABLE
  2
LAYER
 70
36
  0
LAYER
  2
0
 70
0
 62
7
  6
CONTINUOUS
  0
LAYER
  2
DEFAULT_1
 70
0
 62
7
  6
CENTER
  0
LAYER
  2
DEFAULT_2
 70
0
 62
8
  6
HIDDEN
  0
LAYER
  2
DEFAULT_3
 70
0
 62
7
  6
PHANTOM
  0
LAYER
  2
0000_BOM
 70
0
 62
7
  6
CONTINUOUS
  0
LAYER
  2
0000_REV_TABLE
 70
0
 62
7
  6
CONTINUOUS
  0
LAYER
  2
0000_STEVENS_NOTE
 70
0
 62
7
  6
CONTINUOUS
  0
LAYER
  2
01_DATUM_PLANES
 70
0
 62
7
  6
CONTINUOUS
  0
LAYER
  2
01_DEF_PLANES
 70
0
 62
7
  6
CONTINUOUS
  0
LAYER
  2
02_DATUM_COS
 70
0
 62
7
  6
CONTINUOUS
  0
LAYER
  2
90_IMP_FEAT
 70
0
 62
7
  6
CONTINUOUS
  0
LAYER
  2
95_STL
 70
0
 62
7
  6
CONTINUOUS
  0
LAYER
  2
99_SOLID
 70
0
 62
7
  6
CONTINUOUS
  0
LAYER
  2
CAD-MASTER_ZINC-PL
 70
0
 62
7
  6
CONTINUOUS
  0
LAYER
  2
CURVE
 70
0
 62
7
  6
CONTINUOUS
  0
LAYER
  2
SKEL
 70
0
 62
7
  6
CONTINUOUS
  0
LAYER
  2
SKETCH
 70
0
 62
7
  6
CONTINUOUS
  0
LAYER
  2
SURFACE
 70
0
 62
7
  6
CONTINUOUS
  0
ENDTAB
  0
TABLE
  2
STYLE
 70
1
  0
STYLE
  2
STANDARD
 70
0
 40
0.0
 41
0.75
 50
0.0
 71
0
 42
0.2
  3
txt
  4

  0
STYLE
  2
TEXTSTYLE_1
 70
0
 40
0.0
 41
0.8
 50
0.0
 71
0
 42
0.2
  3
gdt
  4

  0
ENDTAB
  0
ENDSEC
  0
SECTION
  2
BLOCKS
  0
BLOCK
  8
0
 62
5
  6
CONTINUOUS
  2
PLUMBING_BL1
 70
64
 10
184.275392042
 20
-267.408622322
  0
CIRCLE
  8
0
 62
5
  6
CONTINUOUS
 10
184.275392042
 20
-267.408622322
 40
12.5
  0
LINE
  8
0
 62
5
  6
CONTINUOUS
 10
196.775392042
 20
-254.908622322
 11
171.775392042
 21
-279.908622322
  0
LINE
  8
0
 62
5
  6
CONTINUOUS
 10
184.275392042
 20
-267.408622322
 11
171.775392042
 21
-254.908622322
  0
LINE
  8
0
 62
5
  6
CONTINUOUS
 10
184.275392042
 20
-267.408622322
 11
196.775392042
 21
-279.908622322
  0
ENDBLK
  8
0
  6
BYBLOCK
 62
0
  0
BLOCK
  8
0
 62
1
  6
CONTINUOUS
  2
PLUMBING_BL0
 70
64
 10
184.275392042
 20
-87.408622322
  0
CIRCLE
  8
0
 62
1
  6
CONTINUOUS
 10
184.275392042
 20
-87.408622322
 40
12.5
  0
LINE
  8
0
 62
1
  6
CONTINUOUS
 10
196.775392042
 20
-74.908622322
 11
171.775392042
 21
-99.908622322
  0
LINE
  8
0
 62
1
  6
CONTINUOUS
 10
184.275392042
 20
-87.408622322
 11
171.775392042
 21
-74.908622322
  0
LINE
  8
0
 62
1
  6
CONTINUOUS
 10
184.275392042
 20
-87.408622322
 11
196.775392042
 21
-99.908622322
  0
ENDBLK
  8
0
  6
BYBLOCK
 62
0
  0
ENDSEC
  0
SECTION
  2
ENTITIES
  0
INSERT
  8
0
 62
1
  6
CONTINUOUS
  2
PLUMBING_BL0
 10
184.275392042
 20
-87.408622322
  0
INSERT
  8
0
 62
5
  6
CONTINUOUS
  2
PLUMBING_BL1
 10
184.275392042
 20
-267.408622322
  0
POLYLINE
  8
0
 62
7
  6
CONTINUOUS
 66
1
 70
0
  0
VERTEX
  8
0
 62
7
  6
CONTINUOUS
 10
35.337047242
 20
-267.408622322
  0
VERTEX
  8
0
 62
7
  6
CONTINUOUS
 10
34.4128994051
 20
-267.3224613001
  0
VERTEX
  8
0
 62
7
  6
CONTINUOUS
 10
33.5206017772
 20
-267.0669477229
  0
VERTEX
  8
0
 62
7
  6
CONTINUOUS
 10
32.6909068685
 20
-266.6508877149
  0
VERTEX
  8
0
 62
7
  6
CONTINUOUS
 10
31.9524096233
 20
-266.0886205384
  0
VERTEX
  8
0
 62
7
  6
CONTINUOUS
 10
31.3305620133
 20
-265.3995245342
  0
VERTEX
  8
0
 62
7
  6
CONTINUOUS
 10
30.8467953498
 20
-264.6073485878
  0
VERTEX
  8
0
 62
7
  6
CONTINUOUS
 10
30.5177823945
 20
-263.7393940004
  0
VERTEX
  8
0
 62
7
  6
CONTINUOUS
 10
30.3548628572
 20
-262.8255743821
  0
SEQEND
  0
LINE
  8
0
 62
7
  6
CONTINUOUS
 10
35.3370472415
 20
-267.408622322
 11
333.2137368425
 21
-267.408622322
  0
POLYLINE
  8
0
 62
7
  6
CONTINUOUS
 66
1
 70
0
  0
VERTEX
  8
0
 62
7
  6
CONTINUOUS
 10
-15.4053459517
 20
549.3437439881
  0
VERTEX
  8
0
 62
7
  6
CONTINUOUS
 10
-15.4774051713
 20
549.1556543858
  0
VERTEX
  8
0
 62
7
  6
CONTINUOUS
 10
-15.8244590121
 20
548.0766140736
  0
VERTEX
  8
0
 62
7
  6
CONTINUOUS
 10
-16.0707126471
 20
546.9651073451
  0
VERTEX
  8
0
 62
7
  6
CONTINUOUS
 10
-16.2126335296
 20
545.8296685327
  0
VERTEX
  8
0
 62
7
  6
CONTINUOUS
 10
-16.2416596448
 20
545.3131331965
  0
SEQEND
  0
LINE
  8
0
 62
7
  6
CONTINUOUS
 10
-15.4053418364
 20
549.3437443562
 11
-15.4052251165
 21
549.3440416517
  0
LINE
  8
0
 62
7
  6
CONTINUOUS
 10
165.651159066
 20
569.0783943486
 11
162.812406675
 21
565.4158319868
  0
LINE
  8
0
 62
7
  6
CONTINUOUS
 10
-16.2416665779
 20
545.3129003062
 11
-17.3258525864
 21
514.2658751615
  0
LINE
  8
0
 62
7
  6
CONTINUOUS
 10
30.3548630823
 20
-262.8255770712
 11
-1.9451828211
 21
123.1323949656
  0
POLYLINE
  8
0
 62
7
  6
CONTINUOUS
 66
1
 70
0
  0
VERTEX
  8
0
 62
7
  6
CONTINUOUS
 10
-1.9451855076
 20
123.13239567
  0
VERTEX
  8
0
 62
7
  6
CONTINUOUS
 10
-1.957423047
 20
123.2920084918
  0
VERTEX
  8
0
 62
7
  6
CONTINUOUS
 10
-1.9674363281
 20
123.451749706
  0
VERTEX
  8
0
 62
7
  6
CONTINUOUS
 10
-1.9752244834
 20
123.6115883448
  0
VERTEX
  8
0
 62
7
  6
CONTINUOUS
 10
-1.9807872122
 20
123.7714932706
  0
VERTEX
  8
0
 62
7
  6
CONTINUOUS
 10
-1.984124653
 20
123.9314333582
  0
VERTEX
  8
0
 62
7
  6
CONTINUOUS
 10
-1.9852372411
 20
124.0913776782
  0
SEQEND
  0
POLYLINE
  8
0
 62
7
  6
CONTINUOUS
 66
1
 70
0
  0
VERTEX
  8
0
 62
7
  6
CONTINUOUS
 10
2.0597361798
 20
129.096087217
  0
VERTEX
  8
0
 62
7
  6
CONTINUOUS
 10
2.0759335153
 20
128.8756513865
  0
VERTEX
  8
0
 62
7
  6
CONTINUOUS
 10
2.0927537486
 20
128.6646655093
  0
VERTEX
  8
0
 62
7
  6
CONTINUOUS
 10
2.1102918444
 20
128.462218356
  0
VERTEX
  8
0
 62
7
  6
CONTINUOUS
 10
2.1286437892
 20
128.2676274628
  0
VERTEX
  8
0
 62
7
  6
CONTINUOUS
 10
2.147997686
 20
128.0795398443
  0
VERTEX
  8
0
 62
7
  6
CONTINUOUS
 10
2.1685462295
 20
127.8969905477
  0
VERTEX
  8
0
 62
7
  6
CONTINUOUS
 10
2.1906395097
 20
127.7181384275
  0
VERTEX
  8
0
 62
7
  6
CONTINUOUS
 10
2.2146589628
 20
127.5416131767
  0
VERTEX
  8
0
 62
7
  6
CONTINUOUS
 10
2.2412480719
 20
127.3649922846
  0
VERTEX
  8
0
 62
7
  6
CONTINUOUS
 10
2.2710798838
 20
127.1867701268
  0
SEQEND
  0
POLYLINE
  8
0
 62
7
  6
CONTINUOUS
 66
1
 70
0
  0
VERTEX
  8
0
 62
7
  6
CONTINUOUS
 10
2.0289948319
 20
129.567815974
  0
VERTEX
  8
0
 62
7
  6
CONTINUOUS
 10
2.0441070448
 20
129.3265706561
  0
VERTEX
  8
0
 62
7
  6
CONTINUOUS
 10
2.0597361798
 20
129.096087217
  0
SEQEND
  0
LINE
  8
0
 62
7
  6
CONTINUOUS
 10
-2.21624043
 20
142.4081318597
 11
-2.1854472284
 21
141.9105055461
  0
LINE
  8
0
 62
7
  6
CONTINUOUS
 10
2.0002093772
 20
130.0846883041
 11
2.0289948319
 21
129.567815974
  0
LINE
  8
0
 62
7
  6
CONTINUOUS
 10
1.9732205825
 20
130.6507646187
 11
2.0002093772
 21
130.0846883041
  0
LINE
  8
0
 62
7
  6
CONTINUOUS
 10
1.9479640608
 20
131.2695480365
 11
1.9732205825
 21
130.6507646187
  0
LINE
  8
0
 62
7
  6
CONTINUOUS
 10
1.9244331021
 20
131.9441082109
 11
1.9479640608
 21
131.2695480365
  0
LINE
  8
0
 62
7
  6
CONTINUOUS
 10
1.9026573752
 20
132.6771684742
 11
1.9244331021
 21
131.9441082109
  0
LINE
  8
0
 62
7
  6
CONTINUOUS
 10
-2.2162318768
 20
142.4078705368
 11
-11.684328768
 21
503.9602245708
  0
LINE
  8
0
 62
7
  6
CONTINUOUS
 10
1.8734019269
 20
133.8916547218
 11
1.9026573752
 21
132.6771684742
  0
LINE
  8
0
 62
7
  6
CONTINUOUS
 10
1.8484401956
 20
135.250222046
 11
1.8734019269
 21
133.8916547218
  0
LINE
  8
0
 62
7
  6
CONTINUOUS
 10
1.8280269062
 20
136.7587555715
 11
1.8484401956
 21
135.250222046
  0
LINE
  8
0
 62
7
  6
CONTINUOUS
 10
1.8100167136
 20
138.7562593055
 11
1.8280269062
 21
136.7587555715
  0
LINE
  8
0
 62
7
  6
CONTINUOUS
 10
0.6829017271
 20
115.6668696208
 11
0.6836497637
 21
115.7208803409
  0
LINE
  8
0
 62
7
  6
CONTINUOUS
 10
1.8141660409
 20
139.0201080963
 11
1.8100157676
 21
138.7564003809
  0
POLYLINE
  8
0
 62
7
  6
CONTINUOUS
 66
1
 70
0
  0
VERTEX
  8
0
 62
7
  6
CONTINUOUS
 10
2.3055809659
 20
127.0024852544
  0
VERTEX
  8
0
 62
7
  6
CONTINUOUS
 10
2.346183817
 20
126.8098911678
  0
VERTEX
  8
0
 62
7
  6
CONTINUOUS
 10
2.396269472
 20
126.6006998359
  0
VERTEX
  8
0
 62
7
  6
CONTINUOUS
 10
2.4592502147
 20
126.371372837
  0
VERTEX
  8
0
 62
7
  6
CONTINUOUS
 10
2.5438673645
 20
126.1062492448
  0
VERTEX
  8
0
 62
7
  6
CONTINUOUS
 10
2.6605529567
 20
125.7968362946
  0
VERTEX
  8
0
 62
7
  6
CONTINUOUS
 10
2.8298959028
 20
125.4244871565
  0
VERTEX
  8
0
 62
7
  6
CONTINUOUS
 10
3.0838478201
 20
124.9737222819
  0
VERTEX
  8
0
 62
7
  6
CONTINUOUS
 10
3.4515408416
 20
124.4616898759
  0
VERTEX
  8
0
 62
7
  6
CONTINUOUS
 10
3.9789235426
 20
123.9052895962
  0
VERTEX
  8
0
 62
7
  6
CONTINUOUS
 10
4.6610396316
 20
123.3840461786
  0
VERTEX
  8
0
 62
7
  6
CONTINUOUS
 10
5.4700328038
 20
122.9652985265
  0
VERTEX
  8
0
 62
7
  6
CONTINUOUS
 10
6.3633219258
 20
122.69405505
  0
VERTEX
  8
0
 62
7
  6
CONTINUOUS
 10
7.3499315731
 20
122.5914445241
  0
SEQEND
  0
LINE
  8
0
 62
7
  6
CONTINUOUS
 10
2.2710798838
 20
127.1867701268
 11
2.3055809659
 21
127.0024852544
  0
LINE
  8
0
 62
7
  6
CONTINUOUS
 10
1.8141670783
 20
139.0201364758
 11
2.8653134094
 21
166.4504212719
  0
LINE
  8
0
 62
7
  6
CONTINUOUS
 10
2.9850457094
 20
167.6397137987
 11
2.8653191233
 21
166.4505701571
  0
POLYLINE
  8
0
 62
7
  6
CONTINUOUS
 66
1
 70
0
  0
VERTEX
  8
0
 62
7
  6
CONTINUOUS
 10
0.720374703
 20
116.3238654631
  0
VERTEX
  8
0
 62
7
  6
CONTINUOUS
 10
0.7716538167
 20
116.7123116055
  0
VERTEX
  8
0
 62
7
  6
CONTINUOUS
 10
0.7818829001
 20
116.774551097
  0
SEQEND
  0
LINE
  8
0
 62
7
  6
CONTINUOUS
 10
156.5211152616
 20
563.2599846076
 11
156.0584603158
 21
561.9888505909
  0
LINE
  8
0
 62
1
  6
CONTINUOUS
 10
186.775392042
 20
-89.908622322
 11
181.775392042
 21
-84.908622322
  0
POLYLINE
  8
0
 62
7
  6
CONTINUOUS
 66
1
 70
0
  0
VERTEX
  8
0
 62
7
  6
CONTINUOUS
 10
-1.0757118759
 20
138.7583139426
  0
VERTEX
  8
0
 62
7
  6
CONTINUOUS
 10
-1.0296966863
 20
138.6889178033
  0
VERTEX
  8
0
 62
7
  6
CONTINUOUS
 10
-0.8978281439
 20
138.4994194895
  0
VERTEX
  8
0
 62
7
  6
CONTINUOUS
 10
-0.7624242749
 20
138.3177987285
  0
VERTEX
  8
0
 62
7
  6
CONTINUOUS
 10
-0.623767451
 20
138.143756409
  0
VERTEX
  8
0
 62
7
  6
CONTINUOUS
 10
-0.4820604002
 20
137.9769594134
  0
VERTEX
  8
0
 62
7
  6
CONTINUOUS
 10
-0.3374881246
 20
137.8171182378
  0
VERTEX
  8
0
 62
7
  6
CONTINUOUS
 10
-0.1901351431
 20
137.6638933799
  0
VERTEX
  8
0
 62
7
  6
CONTINUOUS
 10
-0.0402013473
 20
137.5171175802
  0
VERTEX
  8
0
 62
7
  6
CONTINUOUS
 10
0.1122485607
 20
137.3765267821
  0
VERTEX
  8
0
 62
7
  6
CONTINUOUS
 10
0.2669342508
 20
137.2420849261
  0
VERTEX
  8
0
 62
7
  6
CONTINUOUS
 10
0.4236626186
 20
137.1136822198
  0
VERTEX
  8
0
 62
7
  6
CONTINUOUS
 10
0.5822197992
 20
136.9912350454
  0
VERTEX
  8
0
 62
7
  6
CONTINUOUS
 10
0.7424212218
 20
136.874643219
  0
VERTEX
  8
0
 62
7
  6
CONTINUOUS
 10
0.9040821526
 20
136.763813742
  0
VERTEX
  8
0
 62
7
  6
CONTINUOUS
 10
1.0670394527
 20
136.6586450604
  0
VERTEX
  8
0
 62
7
  6
CONTINUOUS
 10
1.2311303941
 20
136.5590418724
  0
VERTEX
  8
0
 62
7
  6
CONTINUOUS
 10
1.3962074851
 20
136.4649052606
  0
VERTEX
  8
0
 62
7
  6
CONTINUOUS
 10
1.5621390253
 20
136.3761335748
  0
VERTEX
  8
0
 62
7
  6
CONTINUOUS
 10
1.7288812732
 20
136.2925886733
  0
VERTEX
  8
0
 62
7
  6
CONTINUOUS
 10
1.8342578828
 20
136.2432405543
  0
SEQEND
  0
LINE
  8
0
 62
7
  6
CONTINUOUS
 10
-1.383909343
 20
139.276345366
 11
-1.0750113653
 21
138.7569417133
  0
POLYLINE
  8
0
 62
7
  6
CONTINUOUS
 66
1
 70
0
  0
VERTEX
  8
0
 62
7
  6
CONTINUOUS
 10
1.9029441025
 20
132.6671140875
  0
VERTEX
  8
0
 62
7
  6
CONTINUOUS
 10
1.3830238415
 20
132.2230598569
  0
VERTEX
  8
0
 62
7
  6
CONTINUOUS
 10
0.2110526908
 20
130.8508571181
  0
VERTEX
  8
0
 62
7
  6
CONTINUOUS
 10
-0.7318262301
 20
129.3122161414
  0
VERTEX
  8
0
 62
7
  6
CONTINUOUS
 10
-1.4223968336
 20
127.6450271642
  0
VERTEX
  8
0
 62
7
  6
CONTINUOUS
 10
-1.8436559545
 20
125.8903460138
  0
VERTEX
  8
0
 62
7
  6
CONTINUOUS
 10
-1.9852372411
 20
124.0913776782
  0
SEQEND
  0
LINE
  8
0
 62
7
  6
CONTINUOUS
 10
12.2359558968
 20
122.5913244193
 11
12.0659709935
 21
122.5906843248
  0
LINE
  8
0
 62
7
  6
CONTINUOUS
 10
361.1751191656
 20
122.591377678
 11
7.3499352395
 21
122.5914438907
  0
LINE
  8
0
 62
7
  6
CONTINUOUS
 10
184.5156857562
 20
570.7364479128
 11
184.5156857562
 21
571.3561903384
  0
LINE
  8
0
 62
7
  6
CONTINUOUS
 10
185.0156857562
 20
571.1530073894
 11
185.0156857562
 21
570.4828962663
  0
LINE
  8
0
 62
7
  6
CONTINUOUS
 10
11.0100528263
 20
122.5389637607
 11
11.0065175374
 21
122.5385229069
  0
LINE
  8
0
 62
7
  6
CONTINUOUS
 10
11.1799082035
 20
122.5580031907
 11
11.0100528263
 21
122.5389637607
  0
LINE
  8
0
 62
7
  6
CONTINUOUS
 10
11.4290957874
 20
122.5787653912
 11
11.1799082035
 21
122.5580031907
  0
LINE
  8
0
 62
7
  6
CONTINUOUS
 10
11.4668485673
 20
122.5811594641
 11
11.4290957874
 21
122.5787653912
  0
LINE
  8
0
 62
7
  6
CONTINUOUS
 10
11.8604131932
 20
122.591377678
 11
10.9985648964
 21
122.5381105881
  0
LINE
  8
0
 62
7
  6
CONTINUOUS
 10
11.765174962
 20
122.591377678
 11
11.4668485673
 21
122.5811594641
  0
LINE
  8
0
 62
7
  6
CONTINUOUS
 10
11.5448021049
 20
175.4320983322
 11
11.5488756186
 21
175.4322907973
  0
LINE
  8
0
 62
7
  6
CONTINUOUS
 10
11.5488756186
 20
175.4322907973
 11
12.5156584602
 21
175.4719415225
  0
POLYLINE
  8
0
 62
7
  6
CONTINUOUS
 66
1
 70
0
  0
VERTEX
  8
0
 62
7
  6
CONTINUOUS
 10
12.5156584602
 20
175.4719415225
  0
VERTEX
  8
0
 62
7
  6
CONTINUOUS
 10
13.5373540222
 20
175.504426934
  0
VERTEX
  8
0
 62
7
  6
CONTINUOUS
 10
14.598660896
 20
175.5296370104
  0
VERTEX
  8
0
 62
7
  6
CONTINUOUS
 10
15.6917455407
 20
175.5476695672
  0
SEQEND
  0
LINE
  8
0
 62
7
  6
CONTINUOUS
 10
15.6917455407
 20
175.5476695672
 11
16.8089122433
 21
175.5585316654
  0
LINE
  8
0
 62
7
  6
CONTINUOUS
 10
16.8089122433
 20
175.5585316654
 11
17.9347064566
 21
175.5621570496
  0
LINE
  8
0
 62
7
  6
CONTINUOUS
 10
351.2183111175
 20
175.5611340447
 11
17.9347064557
 21
175.5621648424
  0
LINE
  8
0
 62
7
  6
CONTINUOUS
 10
352.5697228256
 20
175.5512169839
 11
351.2183111175
 21
175.5611340447
  0
POLYLINE
  8
0
 62
7
  6
CONTINUOUS
 66
1
 70
0
  0
VERTEX
  8
0
 62
7
  6
CONTINUOUS
 10
356.4103447822
 20
175.4576550635
  0
VERTEX
  8
0
 62
7
  6
CONTINUOUS
 10
355.1898224572
 20
175.4994005835
  0
VERTEX
  8
0
 62
7
  6
CONTINUOUS
 10
353.9018108141
 20
175.5306393309
  0
VERTEX
  8
0
 62
7
  6
CONTINUOUS
 10
352.5697228256
 20
175.5512169839
  0
SEQEND
  0
LINE
  8
0
 62
7
  6
CONTINUOUS
 10
357.0028707079
 20
175.4322517111
 11
356.4103447822
 21
175.4576550635
  0
POLYLINE
  8
0
 62
7
  6
CONTINUOUS
 66
1
 70
0
  0
VERTEX
  8
0
 62
7
  6
CONTINUOUS
 10
11.1401370201
 20
175.4039261842
  0
VERTEX
  8
0
 62
7
  6
CONTINUOUS
 10
10.0132220953
 20
175.2255065907
  0
VERTEX
  8
0
 62
7
  6
CONTINUOUS
 10
8.907980523
 20
174.9002569603
  0
VERTEX
  8
0
 62
7
  6
CONTINUOUS
 10
7.8416193064
 20
174.4292809724
  0
VERTEX
  8
0
 62
7
  6
CONTINUOUS
 10
6.8326945719
 20
173.81605794
  0
VERTEX
  8
0
 62
7
  6
CONTINUOUS
 10
5.8983056185
 20
173.0650817277
  0
VERTEX
  8
0
 62
7
  6
CONTINUOUS
 10
5.0577542577
 20
172.18469891
  0
VERTEX
  8
0
 62
7
  6
CONTINUOUS
 10
4.3288963248
 20
171.1850898215
  0
VERTEX
  8
0
 62
7
  6
CONTINUOUS
 10
3.7301160682
 20
170.0813803471
  0
VERTEX
  8
0
 62
7
  6
CONTINUOUS
 10
3.2777127417
 20
168.8923219554
  0
VERTEX
  8
0
 62
7
  6
CONTINUOUS
 10
2.9850457094
 20
167.6397137987
  0
SEQEND
  0
LINE
  8
0
 62
7
  6
CONTINUOUS
 10
11.5482668227
 20
175.4322699529
 11
11.1401370201
 21
175.4039261842
  0
LINE
  8
0
 62
7
  6
CONTINUOUS
 10
357.521758752
 20
175.3929097625
 11
357.0025211542
 21
175.432269377
  0
POLYLINE
  8
0
 62
7
  6
CONTINUOUS
 66
1
 70
0
  0
VERTEX
  8
0
 62
7
  6
CONTINUOUS
 10
366.6475255928
 20
132.6674871915
  0
VERTEX
  8
0
 62
7
  6
CONTINUOUS
 10
367.1678072941
 20
132.2230114646
  0
VERTEX
  8
0
 62
7
  6
CONTINUOUS
 10
368.3381532251
 20
130.8530271244
  0
VERTEX
  8
0
 62
7
  6
CONTINUOUS
 10
369.2804723152
 20
129.3164082293
  0
VERTEX
  8
0
 62
7
  6
CONTINUOUS
 10
369.9715196804
 20
127.6501337253
  0
VERTEX
  8
0
 62
7
  6
CONTINUOUS
 10
370.3938614538
 20
125.8939924735
  0
VERTEX
  8
0
 62
7
  6
CONTINUOUS
 10
370.5360212638
 20
124.0913776782
  0
SEQEND
  0
POLYLINE
  8
0
 62
7
  6
CONTINUOUS
 66
1
 70
0
  0
VERTEX
  8
0
 62
7
  6
CONTINUOUS
 10
184.5156857617
 20
570.7364459288
  0
VERTEX
  8
0
 62
7
  6
CONTINUOUS
 10
184.5326973239
 20
570.6914199953
  0
VERTEX
  8
0
 62
7
  6
CONTINUOUS
 10
184.5833921465
 20
570.6457426346
  0
VERTEX
  8
0
 62
7
  6
CONTINUOUS
 10
184.6668851598
 20
570.5992263063
  0
VERTEX
  8
0
 62
7
  6
CONTINUOUS
 10
184.7822983135
 20
570.5524336313
  0
VERTEX
  8
0
 62
7
  6
CONTINUOUS
 10
184.9286412579
 20
570.5057365719
  0
SEQEND
  0
LINE
  8
0
 62
7
  6
CONTINUOUS
 10
365.6852477631
 20
166.4561900078
 11
365.6717460841
 21
166.7141755668
  0
LINE
  8
0
 62
7
  6
CONTINUOUS
 10
367.8675047415
 20
115.6951059125
 11
367.8527784651
 21
116.0601056364
  0
LINE
  8
0
 62
7
  6
CONTINUOUS
 10
366.736617
 20
139.0201366207
 11
365.6852118482
 21
166.4571151988
  0
LINE
  8
0
 62
7
  6
CONTINUOUS
 10
366.7407683974
 20
138.7564145311
 11
366.7366190536
 21
139.0200829353
  0
POLYLINE
  8
0
 62
7
  6
CONTINUOUS
 66
1
 70
0
  0
VERTEX
  8
0
 62
7
  6
CONTINUOUS
 10
370.5360212638
 20
124.0913776782
  0
VERTEX
  8
0
 62
7
  6
CONTINUOUS
 10
370.5349077855
 20
123.9313666161
  0
VERTEX
  8
0
 62
7
  6
CONTINUOUS
 10
370.5315683251
 20
123.7713865119
  0
VERTEX
  8
0
 62
7
  6
CONTINUOUS
 10
370.5260035715
 20
123.6114686196
  0
VERTEX
  8
0
 62
7
  6
CONTINUOUS
 10
370.5182144711
 20
123.4516430594
  0
VERTEX
  8
0
 62
7
  6
CONTINUOUS
 10
370.5082023543
 20
123.2919399366
  0
VERTEX
  8
0
 62
7
  6
CONTINUOUS
 10
370.4959691551
 20
123.132390455
  0
SEQEND
  0
LINE
  8
0
 62
7
  6
CONTINUOUS
 10
366.740766576
 20
138.756268613
 11
366.7309228242
 21
137.543929908
  0
LINE
  8
0
 62
7
  6
CONTINUOUS
 10
366.7309228242
 20
137.543929908
 11
366.719036867
 21
136.4438135951
  0
LINE
  8
0
 62
7
  6
CONTINUOUS
 10
366.719036867
 20
136.4438135951
 11
366.6903502095
 21
134.5491285311
  0
LINE
  8
0
 62
7
  6
CONTINUOUS
 10
366.6903502095
 20
134.5491285311
 11
366.6565781483
 21
132.996947668
  0
LINE
  8
0
 62
7
  6
CONTINUOUS
 10
380.2146389944
 20
503.9607608991
 11
370.7470571108
 21
142.4084003639
  0
LINE
  8
0
 62
7
  6
CONTINUOUS
 10
380.2351127993
 20
503.9602247737
 11
370.7670161431
 21
142.4078777182
  0
POLYLINE
  8
0
 62
7
  6
CONTINUOUS
 66
1
 70
0
  0
VERTEX
  8
0
 62
7
  6
CONTINUOUS
 10
366.6565781483
 20
132.996947668
  0
VERTEX
  8
0
 62
7
  6
CONTINUOUS
 10
366.6191126246
 20
131.7250917156
  0
VERTEX
  8
0
 62
7
  6
CONTINUOUS
 10
366.5993143178
 20
131.1777651585
  0
VERTEX
  8
0
 62
7
  6
CONTINUOUS
 10
366.5789278392
 20
130.6818317422
  0
VERTEX
  8
0
 62
7
  6
CONTINUOUS
 10
366.5580127354
 20
130.2320833441
  0
VERTEX
  8
0
 62
7
  6
CONTINUOUS
 10
366.5366027817
 20
129.8237223434
  0
VERTEX
  8
0
 62
7
  6
CONTINUOUS
 10
366.5147061431
 20
129.4523460926
  0
VERTEX
  8
0
 62
7
  6
CONTINUOUS
 10
366.4922895747
 20
129.1137015515
  0
SEQEND
  0
POLYLINE
  8
0
 62
7
  6
CONTINUOUS
 66
1
 70
0
  0
VERTEX
  8
0
 62
7
  6
CONTINUOUS
 10
366.4922895747
 20
129.1137015515
  0
VERTEX
  8
0
 62
7
  6
CONTINUOUS
 10
366.4692941705
 20
128.8039859149
  0
VERTEX
  8
0
 62
7
  6
CONTINUOUS
 10
366.4455844157
 20
128.5192182213
  0
VERTEX
  8
0
 62
7
  6
CONTINUOUS
 10
366.4209970019
 20
128.2559992085
  0
VERTEX
  8
0
 62
7
  6
CONTINUOUS
 10
366.3952136659
 20
128.0102673527
  0
VERTEX
  8
0
 62
7
  6
CONTINUOUS
 10
366.3678768717
 20
127.7787679099
  0
VERTEX
  8
0
 62
7
  6
CONTINUOUS
 10
366.3383171202
 20
127.5569618298
  0
VERTEX
  8
0
 62
7
  6
CONTINUOUS
 10
366.305807613
 20
127.3415827961
  0
SEQEND
  0
LINE
  8
0
 62
7
  6
CONTINUOUS
 10
370.495966905
 20
123.1323949656
 11
338.1959209795
 21
-262.8255773352
  0
LINE
  8
0
 62
7
  6
CONTINUOUS
 10
366.305807613
 20
127.3415827961
 11
366.2688895392
 21
127.1266372873
  0
POLYLINE
  8
0
 62
7
  6
CONTINUOUS
 66
1
 70
0
  0
VERTEX
  8
0
 62
7
  6
CONTINUOUS
 10
366.2688895392
 20
127.1266372873
  0
VERTEX
  8
0
 62
7
  6
CONTINUOUS
 10
366.2260048273
 20
126.9084372265
  0
VERTEX
  8
0
 62
7
  6
CONTINUOUS
 10
366.1738297413
 20
126.6780894179
  0
VERTEX
  8
0
 62
7
  6
CONTINUOUS
 10
366.1087119718
 20
126.4307316164
  0
SEQEND
  0
POLYLINE
  8
0
 62
7
  6
CONTINUOUS
 66
1
 70
0
  0
VERTEX
  8
0
 62
7
  6
CONTINUOUS
 10
366.1087119718
 20
126.4307316164
  0
VERTEX
  8
0
 62
7
  6
CONTINUOUS
 10
366.0229422055
 20
126.1533297748
  0
VERTEX
  8
0
 62
7
  6
CONTINUOUS
 10
365.9062497237
 20
125.8362299169
  0
VERTEX
  8
0
 62
7
  6
CONTINUOUS
 10
365.7449482869
 20
125.4730966374
  0
VERTEX
  8
0
 62
7
  6
CONTINUOUS
 10
365.517754241
 20
125.0560532576
  0
VERTEX
  8
0
 62
7
  6
CONTINUOUS
 10
365.2102074505
 20
124.6027914839
  0
VERTEX
  8
0
 62
7
  6
CONTINUOUS
 10
364.8039274423
 20
124.1297303494
  0
VERTEX
  8
0
 62
7
  6
CONTINUOUS
 10
364.2881216821
 20
123.6660142981
  0
VERTEX
  8
0
 62
7
  6
CONTINUOUS
 10
363.6546593881
 20
123.2429016431
  0
VERTEX
  8
0
 62
7
  6
CONTINUOUS
 10
362.9111871617
 20
122.8996498368
  0
VERTEX
  8
0
 62
7
  6
CONTINUOUS
 10
362.0791837107
 20
122.6731012219
  0
VERTEX
  8
0
 62
7
  6
CONTINUOUS
 10
361.1751634466
 20
122.5913879642
  0
SEQEND
  0
LINE
  8
0
 62
1
  6
CONTINUOUS
 10
186.775392042
 20
-84.908622322
 11
181.775392042
 21
-89.908622322
  0
LINE
  8
0
 62
7
  6
CONTINUOUS
 10
212.0296688223
 20
563.2599846076
 11
212.4923237877
 21
561.9888505371
  0
POLYLINE
  8
0
 62
7
  6
CONTINUOUS
 66
1
 70
0
  0
VERTEX
  8
0
 62
7
  6
CONTINUOUS
 10
365.6717460841
 20
166.7141755668
  0
VERTEX
  8
0
 62
7
  6
CONTINUOUS
 10
365.4845944018
 20
168.0724446253
  0
VERTEX
  8
0
 62
7
  6
CONTINUOUS
 10
365.1097815226
 20
169.3791036151
  0
VERTEX
  8
0
 62
7
  6
CONTINUOUS
 10
364.5602236258
 20
170.6051103878
  0
VERTEX
  8
0
 62
7
  6
CONTINUOUS
 10
363.8540156355
 20
171.7243364159
  0
VERTEX
  8
0
 62
7
  6
CONTINUOUS
 10
363.011669874
 20
172.7170136757
  0
VERTEX
  8
0
 62
7
  6
CONTINUOUS
 10
362.0547629646
 20
173.5683962253
  0
VERTEX
  8
0
 62
7
  6
CONTINUOUS
 10
361.0061635621
 20
174.2672048379
  0
VERTEX
  8
0
 62
7
  6
CONTINUOUS
 10
359.8874299796
 20
174.8066482166
  0
VERTEX
  8
0
 62
7
  6
CONTINUOUS
 10
358.7197988046
 20
175.1824588581
  0
VERTEX
  8
0
 62
7
  6
CONTINUOUS
 10
357.521758752
 20
175.3929097625
  0
SEQEND
  0
LINE
  8
0
 62
7
  6
CONTINUOUS
 10
384.7924390154
 20
545.3132338163
 11
385.8766366703
 21
514.2658751615
  0
LINE
  8
0
 62
7
  6
CONTINUOUS
 10
190.758145271
 20
569.0783956416
 11
191.4878236298
 21
567.8618333337
  0
LINE
  8
0
 62
7
  6
CONTINUOUS
 10
191.4878236298
 20
567.8618333337
 11
192.2139380528
 21
566.6409615908
  0
LINE
  8
0
 62
7
  6
CONTINUOUS
 10
192.1827672308
 20
567.2057974706
 11
191.1788998382
 21
568.9009478092
  0
LINE
  8
0
 62
7
  6
CONTINUOUS
 10
192.2139380528
 20
566.6409615908
 11
192.9364577135
 21
565.4158319868
  0
LINE
  8
0
 62
7
  6
CONTINUOUS
 10
193.1806960153
 20
565.5035047097
 11
192.1827672308
 21
567.2057974706
  0
POLYLINE
  8
0
 62
7
  6
CONTINUOUS
 66
1
 70
0
  0
VERTEX
  8
0
 62
7
  6
CONTINUOUS
 10
384.7924435861
 20
545.3131368427
  0
VERTEX
  8
0
 62
7
  6
CONTINUOUS
 10
384.7617531209
 20
545.85089791
  0
VERTEX
  8
0
 62
7
  6
CONTINUOUS
 10
384.619300268
 20
546.9777629599
  0
VERTEX
  8
0
 62
7
  6
CONTINUOUS
 10
384.3740901921
 20
548.0808637993
  0
VERTEX
  8
0
 62
7
  6
CONTINUOUS
 10
384.0296321089
 20
549.151791012
  0
VERTEX
  8
0
 62
7
  6
CONTINUOUS
 10
383.9561694199
 20
549.3436433911
  0
SEQEND
  0
POLYLINE
  8
0
 62
7
  6
CONTINUOUS
 66
1
 70
0
  0
VERTEX
  8
0
 62
7
  6
CONTINUOUS
 10
338.1959212233
 20
-262.8255744229
  0
VERTEX
  8
0
 62
7
  6
CONTINUOUS
 10
338.0330024523
 20
-263.7393912373
  0
VERTEX
  8
0
 62
7
  6
CONTINUOUS
 10
337.7039906349
 20
-264.6073447054
  0
VERTEX
  8
0
 62
7
  6
CONTINUOUS
 10
337.2202244423
 20
-265.3995213566
  0
VERTEX
  8
0
 62
7
  6
CONTINUOUS
 10
336.5983765816
 20
-266.0886185874
  0
VERTEX
  8
0
 62
7
  6
CONTINUOUS
 10
335.8598790503
 20
-266.6508865702
  0
VERTEX
  8
0
 62
7
  6
CONTINUOUS
 10
335.0301836491
 20
-267.0669471994
  0
VERTEX
  8
0
 62
7
  6
CONTINUOUS
 10
334.1378853788
 20
-267.3224611684
  0
VERTEX
  8
0
 62
7
  6
CONTINUOUS
 10
333.2137368203
 20
-267.408622322
  0
SEQEND
  0
LINE
  8
0
 62
7
  6
CONTINUOUS
 10
202.7840930518
 20
568.9009805975
 11
205.4174089078
 21
565.5034727445
  0
POLYLINE
  8
0
 62
7
  6
CONTINUOUS
 66
1
 70
0
  0
VERTEX
  8
0
 62
7
  6
CONTINUOUS
 10
380.0832834074
 20
505.3209816869
  0
VERTEX
  8
0
 62
7
  6
CONTINUOUS
 10
380.0664683243
 20
505.385452693
  0
VERTEX
  8
0
 62
7
  6
CONTINUOUS
 10
380.0423725103
 20
505.4722460426
  0
VERTEX
  8
0
 62
7
  6
CONTINUOUS
 10
380.016850842
 20
505.5581553592
  0
VERTEX
  8
0
 62
7
  6
CONTINUOUS
 10
379.9899343064
 20
505.6431622035
  0
VERTEX
  8
0
 62
7
  6
CONTINUOUS
 10
379.9616531349
 20
505.7272510953
  0
VERTEX
  8
0
 62
7
  6
CONTINUOUS
 10
379.9320379562
 20
505.8104057353
  0
VERTEX
  8
0
 62
7
  6
CONTINUOUS
 10
379.9011185364
 20
505.8926126353
  0
VERTEX
  8
0
 62
7
  6
CONTINUOUS
 10
379.8689250551
 20
505.9738574311
  0
VERTEX
  8
0
 62
7
  6
CONTINUOUS
 10
379.8354858856
 20
506.0541304268
  0
VERTEX
  8
0
 62
7
  6
CONTINUOUS
 10
379.8008332622
 20
506.1334129875
  0
VERTEX
  8
0
 62
7
  6
CONTINUOUS
 10
379.7649956939
 20
506.2116958375
  0
VERTEX
  8
0
 62
7
  6
CONTINUOUS
 10
379.7280113364
 20
506.288949863
  0
VERTEX
  8
0
 62
7
  6
CONTINUOUS
 10
379.6899182586
 20
506.3651494151
  0
VERTEX
  8
0
 62
7
  6
CONTINUOUS
 10
379.6507477452
 20
506.4402843869
  0
VERTEX
  8
0
 62
7
  6
CONTINUOUS
 10
379.610532449
 20
506.5143426189
  0
VERTEX
  8
0
 62
7
  6
CONTINUOUS
 10
379.5693049014
 20
506.5873129868
  0
VERTEX
  8
0
 62
7
  6
CONTINUOUS
 10
379.5270970433
 20
506.6591861106
  0
VERTEX
  8
0
 62
7
  6
CONTINUOUS
 10
379.4839412603
 20
506.729952482
  0
VERTEX
  8
0
 62
7
  6
CONTINUOUS
 10
379.4398691348
 20
506.7996045301
  0
VERTEX
  8
0
 62
7
  6
CONTINUOUS
 10
379.3949126784
 20
506.8681345418
  0
VERTEX
  8
0
 62
7
  6
CONTINUOUS
 10
379.3491030427
 20
506.9355366479
  0
VERTEX
  8
0
 62
7
  6
CONTINUOUS
 10
379.3024717962
 20
507.0018048264
  0
VERTEX
  8
0
 62
7
  6
CONTINUOUS
 10
379.2550495991
 20
507.0669348066
  0
VERTEX
  8
0
 62
7
  6
CONTINUOUS
 10
379.2068675188
 20
507.1309221565
  0
VERTEX
  8
0
 62
7
  6
CONTINUOUS
 10
379.1579556742
 20
507.1937641054
  0
VERTEX
  8
0
 62
7
  6
CONTINUOUS
 10
379.1083445834
 20
507.2554577154
  0
VERTEX
  8
0
 62
7
  6
CONTINUOUS
 10
379.0580637828
 20
507.316001622
  0
VERTEX
  8
0
 62
7
  6
CONTINUOUS
 10
379.0071432014
 20
507.3753942906
  0
VERTEX
  8
0
 62
7
  6
CONTINUOUS
 10
378.9556117403
 20
507.4336356958
  0
VERTEX
  8
0
 62
7
  6
CONTINUOUS
 10
378.9034987643
 20
507.4907255567
  0
VERTEX
  8
0
 62
7
  6
CONTINUOUS
 10
378.8508321937
 20
507.5466654382
  0
VERTEX
  8
0
 62
7
  6
CONTINUOUS
 10
378.7976419257
 20
507.6014550735
  0
VERTEX
  8
0
 62
7
  6
CONTINUOUS
 10
378.7439566339
 20
507.6550958479
  0
VERTEX
  8
0
 62
7
  6
CONTINUOUS
 10
378.6898047893
 20
507.7075896534
  0
VERTEX
  8
0
 62
7
  6
CONTINUOUS
 10
378.6388262278
 20
507.7555890757
  0
SEQEND
  0
POLYLINE
  8
0
 62
7
  6
CONTINUOUS
 66
1
 70
0
  0
VERTEX
  8
0
 62
7
  6
CONTINUOUS
 10
185.0518691396
 20
570.4734018175
  0
VERTEX
  8
0
 62
7
  6
CONTINUOUS
 10
185.0302778497
 20
570.4929034004
  0
VERTEX
  8
0
 62
7
  6
CONTINUOUS
 10
185.0156857562
 20
570.531591728
  0
SEQEND
  0
POLYLINE
  8
0
 62
7
  6
CONTINUOUS
 66
1
 70
0
  0
VERTEX
  8
0
 62
7
  6
CONTINUOUS
 10
383.9555666236
 20
549.3451348736
  0
VERTEX
  8
0
 62
7
  6
CONTINUOUS
 10
383.6463090396
 20
550.089813679
  0
VERTEX
  8
0
 62
7
  6
CONTINUOUS
 10
383.2808372975
 20
550.8715142075
  0
VERTEX
  8
0
 62
7
  6
CONTINUOUS
 10
382.8503213989
 20
551.6797928178
  0
VERTEX
  8
0
 62
7
  6
CONTINUOUS
 10
382.3256072505
 20
552.5338706709
  0
VERTEX
  8
0
 62
7
  6
CONTINUOUS
 10
381.6711676923
 20
553.4429035102
  0
VERTEX
  8
0
 62
7
  6
CONTINUOUS
 10
380.86204824
 20
554.3847847599
  0
VERTEX
  8
0
 62
7
  6
CONTINUOUS
 10
379.858456219
 20
555.3422807969
  0
VERTEX
  8
0
 62
7
  6
CONTINUOUS
 10
378.6621582872
 20
556.251592089
  0
VERTEX
  8
0
 62
7
  6
CONTINUOUS
 10
377.282551302
 20
557.055641959
  0
VERTEX
  8
0
 62
7
  6
CONTINUOUS
 10
375.7282675527
 20
557.7067686195
  0
VERTEX
  8
0
 62
7
  6
CONTINUOUS
 10
374.0306431328
 20
558.1554095648
  0
VERTEX
  8
0
 62
7
  6
CONTINUOUS
 10
372.2259705259
 20
558.3622461662
  0
SEQEND
  0
LINE
  8
0
 62
7
  6
CONTINUOUS
 10
383.9555666236
 20
549.3451348736
 11
383.9568224108
 21
549.3419360014
  0
LINE
  8
0
 62
7
  6
CONTINUOUS
 10
380.8785021569
 20
509.091377678
 11
-12.3277170293
 21
509.091377678
  0
LINE
  8
0
 62
7
  6
CONTINUOUS
 10
375.2940503311
 20
509.0910502878
 11
375.2368332491
 21
509.091377678
  0
LINE
  8
0
 62
7
  6
CONTINUOUS
 10
375.342224109
 20
509.0902665511
 11
375.2940495734
 21
509.091049535
  0
LINE
  8
0
 62
7
  6
CONTINUOUS
 10
375.4269233509
 20
509.0877629457
 11
375.2940503279
 21
509.0910502879
  0
LINE
  8
0
 62
7
  6
CONTINUOUS
 10
375.4269228295
 20
509.0877622019
 11
375.3895342941
 21
509.0890452133
  0
LINE
  8
0
 62
7
  6
CONTINUOUS
 10
162.812406675
 20
565.4158319868
 11
157.1973998492
 21
563.8826489764
  0
LINE
  8
0
 62
7
  6
CONTINUOUS
 10
375.8943494867
 20
509.047956365
 11
375.7350432296
 21
509.0664944348
  0
LINE
  8
0
 62
7
  6
CONTINUOUS
 10
184.9286412579
 20
570.5057365719
 11
185.1047744647
 21
570.459519564
  0
LINE
  8
0
 62
7
  6
CONTINUOUS
 10
205.4174089078
 20
565.5034727445
 11
211.3533842347
 21
563.8826489764
  0
LINE
  8
0
 62
7
  6
CONTINUOUS
 10
191.1788998382
 20
568.9009478092
 11
190.7922152036
 21
569.0217117816
  0
POLYLINE
  8
0
 62
7
  6
CONTINUOUS
 66
1
 70
0
  0
VERTEX
  8
0
 62
7
  6
CONTINUOUS
 10
-3.6746424436
 20
558.3621753161
  0
VERTEX
  8
0
 62
7
  6
CONTINUOUS
 10
-4.807894352
 20
558.2637983499
  0
VERTEX
  8
0
 62
7
  6
CONTINUOUS
 10
-6.5169675488
 20
557.9119184662
  0
VERTEX
  8
0
 62
7
  6
CONTINUOUS
 10
-8.1211137792
 20
557.3409666951
  0
VERTEX
  8
0
 62
7
  6
CONTINUOUS
 10
-9.5554952684
 20
556.6038413532
  0
VERTEX
  8
0
 62
7
  6
CONTINUOUS
 10
-10.7776015431
 20
555.7725940224
  0
VERTEX
  8
0
 62
7
  6
CONTINUOUS
 10
-11.7950923284
 20
554.9025238805
  0
VERTEX
  8
0
 62
7
  6
CONTINUOUS
 10
-12.6170134455
 20
554.0491322869
  0
VERTEX
  8
0
 62
7
  6
CONTINUOUS
 10
-13.2811244488
 20
553.2332852636
  0
VERTEX
  8
0
 62
7
  6
CONTINUOUS
 10
-13.8175908972
 20
552.4687716023
  0
VERTEX
  8
0
 62
7
  6
CONTINUOUS
 10
-14.2561313263
 20
551.7553789739
  0
VERTEX
  8
0
 62
7
  6
CONTINUOUS
 10
-14.62136945
 20
551.0860244272
  0
VERTEX
  8
0
 62
7
  6
CONTINUOUS
 10
-14.9312627091
 20
550.4532157417
  0
VERTEX
  8
0
 62
7
  6
CONTINUOUS
 10
-15.2036324618
 20
549.8388872193
  0
VERTEX
  8
0
 62
7
  6
CONTINUOUS
 10
-15.4052251165
 20
549.3440416517
  0
SEQEND
  0
LINE
  8
0
 62
7
  6
CONTINUOUS
 10
-3.674913022
 20
558.3621756143
 11
-3.6753815923
 21
558.36215687
  0
LINE
  8
0
 62
7
  6
CONTINUOUS
 10
192.9364577135
 20
565.4158319868
 11
162.812406675
 21
565.4158319868
  0
LINE
  8
0
 62
7
  6
CONTINUOUS
 10
205.4174089078
 20
565.5034727445
 11
192.8848807159
 21
565.5034727445
  0
LINE
  8
0
 62
7
  6
CONTINUOUS
 10
191.1788199435
 20
568.9009805975
 11
202.7840930518
 21
568.9009805975
  0
LINE
  8
0
 62
7
  6
CONTINUOUS
 10
165.651159066
 20
569.0783943486
 11
190.7581455869
 21
569.0783943486
  0
LINE
  8
0
 62
7
  6
CONTINUOUS
 10
185.5412279204
 20
570.3700520719
 11
185.8794192426
 21
570.3087901858
  0
POLYLINE
  8
0
 62
7
  6
CONTINUOUS
 66
1
 70
0
  0
VERTEX
  8
0
 62
7
  6
CONTINUOUS
 10
185.8794192426
 20
570.3087901858
  0
VERTEX
  8
0
 62
7
  6
CONTINUOUS
 10
186.2284774783
 20
570.2420379316
  0
VERTEX
  8
0
 62
7
  6
CONTINUOUS
 10
186.5869942639
 20
570.1702935506
  0
VERTEX
  8
0
 62
7
  6
CONTINUOUS
 10
186.9591946904
 20
570.0920623185
  0
VERTEX
  8
0
 62
7
  6
CONTINUOUS
 10
187.34793674
 20
570.0064796465
  0
VERTEX
  8
0
 62
7
  6
CONTINUOUS
 10
187.7559133756
 20
569.9121533679
  0
VERTEX
  8
0
 62
7
  6
CONTINUOUS
 10
188.1858928827
 20
569.8079854501
  0
VERTEX
  8
0
 62
7
  6
CONTINUOUS
 10
188.6405072754
 20
569.692228902
  0
VERTEX
  8
0
 62
7
  6
CONTINUOUS
 10
189.1224532646
 20
569.5635005805
  0
VERTEX
  8
0
 62
7
  6
CONTINUOUS
 10
189.6343050447
 20
569.4196109089
  0
VERTEX
  8
0
 62
7
  6
CONTINUOUS
 10
190.1799698507
 20
569.2575779345
  0
VERTEX
  8
0
 62
7
  6
CONTINUOUS
 10
190.758145271
 20
569.0783956416
  0
SEQEND
  0
POLYLINE
  8
0
 62
7
  6
CONTINUOUS
 66
1
 70
0
  0
VERTEX
  8
0
 62
7
  6
CONTINUOUS
 10
185.1047744647
 20
570.459519564
  0
VERTEX
  8
0
 62
7
  6
CONTINUOUS
 10
185.3095920081
 20
570.4143545839
  0
VERTEX
  8
0
 62
7
  6
CONTINUOUS
 10
185.5412279554
 20
570.3700509728
  0
SEQEND
  0
ARC
  8
0
 62
7
  6
CONTINUOUS
 10
184.275392042
 20
-4064.784847646
 40
4626.9659301398
 50
87.671966397
 51
92.328033679
  0
ARC
  8
0
 62
7
  6
CONTINUOUS
 10
184.275392042
 20
494.0934219251
 40
77.2632392753
 50
89.8218061009
 51
103.9484663514
  0
ARC
  8
0
 62
7
  6
CONTINUOUS
 10
184.275392042
 20
494.0934219251
 40
77.0632392753
 50
76.1031020349
 51
89.4495902558
  0
ARC
  8
0
 62
7
  6
CONTINUOUS
 10
4.781361522
 20
142.591377678
 40
7.0
 50
185.58183889
 51
208.2666755807
  0
ARC
  8
0
 62
7
  6
CONTINUOUS
 10
4.781361522
 20
142.591377678
 40
7.0
 50
213.2146084704
 51
245.0547123008
  0
ARC
  8
0
 62
7
  6
CONTINUOUS
 10
363.7694217672
 20
142.591377678
 40
7.0
 50
294.9420530313
 51
358.4999999798
  0
ARC
  8
0
 62
7
  6
CONTINUOUS
 10
-12.3288984513
 20
514.091377678
 40
5.0
 50
178.0000000001
 51
270.0
  0
ARC
  8
0
 62
7
  6
CONTINUOUS
 10
380.8796825352
 20
514.091377678
 40
5.0
 50
270.0
 51
1.9999999999
  0
ARC
  8
0
 62
7
  6
CONTINUOUS
 10
375.21634542
 20
504.091377678
 40
5.0
 50
0.0
 51
27.0000002271
  0
ARC
  8
0
 62
7
  6
CONTINUOUS
 10
-6.6860494088
 20
504.091377678
 40
5.0
 50
89.9999968893
 51
181.5000034774
  0
ARC
  8
0
 62
7
  6
CONTINUOUS
 10
375.2368318295
 20
504.091377678
 40
5.0
 50
84.2814284039
 51
87.8211865544
  0
ARC
  8
0
 62
7
  6
CONTINUOUS
 10
375.2368318295
 20
504.091377678
 40
5.0
 50
358.4999988327
 51
82.4435159793
  0
ARC
  8
0
 62
7
  6
CONTINUOUS
 10
211.0899762015
 20
562.9179644643
 40
1.0
 50
20.0000000001
 51
74.7276206909
  0
ARC
  8
0
 62
7
  6
CONTINUOUS
 10
157.4608078824
 20
562.9179644643
 40
1.0
 50
105.2723793091
 51
159.9999999999
  0
ENDSEC
  0
EOF
