999
DXF file: K:\Client\125_Heirloom\001\00\Final_Data\Drawings\TOILETS\loftwf-373110s_2.dxf
999
Pro/ENGINEER 2017110 by Parametric Technology Corporation
  0
SECTION
  2
HEADER
  9
$EXTMAX
 10
420.0
 20
297.0
 30
0.0
  9
$EXTMIN
 10
0.0
 20
0.0
 30
0.0
  9
$LIMMIN
 10
0.0
 20
0.0
  9
$LIMMAX
 10
420.0
 20
297.0
  9
$VIEWCTR
 10
210.0
 20
148.5
  9
$VIEWSIZE
 40
297.0
  9
$CLAYER
  8
0
  9
$LTSCALE
 40
23.1
  9
$CELTYPE
  6
BYLAYER
  9
$DIMSCALE
 40
1.0
  9
$DIMASZ
 40
3.0
  9
$DIMEXO
 40
1.0
  9
$DIMDLI
 40
15.96
  9
$DIMEXE
 40
1.0
  9
$DIMCEN
 40
3.78
  9
$DIMLFAC
 40
1.0
  9
$DIMBLK
  1
_FILLED
  9
$DIMALT
 70
0
  9
$DIMALTF
 40
0.0393700787
  9
$DIMTXT
 40
3.0
  9
$AUNITS
 70
0
  9
$PDMODE
 70
3
  9
$PDSIZE
 40
5.0
  9
$TILEMODE
 70
1
  0
ENDSEC
  0
SECTION
  2
TABLES
  0
TABLE
  2
LTYPE
 70
6
  0
LTYPE
  2
BYBLOCK
 70
0
  3

 72
65
 73
0
 40
0.0
  0
LTYPE
  2
BYLAYER
 70
0
  3

 72
65
 73
0
 40
0.0
  0
LTYPE
  2
CONTINUOUS
 70
64
  3
Solid line
 72
65
 73
0
 40
0.0
  0
LTYPE
  2
CENTER
 70
64
  3
____ _ ____ _ ____ _ ____ _ ____ _ ____ _ ____
 72
65
 73
4
 40
0.6
 49
0.375
 49
-0.075
 49
0.075
 49
-0.075
  0
LTYPE
  2
HIDDEN
 70
64
  3
- - - - - - - - - - - - - - - - - - - -
 72
65
 73
2
 40
0.2
 49
0.1
 49
-0.1
  0
LTYPE
  2
PHANTOM
 70
64
  3
_____ _ _ _____ _ _ _____ _ _ _____
 72
65
 73
6
 40
0.8
 49
0.45
 49
-0.05
 49
0.1
 49
-0.05
 49
0.1
 49
-0.05
  0
LTYPE
  2
DOT
 70
64
  3
. . . . . . . . . . . . . . . . . . . .
 72
65
 73
2
 40
0.2
 49
0.1
 49
-0.1
  0
LTYPE
  2
DASHED
 70
64
  3
- - - - - - - - - - - - - - - - - - - -
 72
65
 73
2
 40
0.2
 49
0.1
 49
-0.1
  0
ENDTAB
  0
TABLE
  2
LAYER
 70
36
  0
LAYER
  2
0
 70
0
 62
7
  6
CONTINUOUS
  0
LAYER
  2
DEFAULT_1
 70
0
 62
7
  6
CENTER
  0
LAYER
  2
DEFAULT_2
 70
0
 62
8
  6
HIDDEN
  0
LAYER
  2
DEFAULT_3
 70
0
 62
7
  6
PHANTOM
  0
LAYER
  2
0000_BOM
 70
0
 62
7
  6
CONTINUOUS
  0
LAYER
  2
0000_REV_TABLE
 70
0
 62
7
  6
CONTINUOUS
  0
LAYER
  2
0000_STEVENS_NOTE
 70
0
 62
7
  6
CONTINUOUS
  0
LAYER
  2
01_DATUM_PLANES
 70
0
 62
7
  6
CONTINUOUS
  0
LAYER
  2
01_DEF_PLANES
 70
0
 62
7
  6
CONTINUOUS
  0
LAYER
  2
02_DATUM_COS
 70
0
 62
7
  6
CONTINUOUS
  0
LAYER
  2
90_IMP_FEAT
 70
0
 62
7
  6
CONTINUOUS
  0
LAYER
  2
95_STL
 70
0
 62
7
  6
CONTINUOUS
  0
LAYER
  2
99_SOLID
 70
0
 62
7
  6
CONTINUOUS
  0
LAYER
  2
CAD-MASTER_ZINC-PL
 70
0
 62
7
  6
CONTINUOUS
  0
LAYER
  2
CURVE
 70
0
 62
7
  6
CONTINUOUS
  0
LAYER
  2
SKEL
 70
0
 62
7
  6
CONTINUOUS
  0
LAYER
  2
SKETCH
 70
0
 62
7
  6
CONTINUOUS
  0
LAYER
  2
SURFACE
 70
0
 62
7
  6
CONTINUOUS
  0
ENDTAB
  0
TABLE
  2
STYLE
 70
1
  0
STYLE
  2
STANDARD
 70
0
 40
0.0
 41
0.75
 50
0.0
 71
0
 42
0.2
  3
txt
  4

  0
STYLE
  2
TEXTSTYLE_1
 70
0
 40
0.0
 41
0.8
 50
0.0
 71
0
 42
0.2
  3
gdt
  4

  0
ENDTAB
  0
ENDSEC
  0
SECTION
  2
BLOCKS
  0
BLOCK
  8
0
 62
5
  6
CONTINUOUS
  2
PLUMBING_BL1
 70
64
 10
527.3674238703
 20
-266.8018158151
  0
CIRCLE
  8
0
 62
5
  6
CONTINUOUS
 10
527.3674238703
 20
-266.8018158151
 40
12.5
  0
LINE
  8
0
 62
5
  6
CONTINUOUS
 10
539.8674238703
 20
-254.3018158151
 11
514.8674238703
 21
-279.3018158151
  0
LINE
  8
0
 62
5
  6
CONTINUOUS
 10
527.3674238703
 20
-266.8018158151
 11
514.8674238703
 21
-254.3018158151
  0
LINE
  8
0
 62
5
  6
CONTINUOUS
 10
527.3674238703
 20
-266.8018158151
 11
539.8674238703
 21
-279.3018158151
  0
ENDBLK
  8
0
  6
BYBLOCK
 62
0
  0
BLOCK
  8
0
 62
1
  6
CONTINUOUS
  2
PLUMBING_BL0
 70
64
 10
317.3674238703
 20
-86.8018158151
  0
CIRCLE
  8
0
 62
1
  6
CONTINUOUS
 10
317.3674238703
 20
-86.8018158151
 40
12.5
  0
LINE
  8
0
 62
1
  6
CONTINUOUS
 10
329.8674238703
 20
-74.3018158151
 11
304.8674238703
 21
-99.3018158151
  0
LINE
  8
0
 62
1
  6
CONTINUOUS
 10
317.3674238703
 20
-86.8018158151
 11
304.8674238703
 21
-74.3018158151
  0
LINE
  8
0
 62
1
  6
CONTINUOUS
 10
317.3674238703
 20
-86.8018158151
 11
329.8674238703
 21
-99.3018158151
  0
ENDBLK
  8
0
  6
BYBLOCK
 62
0
  0
ENDSEC
  0
SECTION
  2
ENTITIES
  0
INSERT
  8
0
 62
1
  6
CONTINUOUS
  2
PLUMBING_BL0
 10
317.3674238703
 20
-86.8018158151
  0
INSERT
  8
0
 62
5
  6
CONTINUOUS
  2
PLUMBING_BL1
 10
527.3674238703
 20
-266.8018158151
  0
LINE
  8
DEFAULT_2
 62
8
  6
HIDDEN
 10
267.3659009379
 20
-136.8018158151
 11
317.3659009379
 21
-136.8018158151
  0
LINE
  8
DEFAULT_2
 62
8
  6
HIDDEN
 10
267.3659009379
 20
-36.8018158151
 11
317.3659009379
 21
-36.8018158151
  0
LINE
  8
DEFAULT_2
 62
8
  6
HIDDEN
 10
317.3659009379
 20
-37.1663721102
 11
317.3659009379
 21
-136.43725952
  0
LINE
  8
0
 62
7
  6
CONTINUOUS
 10
522.3674238703
 20
-266.8018158151
 11
-64.5610467956
 21
-266.8018158151
  0
LINE
  8
0
 62
7
  6
CONTINUOUS
 10
-170.2511829947
 20
148.3763247923
 11
-170.9497256052
 21
128.3726816684
  0
POLYLINE
  8
0
 62
7
  6
CONTINUOUS
 66
1
 70
0
  0
VERTEX
  8
0
 62
7
  6
CONTINUOUS
 10
430.1942250407
 20
569.507754316
  0
VERTEX
  8
0
 62
7
  6
CONTINUOUS
 10
430.7830789315
 20
569.6916569815
  0
VERTEX
  8
0
 62
7
  6
CONTINUOUS
 10
431.3401276926
 20
569.8581861465
  0
VERTEX
  8
0
 62
7
  6
CONTINUOUS
 10
431.8643992262
 20
570.0064205596
  0
VERTEX
  8
0
 62
7
  6
CONTINUOUS
 10
432.3588098256
 20
570.1391239749
  0
VERTEX
  8
0
 62
7
  6
CONTINUOUS
 10
432.8252788327
 20
570.2583141198
  0
VERTEX
  8
0
 62
7
  6
CONTINUOUS
 10
433.2658250037
 20
570.3653078237
  0
VERTEX
  8
0
 62
7
  6
CONTINUOUS
 10
433.6824086967
 20
570.4617390532
  0
VERTEX
  8
0
 62
7
  6
CONTINUOUS
 10
434.077124448
 20
570.5486741235
  0
VERTEX
  8
0
 62
7
  6
CONTINUOUS
 10
434.4520187746
 20
570.6274417106
  0
VERTEX
  8
0
 62
7
  6
CONTINUOUS
 10
434.8091960924
 20
570.698888698
  0
VERTEX
  8
0
 62
7
  6
CONTINUOUS
 10
435.1517913131
 20
570.764466083
  0
VERTEX
  8
0
 62
7
  6
CONTINUOUS
 10
435.4787594663
 20
570.8236901997
  0
SEQEND
  0
LINE
  8
0
 62
7
  6
CONTINUOUS
 10
-69.390675927
 20
-263.0959110406
 11
-170.5367699577
 21
114.3864508691
  0
LINE
  8
0
 62
7
  6
CONTINUOUS
 10
427.9732737783
 20
566.1102792513
 11
427.7295603843
 21
566.0226384936
  0
LINE
  8
0
 62
1
  6
CONTINUOUS
 10
319.8674238703
 20
-89.3018158151
 11
314.8674238703
 21
-84.3018158151
  0
LINE
  8
0
 62
7
  6
CONTINUOUS
 10
428.7431908943
 20
569.6852008555
 11
425.9044385033
 21
566.0226384936
  0
LINE
  8
0
 62
7
  6
CONTINUOUS
 10
429.5243326931
 20
568.3784686972
 11
430.1942250407
 21
569.507754316
  0
LINE
  8
0
 62
7
  6
CONTINUOUS
 10
429.1781944679
 20
568.4686398406
 11
428.0903708693
 21
566.6357355283
  0
LINE
  8
0
 62
7
  6
CONTINUOUS
 10
429.9078728268
 20
569.6852021484
 11
429.1781944679
 21
568.4686398406
  0
LINE
  8
0
 62
7
  6
CONTINUOUS
 10
-165.9527004388
 20
123.1981841849
 11
365.2111434425
 21
123.1981841849
  0
LINE
  8
0
 62
7
  6
CONTINUOUS
 10
274.4196887211
 20
133.1981841849
 11
320.088285881
 21
133.1981841849
  0
LINE
  8
0
 62
7
  6
CONTINUOUS
 10
367.2600801623
 20
136.1981841849
 11
522.3674238703
 21
136.1981841849
  0
LINE
  8
0
 62
7
  6
CONTINUOUS
 10
428.1924288637
 20
566.1103112166
 11
428.8570424484
 21
567.2459456553
  0
LINE
  8
0
 62
7
  6
CONTINUOUS
 10
428.0903708693
 20
566.6357355283
 11
427.7295603843
 21
566.0226384936
  0
LINE
  8
0
 62
7
  6
CONTINUOUS
 10
428.8570424484
 20
567.2459456553
 11
429.5243326931
 21
568.3784686972
  0
POLYLINE
  8
0
 62
7
  6
CONTINUOUS
 66
1
 70
0
  0
VERTEX
  8
0
 62
7
  6
CONTINUOUS
 10
-161.492498214
 20
157.0591389553
  0
VERTEX
  8
0
 62
7
  6
CONTINUOUS
 10
-162.6804809362
 20
156.9488908943
  0
VERTEX
  8
0
 62
7
  6
CONTINUOUS
 10
-163.8554735709
 20
156.6788530929
  0
VERTEX
  8
0
 62
7
  6
CONTINUOUS
 10
-164.9780618908
 20
156.2568142217
  0
VERTEX
  8
0
 62
7
  6
CONTINUOUS
 10
-166.0337892327
 20
155.6897522235
  0
VERTEX
  8
0
 62
7
  6
CONTINUOUS
 10
-167.0054146519
 20
154.986960631
  0
VERTEX
  8
0
 62
7
  6
CONTINUOUS
 10
-167.8749094171
 20
154.1613170717
  0
VERTEX
  8
0
 62
7
  6
CONTINUOUS
 10
-168.6269275543
 20
153.2274267222
  0
VERTEX
  8
0
 62
7
  6
CONTINUOUS
 10
-169.2482295149
 20
152.2016657656
  0
VERTEX
  8
0
 62
7
  6
CONTINUOUS
 10
-169.7271361741
 20
151.1038009639
  0
VERTEX
  8
0
 62
7
  6
CONTINUOUS
 10
-170.0562894952
 20
149.9507871024
  0
VERTEX
  8
0
 62
7
  6
CONTINUOUS
 10
-170.2298072927
 20
148.7570387702
  0
VERTEX
  8
0
 62
7
  6
CONTINUOUS
 10
-170.2511848335
 20
148.3763246882
  0
SEQEND
  0
LINE
  8
0
 62
7
  6
CONTINUOUS
 10
99.9956124261
 20
165.8637959211
 11
279.4005132926
 21
176.1607561561
  0
LINE
  8
0
 62
7
  6
CONTINUOUS
 10
-25.1820549345
 20
160.6321678696
 11
-161.4924964801
 21
157.0591390011
  0
LINE
  8
0
 62
7
  6
CONTINUOUS
 10
264.1150672863
 20
130.5550919285
 11
264.1150672863
 21
123.1981841849
  0
LINE
  8
0
 62
7
  6
CONTINUOUS
 10
419.61314709
 20
563.8667911144
 11
419.0293322327
 21
562.2627729768
  0
LINE
  8
0
 62
7
  6
CONTINUOUS
 10
284.516646302
 20
172.4630665657
 11
292.1985997261
 21
143.7936260857
  0
LINE
  8
0
 62
7
  6
CONTINUOUS
 10
320.088285881
 20
133.1981841849
 11
320.088285881
 21
123.1981841849
  0
POLYLINE
  8
0
 62
7
  6
CONTINUOUS
 66
1
 70
0
  0
VERTEX
  8
0
 62
7
  6
CONTINUOUS
 10
346.2609558676
 20
545.2974131057
  0
VERTEX
  8
0
 62
7
  6
CONTINUOUS
 10
346.3913077818
 20
546.6911067575
  0
VERTEX
  8
0
 62
7
  6
CONTINUOUS
 10
346.6814173713
 20
548.0541309395
  0
VERTEX
  8
0
 62
7
  6
CONTINUOUS
 10
347.1160332044
 20
549.3456197917
  0
VERTEX
  8
0
 62
7
  6
CONTINUOUS
 10
347.6912505674
 20
550.5739217713
  0
VERTEX
  8
0
 62
7
  6
CONTINUOUS
 10
348.4103797306
 20
551.7423591843
  0
VERTEX
  8
0
 62
7
  6
CONTINUOUS
 10
349.2657544711
 20
552.8296419364
  0
VERTEX
  8
0
 62
7
  6
CONTINUOUS
 10
350.2524673629
 20
553.8218974092
  0
VERTEX
  8
0
 62
7
  6
CONTINUOUS
 10
351.3568460624
 20
554.6987693772
  0
VERTEX
  8
0
 62
7
  6
CONTINUOUS
 10
352.5602350907
 20
555.4420641437
  0
VERTEX
  8
0
 62
7
  6
CONTINUOUS
 10
353.851513285
 20
556.0420687093
  0
VERTEX
  8
0
 62
7
  6
CONTINUOUS
 10
355.2203468712
 20
556.488982484
  0
VERTEX
  8
0
 62
7
  6
CONTINUOUS
 10
356.6297213478
 20
556.7682932505
  0
SEQEND
  0
LINE
  8
0
 62
7
  6
CONTINUOUS
 10
360.2643443732
 20
142.953887708
 11
347.6380487674
 21
504.5236867014
  0
LINE
  8
0
 62
7
  6
CONTINUOUS
 10
346.2609540516
 20
545.2974131699
 11
345.198499016
 21
514.8726816684
  0
LINE
  8
0
 62
1
  6
CONTINUOUS
 10
319.8674238703
 20
-84.3018158151
 11
314.8674238703
 21
-89.3018158151
  0
LINE
  8
0
 62
7
  6
CONTINUOUS
 10
527.3674238703
 20
553.1871989585
 11
527.3674238703
 21
514.6981841849
  0
LINE
  8
0
 62
7
  6
CONTINUOUS
 10
527.3674238703
 20
504.6981841849
 11
527.3674238703
 21
141.1981841381
  0
LINE
  8
0
 62
7
  6
CONTINUOUS
 10
527.3674238703
 20
131.1981843371
 11
527.3674238703
 21
-261.8018158151
  0
LINE
  8
0
 62
7
  6
CONTINUOUS
 10
425.9044385033
 20
566.0226384936
 11
420.2894316776
 21
564.4894554833
  0
POLYLINE
  8
0
 62
7
  6
CONTINUOUS
 66
1
 70
0
  0
VERTEX
  8
0
 62
7
  6
CONTINUOUS
 10
435.1247901773
 20
570.9768585788
  0
VERTEX
  8
0
 62
7
  6
CONTINUOUS
 10
434.7865988551
 20
570.9155966927
  0
VERTEX
  8
0
 62
7
  6
CONTINUOUS
 10
434.4375406194
 20
570.8488444384
  0
VERTEX
  8
0
 62
7
  6
CONTINUOUS
 10
434.0790238338
 20
570.7771000575
  0
VERTEX
  8
0
 62
7
  6
CONTINUOUS
 10
433.7068234074
 20
570.6988688253
  0
VERTEX
  8
0
 62
7
  6
CONTINUOUS
 10
433.3180813578
 20
570.6132861533
  0
VERTEX
  8
0
 62
7
  6
CONTINUOUS
 10
432.9101047221
 20
570.5189598748
  0
VERTEX
  8
0
 62
7
  6
CONTINUOUS
 10
432.480125215
 20
570.414791957
  0
VERTEX
  8
0
 62
7
  6
CONTINUOUS
 10
432.0255108224
 20
570.2990354088
  0
VERTEX
  8
0
 62
7
  6
CONTINUOUS
 10
431.5435648331
 20
570.1703070874
  0
VERTEX
  8
0
 62
7
  6
CONTINUOUS
 10
431.031713053
 20
570.0264174158
  0
VERTEX
  8
0
 62
7
  6
CONTINUOUS
 10
430.486048247
 20
569.8643844414
  0
VERTEX
  8
0
 62
7
  6
CONTINUOUS
 10
429.9078728268
 20
569.6852021484
  0
SEQEND
  0
POLYLINE
  8
0
 62
7
  6
CONTINUOUS
 66
1
 70
0
  0
VERTEX
  8
0
 62
7
  6
CONTINUOUS
 10
435.4787594663
 20
570.8236901997
  0
VERTEX
  8
0
 62
7
  6
CONTINUOUS
 10
435.6979862845
 20
570.8617666486
  0
VERTEX
  8
0
 62
7
  6
CONTINUOUS
 10
435.9349145934
 20
570.9005679879
  0
VERTEX
  8
0
 62
7
  6
CONTINUOUS
 10
436.1868770285
 20
570.9402536304
  0
VERTEX
  8
0
 62
7
  6
CONTINUOUS
 10
436.4519460948
 20
570.9803453382
  0
VERTEX
  8
0
 62
7
  6
CONTINUOUS
 10
436.7279896514
 20
571.0205241662
  0
VERTEX
  8
0
 62
7
  6
CONTINUOUS
 10
437.0128475823
 20
571.0604716487
  0
SEQEND
  0
LINE
  8
0
 62
7
  6
CONTINUOUS
 10
522.3674238703
 20
509.6981841849
 11
350.1954531513
 21
509.6981841849
  0
POLYLINE
  8
0
 62
7
  6
CONTINUOUS
 66
1
 70
0
  0
VERTEX
  8
0
 62
7
  6
CONTINUOUS
 10
436.9149808555
 20
571.2525491414
  0
VERTEX
  8
0
 62
7
  6
CONTINUOUS
 10
436.5824676217
 20
571.2060328131
  0
VERTEX
  8
0
 62
7
  6
CONTINUOUS
 10
436.2602269652
 20
571.1592401381
  0
VERTEX
  8
0
 62
7
  6
CONTINUOUS
 10
435.9507901853
 20
571.1125430787
  0
VERTEX
  8
0
 62
7
  6
CONTINUOUS
 10
435.6567333526
 20
571.0663260708
  0
VERTEX
  8
0
 62
7
  6
CONTINUOUS
 10
435.380382392
 20
571.0211610907
  0
VERTEX
  8
0
 62
7
  6
CONTINUOUS
 10
435.1247902122
 20
570.9768574796
  0
SEQEND
  0
LINE
  8
0
 62
7
  6
CONTINUOUS
 10
437.0128475823
 20
571.0604716487
 11
437.6000798099
 21
571.1383982348
  0
LINE
  8
0
 62
7
  6
CONTINUOUS
 10
437.6002773739
 20
571.3432524356
 11
436.9149808555
 21
571.2525491414
  0
LINE
  8
0
 62
7
  6
CONTINUOUS
 10
468.8304092373
 20
566.0226384936
 11
467.0052873564
 21
566.0226384936
  0
LINE
  8
0
 62
7
  6
CONTINUOUS
 10
427.7295603843
 20
566.0226384936
 11
425.9044385033
 21
566.0226384936
  0
LINE
  8
0
 62
7
  6
CONTINUOUS
 10
466.7615739624
 20
566.1102792513
 11
427.9732737783
 21
566.1102792513
  0
LINE
  8
0
 62
7
  6
CONTINUOUS
 10
430.1943432998
 20
569.5077871043
 11
464.5405191907
 21
569.5077871043
  0
LINE
  8
0
 62
7
  6
CONTINUOUS
 10
428.7431908943
 20
569.6852008555
 11
429.9078717449
 21
569.6852008555
  0
LINE
  8
0
 62
7
  6
CONTINUOUS
 10
464.8269759957
 20
569.6852008555
 11
465.9916568463
 21
569.6852008555
  0
LINE
  8
0
 62
7
  6
CONTINUOUS
 10
475.1217006506
 20
563.8667911144
 11
475.7987910022
 21
562.0065006625
  0
POLYLINE
  8
0
 62
7
  6
CONTINUOUS
 66
1
 70
0
  0
VERTEX
  8
0
 62
7
  6
CONTINUOUS
 10
457.1347679308
 20
571.1383982348
  0
VERTEX
  8
0
 62
7
  6
CONTINUOUS
 10
457.7220003922
 20
571.0604716002
  0
VERTEX
  8
0
 62
7
  6
CONTINUOUS
 10
458.0068606819
 20
571.0205237856
  0
VERTEX
  8
0
 62
7
  6
CONTINUOUS
 10
458.2829061298
 20
570.980344675
  0
VERTEX
  8
0
 62
7
  6
CONTINUOUS
 10
458.5479743342
 20
570.9402530829
  0
VERTEX
  8
0
 62
7
  6
CONTINUOUS
 10
458.7999352042
 20
570.9005676724
  0
VERTEX
  8
0
 62
7
  6
CONTINUOUS
 10
459.0368624211
 20
570.8617664948
  0
VERTEX
  8
0
 62
7
  6
CONTINUOUS
 10
459.2560882743
 20
570.8236901997
  0
SEQEND
  0
POLYLINE
  8
0
 62
7
  6
CONTINUOUS
 66
1
 70
0
  0
VERTEX
  8
0
 62
7
  6
CONTINUOUS
 10
459.6096416649
 20
570.9769276549
  0
VERTEX
  8
0
 62
7
  6
CONTINUOUS
 10
459.3538443561
 20
571.0212649811
  0
VERTEX
  8
0
 62
7
  6
CONTINUOUS
 10
459.0774145508
 20
571.0664383442
  0
VERTEX
  8
0
 62
7
  6
CONTINUOUS
 10
458.7834800797
 20
571.11263166
  0
VERTEX
  8
0
 62
7
  6
CONTINUOUS
 10
458.4742622515
 20
571.1592931808
  0
VERTEX
  8
0
 62
7
  6
CONTINUOUS
 10
458.1522086613
 20
571.2060568681
  0
VERTEX
  8
0
 62
7
  6
CONTINUOUS
 10
457.8198648914
 20
571.2525495102
  0
VERTEX
  8
0
 62
7
  6
CONTINUOUS
 10
457.1347679308
 20
571.3432359858
  0
SEQEND
  0
POLYLINE
  8
0
 62
7
  6
CONTINUOUS
 66
1
 70
0
  0
VERTEX
  8
0
 62
7
  6
CONTINUOUS
 10
459.2560882743
 20
570.8236901997
  0
VERTEX
  8
0
 62
7
  6
CONTINUOUS
 10
459.5903542792
 20
570.7630656416
  0
VERTEX
  8
0
 62
7
  6
CONTINUOUS
 10
459.937168101
 20
570.6966371159
  0
VERTEX
  8
0
 62
7
  6
CONTINUOUS
 10
460.2951212403
 20
570.6249286866
  0
VERTEX
  8
0
 62
7
  6
CONTINUOUS
 10
460.6684391952
 20
570.5463681621
  0
VERTEX
  8
0
 62
7
  6
CONTINUOUS
 10
461.0599556509
 20
570.460051991
  0
VERTEX
  8
0
 62
7
  6
CONTINUOUS
 10
461.472437546
 20
570.3644983156
  0
VERTEX
  8
0
 62
7
  6
CONTINUOUS
 10
461.9087055279
 20
570.2585429051
  0
VERTEX
  8
0
 62
7
  6
CONTINUOUS
 10
462.3714321558
 20
570.1403293274
  0
VERTEX
  8
0
 62
7
  6
CONTINUOUS
 10
462.8633666137
 20
570.0083884956
  0
VERTEX
  8
0
 62
7
  6
CONTINUOUS
 10
463.3870996747
 20
569.8603941439
  0
VERTEX
  8
0
 62
7
  6
CONTINUOUS
 10
463.9465769024
 20
569.693178316
  0
VERTEX
  8
0
 62
7
  6
CONTINUOUS
 10
464.5404831088
 20
569.5077969974
  0
SEQEND
  0
LINE
  8
0
 62
7
  6
CONTINUOUS
 10
468.8304092373
 20
566.0226384936
 11
474.445416063
 21
564.4894554833
  0
LINE
  8
0
 62
7
  6
CONTINUOUS
 10
465.920157884
 20
567.8587394566
 11
464.8269752167
 21
569.6852016436
  0
LINE
  8
0
 62
7
  6
CONTINUOUS
 10
464.5404831088
 20
569.5077969974
 11
465.2105809281
 21
568.3785464275
  0
LINE
  8
0
 62
7
  6
CONTINUOUS
 10
467.0052873564
 20
566.0226384936
 11
465.920157884
 21
567.8587394566
  0
LINE
  8
0
 62
7
  6
CONTINUOUS
 10
465.2105809281
 20
568.3785464275
 11
465.8778720631
 21
567.2460242499
  0
LINE
  8
0
 62
7
  6
CONTINUOUS
 10
465.8778720631
 20
567.2460242499
 11
466.542418877
 21
566.1101241699
  0
POLYLINE
  8
0
 62
7
  6
CONTINUOUS
 66
1
 70
0
  0
VERTEX
  8
0
 62
7
  6
CONTINUOUS
 10
464.8269752167
 20
569.6852016436
  0
VERTEX
  8
0
 62
7
  6
CONTINUOUS
 10
464.2467984417
 20
569.8650017755
  0
VERTEX
  8
0
 62
7
  6
CONTINUOUS
 10
463.6984589807
 20
570.0277637594
  0
VERTEX
  8
0
 62
7
  6
CONTINUOUS
 10
463.1830486294
 20
570.1725527219
  0
VERTEX
  8
0
 62
7
  6
CONTINUOUS
 10
462.6972920003
 20
570.3021732829
  0
VERTEX
  8
0
 62
7
  6
CONTINUOUS
 10
462.2390352721
 20
570.4186769351
  0
VERTEX
  8
0
 62
7
  6
CONTINUOUS
 10
461.806005542
 20
570.5233881863
  0
VERTEX
  8
0
 62
7
  6
CONTINUOUS
 10
461.3959926548
 20
570.6179608311
  0
VERTEX
  8
0
 62
7
  6
CONTINUOUS
 10
461.0066545473
 20
570.7034585021
  0
VERTEX
  8
0
 62
7
  6
CONTINUOUS
 10
460.6356962909
 20
570.7812170288
  0
VERTEX
  8
0
 62
7
  6
CONTINUOUS
 10
460.2807663263
 20
570.8520736149
  0
VERTEX
  8
0
 62
7
  6
CONTINUOUS
 10
459.9383585506
 20
570.917471051
  0
VERTEX
  8
0
 62
7
  6
CONTINUOUS
 10
459.6096416649
 20
570.9769284067
  0
SEQEND
  0
LINE
  8
0
 62
7
  6
CONTINUOUS
 10
467.0052873564
 20
566.0226384936
 11
466.7615739624
 21
566.1102792513
  0
LINE
  8
0
 62
7
  6
CONTINUOUS
 10
465.9916568463
 20
569.6852008555
 11
468.8304092373
 21
566.0226384936
  0
ARC
  8
0
 62
7
  6
CONTINUOUS
 10
445.1955233635
 20
-91.7520054555
 40
654.5398945648
 50
83.1765359072
 51
97.7765283673
  0
ARC
  8
0
 62
7
  6
CONTINUOUS
 10
-163.7752891737
 20
116.1981841849
 40
7.0
 50
90.0
 51
194.9999999997
  0
ARC
  8
0
 62
7
  6
CONTINUOUS
 10
-165.9527714702
 20
128.1981841849
 40
5.0
 50
178.0000000001
 51
270.0
  0
ARC
  8
0
 62
7
  6
CONTINUOUS
 10
-64.5610467956
 20
-261.8018158151
 40
5.0
 50
195.0000000001
 51
270.0
  0
ARC
  8
0
 62
7
  6
CONTINUOUS
 10
-130.6600213326
 20
4184.5984675569
 40
4025.348479624
 50
271.5015182268
 51
273.2848924953
  0
ARC
  8
0
 62
7
  6
CONTINUOUS
 10
356.4719513713
 20
130.1981841849
 40
7.0
 50
270.0
 51
355.9039562416
  0
ARC
  8
0
 62
7
  6
CONTINUOUS
 10
287.3689705941
 20
142.499530862
 40
5.0
 50
289.0946307427
 51
14.999999979
  0
ARC
  8
0
 62
7
  6
CONTINUOUS
 10
202.3389121388
 20
388.1261310265
 40
264.9279468416
 50
270.0
 51
289.094630605
  0
ARC
  8
0
 62
7
  6
CONTINUOUS
 10
350.1954531513
 20
514.6981841849
 40
5.0
 50
178.0000000001
 51
270.0
  0
ARC
  8
0
 62
7
  6
CONTINUOUS
 10
352.6350029023
 20
504.6981841849
 40
5.0
 50
90.0
 51
181.9999999999
  0
ARC
  8
0
 62
7
  6
CONTINUOUS
 10
279.6868816067
 20
171.1689648246
 40
4.9999987409
 50
14.9996704548
 51
93.2833347566
  0
ARC
  8
0
 62
7
  6
CONTINUOUS
 10
445.1955244268
 20
-91.7520055641
 40
654.5398945648
 50
83.1765650206
 51
87.3198962138
  0
ARC
  8
0
 62
7
  6
CONTINUOUS
 10
445.1955244268
 20
-91.7520055641
 40
654.5398945648
 50
92.2910982098
 51
97.7765282843
  0
ARC
  8
0
 62
7
  6
CONTINUOUS
 10
367.2600801623
 20
143.1981841849
 40
7.0
 50
182.0
 51
270.0
  0
ARC
  8
0
 62
7
  6
CONTINUOUS
 10
370.4361914143
 20
129.1981841849
 40
7.0
 50
90.0
 51
175.9039562413
  0
ARC
  8
0
 62
7
  6
CONTINUOUS
 10
522.3674238703
 20
131.1981841849
 40
5.0
 50
0.0000017441
 51
90.0
  0
ARC
  8
0
 62
7
  6
CONTINUOUS
 10
522.3674238703
 20
-261.8018158151
 40
5.0
 50
270.0
 51
360.0
  0
ARC
  8
0
 62
7
  6
CONTINUOUS
 10
522.3674244975
 20
141.1981853872
 40
4.9999993674
 50
269.999992813
 51
359.9999856856
  0
ARC
  8
0
 62
7
  6
CONTINUOUS
 10
447.3674238703
 20
494.7002284319
 40
77.2632392753
 50
98.8744770456
 51
103.9484663514
  0
ARC
  8
0
 62
7
  6
CONTINUOUS
 10
447.3674238703
 20
494.7002284319
 40
77.2632392753
 50
76.0515336486
 51
81.1255229544
  0
ARC
  8
0
 62
7
  6
CONTINUOUS
 10
447.3674238703
 20
494.7002284319
 40
77.2628656098
 50
82.7374268789
 51
97.2624485759
  0
ARC
  8
0
 62
7
  6
CONTINUOUS
 10
447.3674238703
 20
494.7002284319
 40
77.0596834461
 50
82.7181508037
 51
97.2818491963
  0
ARC
  8
0
 62
7
  6
CONTINUOUS
 10
522.3674238703
 20
514.6981841849
 40
5.0
 50
270.0
 51
360.0
  0
ARC
  8
0
 62
7
  6
CONTINUOUS
 10
522.3674238693
 20
553.1871989437
 40
5.0000000001
 50
0.0000001623
 51
83.1764535424
  0
ARC
  8
0
 62
7
  6
CONTINUOUS
 10
522.3674238703
 20
504.6981841849
 40
5.0
 50
0.0
 51
90.0
  0
ARC
  8
0
 62
7
  6
CONTINUOUS
 10
420.5528397108
 20
563.5247709711
 40
1.0
 50
105.2723793093
 51
160.0
  0
ARC
  8
0
 62
7
  6
CONTINUOUS
 10
474.1820080298
 20
563.5247709711
 40
1.0
 50
20.0
 51
74.7276206907
  0
ENDSEC
  0
EOF
