999
DXF file: K:\Client\125_Heirloom\001\00\Final_Data\Drawings\TOILETS\loftwf-373110s_3.dxf
999
Pro/ENGINEER 2017110 by Parametric Technology Corporation
  0
SECTION
  2
HEADER
  9
$EXTMAX
 10
420.0
 20
297.0
 30
0.0
  9
$EXTMIN
 10
0.0
 20
0.0
 30
0.0
  9
$LIMMIN
 10
0.0
 20
0.0
  9
$LIMMAX
 10
420.0
 20
297.0
  9
$VIEWCTR
 10
210.0
 20
148.5
  9
$VIEWSIZE
 40
297.0
  9
$CLAYER
  8
0
  9
$LTSCALE
 40
23.1
  9
$CELTYPE
  6
BYLAYER
  9
$DIMSCALE
 40
1.0
  9
$DIMASZ
 40
3.0
  9
$DIMEXO
 40
1.0
  9
$DIMDLI
 40
15.96
  9
$DIMEXE
 40
1.0
  9
$DIMCEN
 40
3.78
  9
$DIMLFAC
 40
1.0
  9
$DIMBLK
  1
_FILLED
  9
$DIMALT
 70
0
  9
$DIMALTF
 40
0.0393700787
  9
$DIMTXT
 40
3.0
  9
$AUNITS
 70
0
  9
$PDMODE
 70
3
  9
$PDSIZE
 40
5.0
  9
$TILEMODE
 70
1
  0
ENDSEC
  0
SECTION
  2
TABLES
  0
TABLE
  2
LTYPE
 70
6
  0
LTYPE
  2
BYBLOCK
 70
0
  3

 72
65
 73
0
 40
0.0
  0
LTYPE
  2
BYLAYER
 70
0
  3

 72
65
 73
0
 40
0.0
  0
LTYPE
  2
CONTINUOUS
 70
64
  3
Solid line
 72
65
 73
0
 40
0.0
  0
LTYPE
  2
CENTER
 70
64
  3
____ _ ____ _ ____ _ ____ _ ____ _ ____ _ ____
 72
65
 73
4
 40
0.6
 49
0.375
 49
-0.075
 49
0.075
 49
-0.075
  0
LTYPE
  2
HIDDEN
 70
64
  3
- - - - - - - - - - - - - - - - - - - -
 72
65
 73
2
 40
0.2
 49
0.1
 49
-0.1
  0
LTYPE
  2
PHANTOM
 70
64
  3
_____ _ _ _____ _ _ _____ _ _ _____
 72
65
 73
6
 40
0.8
 49
0.45
 49
-0.05
 49
0.1
 49
-0.05
 49
0.1
 49
-0.05
  0
LTYPE
  2
DOT
 70
64
  3
. . . . . . . . . . . . . . . . . . . .
 72
65
 73
2
 40
0.2
 49
0.1
 49
-0.1
  0
LTYPE
  2
DASHED
 70
64
  3
- - - - - - - - - - - - - - - - - - - -
 72
65
 73
2
 40
0.2
 49
0.1
 49
-0.1
  0
ENDTAB
  0
TABLE
  2
LAYER
 70
36
  0
LAYER
  2
0
 70
0
 62
7
  6
CONTINUOUS
  0
LAYER
  2
DEFAULT_1
 70
0
 62
7
  6
CENTER
  0
LAYER
  2
DEFAULT_2
 70
0
 62
8
  6
HIDDEN
  0
LAYER
  2
DEFAULT_3
 70
0
 62
7
  6
PHANTOM
  0
LAYER
  2
0000_BOM
 70
0
 62
7
  6
CONTINUOUS
  0
LAYER
  2
0000_REV_TABLE
 70
0
 62
7
  6
CONTINUOUS
  0
LAYER
  2
0000_STEVENS_NOTE
 70
0
 62
7
  6
CONTINUOUS
  0
LAYER
  2
01_DATUM_PLANES
 70
0
 62
7
  6
CONTINUOUS
  0
LAYER
  2
01_DEF_PLANES
 70
0
 62
7
  6
CONTINUOUS
  0
LAYER
  2
02_DATUM_COS
 70
0
 62
7
  6
CONTINUOUS
  0
LAYER
  2
90_IMP_FEAT
 70
0
 62
7
  6
CONTINUOUS
  0
LAYER
  2
95_STL
 70
0
 62
7
  6
CONTINUOUS
  0
LAYER
  2
99_SOLID
 70
0
 62
7
  6
CONTINUOUS
  0
LAYER
  2
CAD-MASTER_ZINC-PL
 70
0
 62
7
  6
CONTINUOUS
  0
LAYER
  2
CURVE
 70
0
 62
7
  6
CONTINUOUS
  0
LAYER
  2
SKEL
 70
0
 62
7
  6
CONTINUOUS
  0
LAYER
  2
SKETCH
 70
0
 62
7
  6
CONTINUOUS
  0
LAYER
  2
SURFACE
 70
0
 62
7
  6
CONTINUOUS
  0
ENDTAB
  0
TABLE
  2
STYLE
 70
1
  0
STYLE
  2
STANDARD
 70
0
 40
0.0
 41
0.75
 50
0.0
 71
0
 42
0.2
  3
txt
  4

  0
STYLE
  2
TEXTSTYLE_1
 70
0
 40
0.0
 41
0.8
 50
0.0
 71
0
 42
0.2
  3
gdt
  4

  0
ENDTAB
  0
ENDSEC
  0
SECTION
  2
BLOCKS
  0
BLOCK
  8
0
 62
1
  6
CONTINUOUS
  2
PLUMBING_BL1
 70
64
 10
186.0327043836
 20
290.8725776099
  0
CIRCLE
  8
0
 62
1
  6
CONTINUOUS
 10
186.0327043836
 20
290.8725776099
 40
12.5
  0
LINE
  8
0
 62
1
  6
CONTINUOUS
 10
198.5327043836
 20
303.3725776099
 11
173.5327043836
 21
278.3725776099
  0
LINE
  8
0
 62
1
  6
CONTINUOUS
 10
186.0327043836
 20
290.8725776099
 11
173.5327043836
 21
303.3725776099
  0
LINE
  8
0
 62
1
  6
CONTINUOUS
 10
186.0327043836
 20
290.8725776099
 11
198.5327043836
 21
278.3725776099
  0
ENDBLK
  8
0
  6
BYBLOCK
 62
0
  0
BLOCK
  8
0
 62
5
  6
CONTINUOUS
  2
PLUMBING_BL0
 70
64
 10
186.0327043836
 20
500.8725776099
  0
CIRCLE
  8
0
 62
5
  6
CONTINUOUS
 10
186.0327043836
 20
500.8725776099
 40
12.5
  0
LINE
  8
0
 62
5
  6
CONTINUOUS
 10
198.5327043836
 20
513.3725776099
 11
173.5327043836
 21
488.3725776099
  0
LINE
  8
0
 62
5
  6
CONTINUOUS
 10
186.0327043836
 20
500.8725776099
 11
173.5327043836
 21
513.3725776099
  0
LINE
  8
0
 62
5
  6
CONTINUOUS
 10
186.0327043836
 20
500.8725776099
 11
198.5327043836
 21
488.3725776099
  0
ENDBLK
  8
0
  6
BYBLOCK
 62
0
  0
ENDSEC
  0
SECTION
  2
ENTITIES
  0
INSERT
  8
0
 62
5
  6
CONTINUOUS
  2
PLUMBING_BL0
 10
186.0327043836
 20
500.8725776099
  0
INSERT
  8
0
 62
1
  6
CONTINUOUS
  2
PLUMBING_BL1
 10
186.0327043836
 20
290.8725776099
  0
LINE
  8
0
 62
7
  6
CONTINUOUS
 10
-15.5564650567
 20
377.0796897139
 11
-12.7254692783
 21
495.9915814277
  0
LINE
  8
0
 62
7
  6
CONTINUOUS
 10
194.6937700551
 20
440.510441096
 11
187.2981243636
 21
433.1147954045
  0
LINE
  8
0
 62
7
  6
CONTINUOUS
 10
187.6516777542
 20
432.7612420139
 11
194.9380083569
 21
440.0475726166
  0
POLYLINE
  8
0
 62
7
  6
CONTINUOUS
 66
1
 70
0
  0
VERTEX
  8
0
 62
7
  6
CONTINUOUS
 10
6.2267200165
 20
10.6670848728
  0
VERTEX
  8
0
 62
7
  6
CONTINUOUS
 10
6.9345263484
 20
-11.3999393684
  0
VERTEX
  8
0
 62
7
  6
CONTINUOUS
 10
8.5407618903
 20
-32.4014483704
  0
VERTEX
  8
0
 62
7
  6
CONTINUOUS
 10
10.9188176246
 20
-50.8385563196
  0
VERTEX
  8
0
 62
7
  6
CONTINUOUS
 10
13.9286319772
 20
-66.887030135
  0
VERTEX
  8
0
 62
7
  6
CONTINUOUS
 10
17.4206745277
 20
-80.7831079799
  0
VERTEX
  8
0
 62
7
  6
CONTINUOUS
 10
21.3380310615
 20
-93.0225988656
  0
VERTEX
  8
0
 62
7
  6
CONTINUOUS
 10
25.6343178432
 20
-103.9247389852
  0
VERTEX
  8
0
 62
7
  6
CONTINUOUS
 10
30.3078926019
 20
-113.7780148134
  0
VERTEX
  8
0
 62
7
  6
CONTINUOUS
 10
35.3420469559
 20
-122.7377046594
  0
VERTEX
  8
0
 62
7
  6
CONTINUOUS
 10
40.7623177486
 20
-130.9745977009
  0
VERTEX
  8
0
 62
7
  6
CONTINUOUS
 10
46.5839424447
 20
-138.5858495392
  0
VERTEX
  8
0
 62
7
  6
CONTINUOUS
 10
52.8462687867
 20
-145.6633612732
  0
VERTEX
  8
0
 62
7
  6
CONTINUOUS
 10
59.5987046692
 20
-152.2743107047
  0
VERTEX
  8
0
 62
7
  6
CONTINUOUS
 10
66.9004421892
 20
-158.4665567773
  0
VERTEX
  8
0
 62
7
  6
CONTINUOUS
 10
74.8837140168
 20
-164.3114755044
  0
VERTEX
  8
0
 62
7
  6
CONTINUOUS
 10
82.9099706653
 20
-169.3852304007
  0
SEQEND
  0
LINE
  8
0
 62
7
  6
CONTINUOUS
 10
4.1333790386
 20
175.7806807135
 11
6.2266977416
 21
10.6670855362
  0
LINE
  8
0
 62
7
  6
CONTINUOUS
 10
2.4961269348
 20
335.8134810076
 11
3.5674789944
 21
251.3090096969
  0
POLYLINE
  8
0
 62
7
  6
CONTINUOUS
 66
1
 70
0
  0
VERTEX
  8
0
 62
7
  6
CONTINUOUS
 10
3.567222389
 20
251.3090064437
  0
VERTEX
  8
0
 62
7
  6
CONTINUOUS
 10
3.6021464891
 20
239.5480728953
  0
VERTEX
  8
0
 62
7
  6
CONTINUOUS
 10
3.6630279493
 20
226.7976916327
  0
VERTEX
  8
0
 62
7
  6
CONTINUOUS
 10
3.748041165
 20
213.9186594523
  0
VERTEX
  8
0
 62
7
  6
CONTINUOUS
 10
3.8569703291
 20
200.9435275998
  0
VERTEX
  8
0
 62
7
  6
CONTINUOUS
 10
3.9895393623
 20
187.9050957743
  0
VERTEX
  8
0
 62
7
  6
CONTINUOUS
 10
4.1333714994
 20
175.7812790293
  0
SEQEND
  0
LINE
  8
0
 62
7
  6
CONTINUOUS
 10
41.0327043836
 20
263.872582064
 11
41.0327043836
 21
262.650627597
  0
LINE
  8
0
 62
7
  6
CONTINUOUS
 10
41.0326916126
 20
258.9271100398
 11
41.0326968472
 21
262.617193597
  0
LINE
  8
0
 62
7
  6
CONTINUOUS
 10
93.0148583626
 20
262.6169433923
 11
93.0148583626
 21
262.1945740996
  0
LINE
  8
0
 62
7
  6
CONTINUOUS
 10
102.8628942788
 20
262.1945740996
 11
102.8628942788
 21
262.6169411404
  0
LINE
  8
0
 62
1
  6
CONTINUOUS
 10
188.5327043836
 20
293.3725776099
 11
183.5327043836
 21
288.3725776099
  0
POLYLINE
  8
0
 62
7
  6
CONTINUOUS
 66
1
 70
0
  0
VERTEX
  8
0
 62
7
  6
CONTINUOUS
 10
93.0148583626
 20
262.1945740996
  0
VERTEX
  8
0
 62
7
  6
CONTINUOUS
 10
93.0791058676
 20
261.9733928372
  0
VERTEX
  8
0
 62
7
  6
CONTINUOUS
 10
93.2703379117
 20
261.7224928428
  0
VERTEX
  8
0
 62
7
  6
CONTINUOUS
 10
93.5843799691
 20
261.4337555496
  0
VERTEX
  8
0
 62
7
  6
CONTINUOUS
 10
94.0115262089
 20
261.1315366587
  0
VERTEX
  8
0
 62
7
  6
CONTINUOUS
 10
94.5379867771
 20
260.8303599639
  0
VERTEX
  8
0
 62
7
  6
CONTINUOUS
 10
95.1466806844
 20
260.5516026203
  0
VERTEX
  8
0
 62
7
  6
CONTINUOUS
 10
95.8212686627
 20
260.3182605237
  0
VERTEX
  8
0
 62
7
  6
CONTINUOUS
 10
96.5309298742
 20
260.1400012454
  0
VERTEX
  8
0
 62
7
  6
CONTINUOUS
 10
97.2414275859
 20
260.0363242639
  0
VERTEX
  8
0
 62
7
  6
CONTINUOUS
 10
97.9388763211
 20
260.0007297531
  0
SEQEND
  0
LINE
  8
0
 62
7
  6
CONTINUOUS
 10
186.2729980978
 20
411.1054311135
 11
186.2729980978
 21
430.6398905821
  0
LINE
  8
0
 62
7
  6
CONTINUOUS
 10
186.7729980978
 20
430.6399216704
 11
186.7729980978
 21
411.1052335495
  0
POLYLINE
  8
0
 62
7
  6
CONTINUOUS
 66
1
 70
0
  0
VERTEX
  8
0
 62
7
  6
CONTINUOUS
 10
331.5712817946
 20
259.1022023218
  0
VERTEX
  8
0
 62
7
  6
CONTINUOUS
 10
331.5907461392
 20
259.1151027515
  0
VERTEX
  8
0
 62
7
  6
CONTINUOUS
 10
331.5573948743
 20
259.0982215868
  0
VERTEX
  8
0
 62
7
  6
CONTINUOUS
 10
331.4303067243
 20
259.045759716
  0
VERTEX
  8
0
 62
7
  6
CONTINUOUS
 10
331.1884061926
 20
258.9672273489
  0
VERTEX
  8
0
 62
7
  6
CONTINUOUS
 10
330.8250351474
 20
258.8761735264
  0
VERTEX
  8
0
 62
7
  6
CONTINUOUS
 10
330.3343765652
 20
258.7841251926
  0
VERTEX
  8
0
 62
7
  6
CONTINUOUS
 10
329.7378150246
 20
258.7048467349
  0
VERTEX
  8
0
 62
7
  6
CONTINUOUS
 10
329.0682745533
 20
258.6482872051
  0
VERTEX
  8
0
 62
7
  6
CONTINUOUS
 10
328.3543589262
 20
258.6196660778
  0
VERTEX
  8
0
 62
7
  6
CONTINUOUS
 10
328.0327328842
 20
258.6166557801
  0
SEQEND
  0
LINE
  8
0
 62
7
  6
CONTINUOUS
 10
41.0326512177
 20
262.617193597
 11
40.9971665146
 21
262.650627597
  0
POLYLINE
  8
0
 62
7
  6
CONTINUOUS
 66
1
 70
0
  0
VERTEX
  8
0
 62
7
  6
CONTINUOUS
 10
40.9971665146
 20
262.650627597
  0
VERTEX
  8
0
 62
7
  6
CONTINUOUS
 10
40.9774090974
 20
262.6695846316
  0
VERTEX
  8
0
 62
7
  6
CONTINUOUS
 10
40.8973514815
 20
262.7507444559
  0
VERTEX
  8
0
 62
7
  6
CONTINUOUS
 10
40.8684489779
 20
262.7833402153
  0
SEQEND
  0
POLYLINE
  8
0
 62
7
  6
CONTINUOUS
 66
1
 70
0
  0
VERTEX
  8
0
 62
7
  6
CONTINUOUS
 10
279.0505504046
 20
262.1945740996
  0
VERTEX
  8
0
 62
7
  6
CONTINUOUS
 10
278.9784593558
 20
261.9704743274
  0
VERTEX
  8
0
 62
7
  6
CONTINUOUS
 10
278.7858426825
 20
261.7127927391
  0
VERTEX
  8
0
 62
7
  6
CONTINUOUS
 10
278.4662296825
 20
261.4241921145
  0
VERTEX
  8
0
 62
7
  6
CONTINUOUS
 10
278.0390324625
 20
261.1221781343
  0
VERTEX
  8
0
 62
7
  6
CONTINUOUS
 10
277.5154079209
 20
260.8246967433
  0
VERTEX
  8
0
 62
7
  6
CONTINUOUS
 10
276.9136509806
 20
260.549586591
  0
VERTEX
  8
0
 62
7
  6
CONTINUOUS
 10
276.2458330037
 20
260.3176768667
  0
VERTEX
  8
0
 62
7
  6
CONTINUOUS
 10
275.5417815713
 20
260.141181741
  0
VERTEX
  8
0
 62
7
  6
CONTINUOUS
 10
274.8395794732
 20
260.0350095289
  0
VERTEX
  8
0
 62
7
  6
CONTINUOUS
 10
274.126532446
 20
260.0007297207
  0
SEQEND
  0
LINE
  8
0
 62
7
  6
CONTINUOUS
 10
269.2025144883
 20
262.6169433923
 11
269.2025144883
 21
262.1945740996
  0
POLYLINE
  8
0
 62
7
  6
CONTINUOUS
 66
1
 70
0
  0
VERTEX
  8
0
 62
7
  6
CONTINUOUS
 10
331.1757213495
 20
262.7472851958
  0
VERTEX
  8
0
 62
7
  6
CONTINUOUS
 10
331.2036623984
 20
262.7915833027
  0
VERTEX
  8
0
 62
7
  6
CONTINUOUS
 10
331.1535347149
 20
262.735172644
  0
VERTEX
  8
0
 62
7
  6
CONTINUOUS
 10
331.0327063161
 20
262.6171888332
  0
SEQEND
  0
LINE
  8
0
 62
7
  6
CONTINUOUS
 10
279.0505504046
 20
262.1945740996
 11
279.0505504046
 21
262.6169411404
  0
LINE
  8
0
 62
7
  6
CONTINUOUS
 10
44.0327043836
 20
258.6166557839
 11
328.0327043836
 21
258.6166557839
  0
LINE
  8
0
 62
7
  6
CONTINUOUS
 10
331.0327069628
 20
262.6171936646
 11
279.0505504046
 21
262.6171936646
  0
LINE
  8
0
 62
7
  6
CONTINUOUS
 10
269.2025144883
 20
262.6171936646
 11
102.8628942788
 21
262.6171936646
  0
LINE
  8
0
 62
7
  6
CONTINUOUS
 10
93.0148583626
 20
262.6171936646
 11
41.0326886438
 21
262.6171936646
  0
POLYLINE
  8
0
 62
7
  6
CONTINUOUS
 66
1
 70
0
  0
VERTEX
  8
0
 62
7
  6
CONTINUOUS
 10
44.0326834061
 20
258.6166557831
  0
VERTEX
  8
0
 62
7
  6
CONTINUOUS
 10
43.7330714594
 20
258.6192674949
  0
VERTEX
  8
0
 62
7
  6
CONTINUOUS
 10
43.0422706209
 20
258.6455515223
  0
VERTEX
  8
0
 62
7
  6
CONTINUOUS
 10
42.3927431691
 20
258.6979533115
  0
VERTEX
  8
0
 62
7
  6
CONTINUOUS
 10
41.8068642057
 20
258.772282823
  0
VERTEX
  8
0
 62
7
  6
CONTINUOUS
 10
41.3196544988
 20
258.8592538697
  0
VERTEX
  8
0
 62
7
  6
CONTINUOUS
 10
40.9553601214
 20
258.9453960938
  0
VERTEX
  8
0
 62
7
  6
CONTINUOUS
 10
40.7002396987
 20
259.0225664852
  0
VERTEX
  8
0
 62
7
  6
CONTINUOUS
 10
40.5450658222
 20
259.0815723246
  0
SEQEND
  0
LINE
  8
0
 62
1
  6
CONTINUOUS
 10
188.5327043836
 20
288.3725776099
 11
183.5327043836
 21
293.3725776099
  0
POLYLINE
  8
0
 62
7
  6
CONTINUOUS
 66
1
 70
0
  0
VERTEX
  8
0
 62
7
  6
CONTINUOUS
 10
17.694550635
 20
265.8481587545
  0
VERTEX
  8
0
 62
7
  6
CONTINUOUS
 10
15.8688031869
 20
265.6337973272
  0
VERTEX
  8
0
 62
7
  6
CONTINUOUS
 10
14.0826234181
 20
265.2054773556
  0
VERTEX
  8
0
 62
7
  6
CONTINUOUS
 10
12.3644663351
 20
264.5697861178
  0
VERTEX
  8
0
 62
7
  6
CONTINUOUS
 10
10.7413528719
 20
263.7370017974
  0
VERTEX
  8
0
 62
7
  6
CONTINUOUS
 10
9.2371420306
 20
262.7198885641
  0
VERTEX
  8
0
 62
7
  6
CONTINUOUS
 10
7.875079327
 20
261.5350291264
  0
VERTEX
  8
0
 62
7
  6
CONTINUOUS
 10
6.6742088626
 20
260.2001906826
  0
VERTEX
  8
0
 62
7
  6
CONTINUOUS
 10
5.6522126817
 20
258.7365863052
  0
VERTEX
  8
0
 62
7
  6
CONTINUOUS
 10
4.822534698
 20
257.16539941
  0
VERTEX
  8
0
 62
7
  6
CONTINUOUS
 10
4.1965208855
 20
255.5102104179
  0
VERTEX
  8
0
 62
7
  6
CONTINUOUS
 10
3.7821009851
 20
253.7942821386
  0
VERTEX
  8
0
 62
7
  6
CONTINUOUS
 10
3.5846516285
 20
252.0409906843
  0
VERTEX
  8
0
 62
7
  6
CONTINUOUS
 10
3.567221703
 20
251.309462892
  0
SEQEND
  0
POLYLINE
  8
0
 62
7
  6
CONTINUOUS
 66
1
 70
0
  0
VERTEX
  8
0
 62
7
  6
CONTINUOUS
 10
97.9388763211
 20
260.0007297531
  0
VERTEX
  8
0
 62
7
  6
CONTINUOUS
 10
98.6382685448
 20
260.0369700792
  0
VERTEX
  8
0
 62
7
  6
CONTINUOUS
 10
99.3493322627
 20
260.1408249177
  0
VERTEX
  8
0
 62
7
  6
CONTINUOUS
 10
100.0579372941
 20
260.3186461086
  0
VERTEX
  8
0
 62
7
  6
CONTINUOUS
 10
100.7310781671
 20
260.551378132
  0
VERTEX
  8
0
 62
7
  6
CONTINUOUS
 10
101.3388295587
 20
260.8297632431
  0
VERTEX
  8
0
 62
7
  6
CONTINUOUS
 10
101.8649477028
 20
261.1307599565
  0
VERTEX
  8
0
 62
7
  6
CONTINUOUS
 10
102.2925761938
 20
261.4331713301
  0
VERTEX
  8
0
 62
7
  6
CONTINUOUS
 10
102.6071247368
 20
261.7222059895
  0
VERTEX
  8
0
 62
7
  6
CONTINUOUS
 10
102.7985792912
 20
261.9732747849
  0
VERTEX
  8
0
 62
7
  6
CONTINUOUS
 10
102.8628942788
 20
262.1945740996
  0
SEQEND
  0
LINE
  8
0
 62
7
  6
CONTINUOUS
 10
18.5933874094
 20
265.8741243261
 11
17.694550635
 21
265.8481587545
  0
LINE
  8
0
 62
7
  6
CONTINUOUS
 10
39.0327043836
 20
265.8741243338
 11
18.5933872152
 21
265.8741243338
  0
LINE
  8
0
 62
7
  6
CONTINUOUS
 10
333.0327043836
 20
265.8741243338
 11
353.472021552
 21
265.8741243338
  0
LINE
  8
0
 62
7
  6
CONTINUOUS
 10
354.3596606832
 20
265.8488021751
 11
353.4720263787
 21
265.8741246194
  0
POLYLINE
  8
0
 62
7
  6
CONTINUOUS
 66
1
 70
0
  0
VERTEX
  8
0
 62
7
  6
CONTINUOUS
 10
274.126532446
 20
260.0007297207
  0
VERTEX
  8
0
 62
7
  6
CONTINUOUS
 10
273.4122995187
 20
260.035696889
  0
VERTEX
  8
0
 62
7
  6
CONTINUOUS
 10
272.7101890907
 20
260.1417888914
  0
VERTEX
  8
0
 62
7
  6
CONTINUOUS
 10
272.0079276704
 20
260.3172866703
  0
VERTEX
  8
0
 62
7
  6
CONTINUOUS
 10
271.3423357322
 20
260.5479731655
  0
VERTEX
  8
0
 62
7
  6
CONTINUOUS
 10
270.7422397029
 20
260.82214036
  0
VERTEX
  8
0
 62
7
  6
CONTINUOUS
 10
270.2193482324
 20
261.1191331249
  0
VERTEX
  8
0
 62
7
  6
CONTINUOUS
 10
269.7907166234
 20
261.4213139058
  0
VERTEX
  8
0
 62
7
  6
CONTINUOUS
 10
269.4691313448
 20
261.7105872617
  0
VERTEX
  8
0
 62
7
  6
CONTINUOUS
 10
269.2753729127
 20
261.9693236349
  0
VERTEX
  8
0
 62
7
  6
CONTINUOUS
 10
269.2025144883
 20
262.1945740996
  0
SEQEND
  0
LINE
  8
0
 62
7
  6
CONTINUOUS
 10
331.0327043836
 20
263.872582064
 11
331.0326991728
 21
258.9282101528
  0
POLYLINE
  8
0
 62
7
  6
CONTINUOUS
 66
1
 70
0
  0
VERTEX
  8
0
 62
7
  6
CONTINUOUS
 10
368.4981868947
 20
251.3093298113
  0
VERTEX
  8
0
 62
7
  6
CONTINUOUS
 10
368.4814189392
 20
252.0275604131
  0
VERTEX
  8
0
 62
7
  6
CONTINUOUS
 10
368.285384047
 20
253.7824812245
  0
VERTEX
  8
0
 62
7
  6
CONTINUOUS
 10
367.871836317
 20
255.500643722
  0
VERTEX
  8
0
 62
7
  6
CONTINUOUS
 10
367.2460634927
 20
257.158322118
  0
VERTEX
  8
0
 62
7
  6
CONTINUOUS
 10
366.4161297296
 20
258.7317747371
  0
VERTEX
  8
0
 62
7
  6
CONTINUOUS
 10
365.3933589733
 20
260.1974715667
  0
VERTEX
  8
0
 62
7
  6
CONTINUOUS
 10
364.1912403901
 20
261.5341333845
  0
VERTEX
  8
0
 62
7
  6
CONTINUOUS
 10
362.8275669931
 20
262.7204262582
  0
VERTEX
  8
0
 62
7
  6
CONTINUOUS
 10
361.3215149177
 20
263.7385046141
  0
VERTEX
  8
0
 62
7
  6
CONTINUOUS
 10
359.6963474353
 20
264.5718050825
  0
VERTEX
  8
0
 62
7
  6
CONTINUOUS
 10
357.9758490798
 20
265.2075814823
  0
VERTEX
  8
0
 62
7
  6
CONTINUOUS
 10
356.1873889599
 20
265.6354338436
  0
VERTEX
  8
0
 62
7
  6
CONTINUOUS
 10
354.3596606832
 20
265.8488021751
  0
SEQEND
  0
POLYLINE
  8
0
 62
7
  6
CONTINUOUS
 66
1
 70
0
  0
VERTEX
  8
0
 62
7
  6
CONTINUOUS
 10
368.4981863461
 20
251.3103100581
  0
VERTEX
  8
0
 62
7
  6
CONTINUOUS
 10
368.4611284605
 20
238.9995541104
  0
VERTEX
  8
0
 62
7
  6
CONTINUOUS
 10
368.400898828
 20
226.5384089268
  0
VERTEX
  8
0
 62
7
  6
CONTINUOUS
 10
368.3176449592
 20
213.9556458936
  0
VERTEX
  8
0
 62
7
  6
CONTINUOUS
 10
368.2115689281
 20
201.2814490156
  0
VERTEX
  8
0
 62
7
  6
CONTINUOUS
 10
368.082926623
 20
188.5462201887
  0
VERTEX
  8
0
 62
7
  6
CONTINUOUS
 10
367.9320297829
 20
175.7807133173
  0
SEQEND
  0
LINE
  8
0
 62
7
  6
CONTINUOUS
 10
369.5692818324
 20
335.8134810076
 11
368.4979297379
 21
251.3090069559
  0
LINE
  8
0
 62
7
  6
CONTINUOUS
 10
367.9320297285
 20
175.7806807136
 11
365.8387110256
 21
10.6670855362
  0
LINE
  8
0
 62
7
  6
CONTINUOUS
 10
187.2985402621
 20
408.6299439169
 11
194.6937700551
 21
401.2347141239
  0
LINE
  8
0
 62
7
  6
CONTINUOUS
 10
194.9380083569
 20
401.6975826033
 11
187.6516777542
 21
408.9839132059
  0
LINE
  8
0
 62
7
  6
CONTINUOUS
 10
387.6218738239
 20
377.0796897139
 11
384.7908780454
 21
495.9915814277
  0
POLYLINE
  8
0
 62
7
  6
CONTINUOUS
 66
1
 70
0
  0
VERTEX
  8
0
 62
7
  6
CONTINUOUS
 10
289.1523560075
 20
-169.3870441037
  0
VERTEX
  8
0
 62
7
  6
CONTINUOUS
 10
296.9016798448
 20
-164.5011624834
  0
VERTEX
  8
0
 62
7
  6
CONTINUOUS
 10
304.7639580178
 20
-158.7816387157
  0
VERTEX
  8
0
 62
7
  6
CONTINUOUS
 10
312.0956481863
 20
-152.6113137992
  0
VERTEX
  8
0
 62
7
  6
CONTINUOUS
 10
318.9243263621
 20
-145.9724237308
  0
VERTEX
  8
0
 62
7
  6
CONTINUOUS
 10
325.2317244875
 20
-138.8883417696
  0
VERTEX
  8
0
 62
7
  6
CONTINUOUS
 10
331.0934632929
 20
-131.2689389567
  0
VERTEX
  8
0
 62
7
  6
CONTINUOUS
 10
336.5473709869
 20
-123.0259081054
  0
VERTEX
  8
0
 62
7
  6
CONTINUOUS
 10
341.6114494065
 20
-114.0595695498
  0
VERTEX
  8
0
 62
7
  6
CONTINUOUS
 10
346.3101889051
 20
-104.2027416034
  0
VERTEX
  8
0
 62
7
  6
CONTINUOUS
 10
350.6293995747
 20
-93.2965187538
  0
VERTEX
  8
0
 62
7
  6
CONTINUOUS
 10
354.5703897251
 20
-81.0428238485
  0
VERTEX
  8
0
 62
7
  6
CONTINUOUS
 10
358.0838699252
 20
-67.1276092021
  0
VERTEX
  8
0
 62
7
  6
CONTINUOUS
 10
361.1128211597
 20
-51.0518117331
  0
VERTEX
  8
0
 62
7
  6
CONTINUOUS
 10
363.5078555646
 20
-32.5652933609
  0
VERTEX
  8
0
 62
7
  6
CONTINUOUS
 10
365.1256725656
 20
-11.4981409357
  0
VERTEX
  8
0
 62
7
  6
CONTINUOUS
 10
365.8386977099
 20
10.6670826838
  0
SEQEND
  0
LINE
  8
0
 62
7
  6
CONTINUOUS
 10
-7.7268856697
 20
500.8725776099
 11
379.7922944369
 21
500.8725776099
  0
ARC
  8
0
 62
7
  6
CONTINUOUS
 10
186.0327043836
 20
3319.2213707119
 40
3000.520763821
 50
267.1171120563
 51
272.8828879437
  0
ARC
  8
0
 62
7
  6
CONTINUOUS
 10
186.0327043836
 20
6.0595177094
 40
203.50713544
 50
239.5538831962
 51
300.4451098048
  0
ARC
  8
0
 62
7
  6
CONTINUOUS
 10
37.8072050874
 20
375.8092337256
 40
53.3787911971
 50
178.6361879172
 51
267.1171120563
  0
ARC
  8
0
 62
7
  6
CONTINUOUS
 10
334.2582036798
 20
375.8092337256
 40
53.3787911971
 50
272.8828879437
 51
1.3638120828
  0
ARC
  8
0
 62
7
  6
CONTINUOUS
 10
104.4031076314
 20
265.6068303233
 40
27.9866092974
 50
353.857264681
 51
186.1389826946
  0
ARC
  8
0
 62
7
  6
CONTINUOUS
 10
267.6623011358
 20
265.6068303233
 40
27.9866092974
 50
353.857264681
 51
186.1389826946
  0
ARC
  8
0
 62
7
  6
CONTINUOUS
 10
186.0327043836
 20
420.8725776099
 40
21.462985367
 50
66.2006451423
 51
293.7993548577
  0
ARC
  8
0
 62
7
  6
CONTINUOUS
 10
186.0327043836
 20
420.8725776099
 40
21.1420168659
 50
293.4615672859
 51
66.5384327141
  0
ARC
  8
0
 62
7
  6
CONTINUOUS
 10
186.0327043836
 20
420.8725776099
 40
18.624232976
 50
69.6299755874
 51
290.3700244126
  0
ARC
  8
0
 62
7
  6
CONTINUOUS
 10
186.0327043836
 20
420.8725776099
 40
18.5087010099
 50
291.8996949002
 51
68.1004275185
  0
ARC
  8
0
 62
7
  6
CONTINUOUS
 10
-7.7268856697
 20
495.8725776099
 40
5.0
 50
90.0000000844
 51
178.6361879171
  0
ARC
  8
0
 62
7
  6
CONTINUOUS
 10
379.7922944369
 20
495.8725776099
 40
5.0
 50
1.3638120829
 51
89.9999999419
  0
ARC
  8
0
 62
7
  6
CONTINUOUS
 10
189.7729980978
 20
430.6399216704
 40
3.5
 50
135.0
 51
180.0
  0
ARC
  8
0
 62
7
  6
CONTINUOUS
 10
189.7729980978
 20
411.1052335495
 40
3.5
 50
179.9967658328
 51
225.0096284608
  0
ARC
  8
0
 62
7
  6
CONTINUOUS
 10
189.7729980978
 20
411.1052335495
 40
3.0
 50
180.0
 51
225.0
  0
ARC
  8
0
 62
7
  6
CONTINUOUS
 10
189.7729980978
 20
430.6399216704
 40
3.0
 50
135.0
 51
180.0
  0
ARC
  8
0
 62
7
  6
CONTINUOUS
 10
39.0327043836
 20
263.8741243338
 40
2.0
 50
0.0
 51
90.0
  0
ARC
  8
0
 62
7
  6
CONTINUOUS
 10
333.0327043836
 20
263.8741243338
 40
2.0
 50
90.0
 51
180.0
  0
ENDSEC
  0
EOF
