999
DXF file: K:\Client\125_Heirloom\001\00\Final_Data\Drawings\TOILETS\loftwf-373110d_4.dxf
999
Pro/ENGINEER 2017110 by Parametric Technology Corporation
  0
SECTION
  2
HEADER
  9
$EXTMAX
 10
420.0
 20
297.0
 30
0.0
  9
$EXTMIN
 10
0.0
 20
0.0
 30
0.0
  9
$LIMMIN
 10
0.0
 20
0.0
  9
$LIMMAX
 10
420.0
 20
297.0
  9
$VIEWCTR
 10
210.0
 20
148.5
  9
$VIEWSIZE
 40
297.0
  9
$CLAYER
  8
0
  9
$LTSCALE
 40
23.1
  9
$CELTYPE
  6
BYLAYER
  9
$DIMSCALE
 40
1.0
  9
$DIMASZ
 40
3.0
  9
$DIMEXO
 40
1.0
  9
$DIMDLI
 40
15.96
  9
$DIMEXE
 40
1.0
  9
$DIMCEN
 40
3.78
  9
$DIMLFAC
 40
1.0
  9
$DIMBLK
  1
_FILLED
  9
$DIMALT
 70
0
  9
$DIMALTF
 40
0.0393700787
  9
$DIMTXT
 40
3.0
  9
$AUNITS
 70
0
  9
$PDMODE
 70
3
  9
$PDSIZE
 40
5.0
  9
$TILEMODE
 70
1
  0
ENDSEC
  0
SECTION
  2
TABLES
  0
TABLE
  2
LTYPE
 70
6
  0
LTYPE
  2
BYBLOCK
 70
0
  3

 72
65
 73
0
 40
0.0
  0
LTYPE
  2
BYLAYER
 70
0
  3

 72
65
 73
0
 40
0.0
  0
LTYPE
  2
CONTINUOUS
 70
64
  3
Solid line
 72
65
 73
0
 40
0.0
  0
LTYPE
  2
CENTER
 70
64
  3
____ _ ____ _ ____ _ ____ _ ____ _ ____ _ ____
 72
65
 73
4
 40
0.6
 49
0.375
 49
-0.075
 49
0.075
 49
-0.075
  0
LTYPE
  2
HIDDEN
 70
64
  3
- - - - - - - - - - - - - - - - - - - -
 72
65
 73
2
 40
0.2
 49
0.1
 49
-0.1
  0
LTYPE
  2
PHANTOM
 70
64
  3
_____ _ _ _____ _ _ _____ _ _ _____
 72
65
 73
6
 40
0.8
 49
0.45
 49
-0.05
 49
0.1
 49
-0.05
 49
0.1
 49
-0.05
  0
LTYPE
  2
DOT
 70
64
  3
. . . . . . . . . . . . . . . . . . . .
 72
65
 73
2
 40
0.2
 49
0.1
 49
-0.1
  0
LTYPE
  2
DASHED
 70
64
  3
- - - - - - - - - - - - - - - - - - - -
 72
65
 73
2
 40
0.2
 49
0.1
 49
-0.1
  0
ENDTAB
  0
TABLE
  2
LAYER
 70
36
  0
LAYER
  2
0
 70
0
 62
7
  6
CONTINUOUS
  0
LAYER
  2
DEFAULT_1
 70
0
 62
7
  6
CENTER
  0
LAYER
  2
DEFAULT_2
 70
0
 62
8
  6
HIDDEN
  0
LAYER
  2
DEFAULT_3
 70
0
 62
7
  6
PHANTOM
  0
LAYER
  2
0000_BOM
 70
0
 62
7
  6
CONTINUOUS
  0
LAYER
  2
0000_REV_TABLE
 70
0
 62
7
  6
CONTINUOUS
  0
LAYER
  2
0000_STEVENS_NOTE
 70
0
 62
7
  6
CONTINUOUS
  0
LAYER
  2
01_DATUM_PLANES
 70
0
 62
7
  6
CONTINUOUS
  0
LAYER
  2
01_DEF_PLANES
 70
0
 62
7
  6
CONTINUOUS
  0
LAYER
  2
02_DATUM_COS
 70
0
 62
7
  6
CONTINUOUS
  0
LAYER
  2
90_IMP_FEAT
 70
0
 62
7
  6
CONTINUOUS
  0
LAYER
  2
95_STL
 70
0
 62
7
  6
CONTINUOUS
  0
LAYER
  2
99_SOLID
 70
0
 62
7
  6
CONTINUOUS
  0
LAYER
  2
CAD-MASTER_ZINC-PL
 70
0
 62
7
  6
CONTINUOUS
  0
LAYER
  2
CURVE
 70
0
 62
7
  6
CONTINUOUS
  0
LAYER
  2
SHELL
 70
0
 62
7
  6
CONTINUOUS
  0
LAYER
  2
SHELL_1
 70
0
 62
7
  6
CONTINUOUS
  0
LAYER
  2
SHELL_2
 70
0
 62
7
  6
CONTINUOUS
  0
LAYER
  2
SHELL_3
 70
0
 62
7
  6
CONTINUOUS
  0
LAYER
  2
SHELL_4
 70
0
 62
7
  6
CONTINUOUS
  0
LAYER
  2
SKEL
 70
0
 62
7
  6
CONTINUOUS
  0
LAYER
  2
SKETCH
 70
0
 62
7
  6
CONTINUOUS
  0
LAYER
  2
SURFACE
 70
0
 62
7
  6
CONTINUOUS
  0
ENDTAB
  0
TABLE
  2
STYLE
 70
1
  0
STYLE
  2
STANDARD
 70
0
 40
0.0
 41
0.75
 50
0.0
 71
0
 42
0.2
  3
txt
  4

  0
STYLE
  2
TEXTSTYLE_1
 70
0
 40
0.0
 41
0.8
 50
0.0
 71
0
 42
0.2
  3
gdt
  4

  0
ENDTAB
  0
ENDSEC
  0
SECTION
  2
BLOCKS
  0
BLOCK
  8
0
 62
5
  6
CONTINUOUS
  2
PLUMBING_BL1
 70
64
 10
182.8150684932
 20
-261.9019054564
  0
CIRCLE
  8
0
 62
5
  6
CONTINUOUS
 10
182.8150684932
 20
-261.9019054564
 40
12.5
  0
LINE
  8
0
 62
5
  6
CONTINUOUS
 10
195.3150684932
 20
-249.4019054564
 11
170.3150684932
 21
-274.4019054564
  0
LINE
  8
0
 62
5
  6
CONTINUOUS
 10
182.8150684932
 20
-261.9019054564
 11
170.3150684932
 21
-249.4019054564
  0
LINE
  8
0
 62
5
  6
CONTINUOUS
 10
182.8150684932
 20
-261.9019054564
 11
195.3150684932
 21
-274.4019054564
  0
ENDBLK
  8
0
  6
BYBLOCK
 62
0
  0
BLOCK
  8
0
 62
1
  6
CONTINUOUS
  2
PLUMBING_BL0
 70
64
 10
182.8150684932
 20
-81.9019054577
  0
CIRCLE
  8
0
 62
1
  6
CONTINUOUS
 10
182.8150684932
 20
-81.9019054577
 40
12.5
  0
LINE
  8
0
 62
1
  6
CONTINUOUS
 10
195.3150684932
 20
-69.4019054577
 11
170.3150684932
 21
-94.4019054577
  0
LINE
  8
0
 62
1
  6
CONTINUOUS
 10
182.8150684932
 20
-81.9019054577
 11
170.3150684932
 21
-69.4019054577
  0
LINE
  8
0
 62
1
  6
CONTINUOUS
 10
182.8150684932
 20
-81.9019054577
 11
195.3150684932
 21
-94.4019054577
  0
ENDBLK
  8
0
  6
BYBLOCK
 62
0
  0
ENDSEC
  0
SECTION
  2
ENTITIES
  0
INSERT
  8
0
 62
1
  6
CONTINUOUS
  2
PLUMBING_BL0
 10
182.8150684932
 20
-81.9019054577
  0
INSERT
  8
0
 62
5
  6
CONTINUOUS
  2
PLUMBING_BL1
 10
182.8150684932
 20
-261.9019054564
  0
LINE
  8
0
 62
7
  6
CONTINUOUS
 10
155.0607917128
 20
568.7667014731
 11
154.6368736051
 21
567.6019960445
  0
LINE
  8
0
 62
7
  6
CONTINUOUS
 10
210.5693452735
 20
568.7667014731
 11
210.9932633812
 21
567.6019960445
  0
POLYLINE
  8
SHELL_2
 62
7
  6
CONTINUOUS
 66
1
 70
0
  0
VERTEX
  8
SHELL_2
 62
7
  6
CONTINUOUS
 10
33.8767237148
 20
-261.9019054564
  0
VERTEX
  8
SHELL_2
 62
7
  6
CONTINUOUS
 10
32.9525751563
 20
-261.8157443028
  0
VERTEX
  8
SHELL_2
 62
7
  6
CONTINUOUS
 10
32.060276886
 20
-261.5602303338
  0
VERTEX
  8
SHELL_2
 62
7
  6
CONTINUOUS
 10
31.2305814848
 20
-261.1441697047
  0
VERTEX
  8
SHELL_2
 62
7
  6
CONTINUOUS
 10
30.4920839535
 20
-260.5819017218
  0
VERTEX
  8
SHELL_2
 62
7
  6
CONTINUOUS
 10
29.8702360928
 20
-259.892804491
  0
VERTEX
  8
SHELL_2
 62
7
  6
CONTINUOUS
 10
29.3864699002
 20
-259.1006278398
  0
VERTEX
  8
SHELL_2
 62
7
  6
CONTINUOUS
 10
29.0574580828
 20
-258.2326743717
  0
VERTEX
  8
SHELL_2
 62
7
  6
CONTINUOUS
 10
28.8945393118
 20
-257.3188575573
  0
SEQEND
  0
POLYLINE
  8
SHELL_3
 62
7
  6
CONTINUOUS
 66
1
 70
0
  0
VERTEX
  8
SHELL_3
 62
7
  6
CONTINUOUS
 10
-9.747166346
 20
514.3349139367
  0
VERTEX
  8
SHELL_3
 62
7
  6
CONTINUOUS
 10
-9.7918090342
 20
514.3195919319
  0
VERTEX
  8
SHELL_3
 62
7
  6
CONTINUOUS
 10
-9.8367543397
 20
514.3036878419
  0
VERTEX
  8
SHELL_3
 62
7
  6
CONTINUOUS
 10
-9.8819797161
 20
514.2871953875
  0
VERTEX
  8
SHELL_3
 62
7
  6
CONTINUOUS
 10
-9.9274658495
 20
514.2701075674
  0
VERTEX
  8
SHELL_3
 62
7
  6
CONTINUOUS
 10
-9.9731936316
 20
514.2524176791
  0
VERTEX
  8
SHELL_3
 62
7
  6
CONTINUOUS
 10
-10.0191433497
 20
514.2341196434
  0
VERTEX
  8
SHELL_3
 62
7
  6
CONTINUOUS
 10
-10.0652957983
 20
514.2152075856
  0
VERTEX
  8
SHELL_3
 62
7
  6
CONTINUOUS
 10
-10.1116311265
 20
514.1956763087
  0
VERTEX
  8
SHELL_3
 62
7
  6
CONTINUOUS
 10
-10.1581300049
 20
514.1755208277
  0
VERTEX
  8
SHELL_3
 62
7
  6
CONTINUOUS
 10
-10.2047724938
 20
514.1547368602
  0
VERTEX
  8
SHELL_3
 62
7
  6
CONTINUOUS
 10
-10.2515391862
 20
514.133320343
  0
VERTEX
  8
SHELL_3
 62
7
  6
CONTINUOUS
 10
-10.2984097779
 20
514.1112680919
  0
VERTEX
  8
SHELL_3
 62
7
  6
CONTINUOUS
 10
-10.3453658133
 20
514.088576525
  0
VERTEX
  8
SHELL_3
 62
7
  6
CONTINUOUS
 10
-10.3923852835
 20
514.0652442714
  0
VERTEX
  8
SHELL_3
 62
7
  6
CONTINUOUS
 10
-10.439457475
 20
514.041264753
  0
VERTEX
  8
SHELL_3
 62
7
  6
CONTINUOUS
 10
-10.486567128
 20
514.0166338288
  0
VERTEX
  8
SHELL_3
 62
7
  6
CONTINUOUS
 10
-10.5337044865
 20
513.9913446387
  0
VERTEX
  8
SHELL_3
 62
7
  6
CONTINUOUS
 10
-10.5808579795
 20
513.9653913006
  0
VERTEX
  8
SHELL_3
 62
7
  6
CONTINUOUS
 10
-10.6280161981
 20
513.9387678983
  0
VERTEX
  8
SHELL_3
 62
7
  6
CONTINUOUS
 10
-10.6751672617
 20
513.9114688346
  0
VERTEX
  8
SHELL_3
 62
7
  6
CONTINUOUS
 10
-10.7222994232
 20
513.8834884942
  0
VERTEX
  8
SHELL_3
 62
7
  6
CONTINUOUS
 10
-10.7694004708
 20
513.8548215958
  0
VERTEX
  8
SHELL_3
 62
7
  6
CONTINUOUS
 10
-10.8164583323
 20
513.8254628369
  0
VERTEX
  8
SHELL_3
 62
7
  6
CONTINUOUS
 10
-10.8634604699
 20
513.7954072686
  0
VERTEX
  8
SHELL_3
 62
7
  6
CONTINUOUS
 10
-10.9103944909
 20
513.7646499183
  0
VERTEX
  8
SHELL_3
 62
7
  6
CONTINUOUS
 10
-10.9572475366
 20
513.7331861865
  0
VERTEX
  8
SHELL_3
 62
7
  6
CONTINUOUS
 10
-11.004006899
 20
513.7010114474
  0
VERTEX
  8
SHELL_3
 62
7
  6
CONTINUOUS
 10
-11.050659404
 20
513.6681214684
  0
VERTEX
  8
SHELL_3
 62
7
  6
CONTINUOUS
 10
-11.0971920332
 20
513.6345119879
  0
VERTEX
  8
SHELL_3
 62
7
  6
CONTINUOUS
 10
-11.1435913033
 20
513.600179158
  0
VERTEX
  8
SHELL_3
 62
7
  6
CONTINUOUS
 10
-11.1898438909
 20
513.5651190989
  0
VERTEX
  8
SHELL_3
 62
7
  6
CONTINUOUS
 10
-11.2359360095
 20
513.5293283659
  0
VERTEX
  8
SHELL_3
 62
7
  6
CONTINUOUS
 10
-11.2818540366
 20
513.4928034792
  0
VERTEX
  8
SHELL_3
 62
7
  6
CONTINUOUS
 10
-11.3275838891
 20
513.455541416
  0
VERTEX
  8
SHELL_3
 62
7
  6
CONTINUOUS
 10
-11.3731116514
 20
513.4175391159
  0
VERTEX
  8
SHELL_3
 62
7
  6
CONTINUOUS
 10
-11.4184229508
 20
513.3787939969
  0
VERTEX
  8
SHELL_3
 62
7
  6
CONTINUOUS
 10
-11.4635035853
 20
513.3393034377
  0
VERTEX
  8
SHELL_3
 62
7
  6
CONTINUOUS
 10
-11.5083388998
 20
513.2990653177
  0
VERTEX
  8
SHELL_3
 62
7
  6
CONTINUOUS
 10
-11.552914413
 20
513.2580774748
  0
VERTEX
  8
SHELL_3
 62
7
  6
CONTINUOUS
 10
-11.5972151956
 20
513.2163382709
  0
VERTEX
  8
SHELL_3
 62
7
  6
CONTINUOUS
 10
-11.6412264946
 20
513.1738460247
  0
VERTEX
  8
SHELL_3
 62
7
  6
CONTINUOUS
 10
-11.6849332398
 20
513.1305994775
  0
VERTEX
  8
SHELL_3
 62
7
  6
CONTINUOUS
 10
-11.7283200416
 20
513.0865978251
  0
VERTEX
  8
SHELL_3
 62
7
  6
CONTINUOUS
 10
-11.7713710982
 20
513.0418408492
  0
VERTEX
  8
SHELL_3
 62
7
  6
CONTINUOUS
 10
-11.8140712738
 20
512.9963278018
  0
VERTEX
  8
SHELL_3
 62
7
  6
CONTINUOUS
 10
-11.8564046472
 20
512.9500589166
  0
VERTEX
  8
SHELL_3
 62
7
  6
CONTINUOUS
 10
-11.8983564399
 20
512.9030333212
  0
VERTEX
  8
SHELL_3
 62
7
  6
CONTINUOUS
 10
-11.9399111814
 20
512.8552510029
  0
VERTEX
  8
SHELL_3
 62
7
  6
CONTINUOUS
 10
-11.9810535683
 20
512.8067118704
  0
VERTEX
  8
SHELL_3
 62
7
  6
CONTINUOUS
 10
-12.0217678569
 20
512.757416463
  0
VERTEX
  8
SHELL_3
 62
7
  6
CONTINUOUS
 10
-12.0620384699
 20
512.7073652445
  0
VERTEX
  8
SHELL_3
 62
7
  6
CONTINUOUS
 10
-12.1018493985
 20
512.6565593384
  0
VERTEX
  8
SHELL_3
 62
7
  6
CONTINUOUS
 10
-12.1411848025
 20
512.604999793
  0
VERTEX
  8
SHELL_3
 62
7
  6
CONTINUOUS
 10
-12.1800284204
 20
512.5526883468
  0
VERTEX
  8
SHELL_3
 62
7
  6
CONTINUOUS
 10
-12.2183641614
 20
512.4996266648
  0
VERTEX
  8
SHELL_3
 62
7
  6
CONTINUOUS
 10
-12.2561755252
 20
512.4458171333
  0
VERTEX
  8
SHELL_3
 62
7
  6
CONTINUOUS
 10
-12.2934461856
 20
512.3912620669
  0
VERTEX
  8
SHELL_3
 62
7
  6
CONTINUOUS
 10
-12.3301594202
 20
512.335964534
  0
VERTEX
  8
SHELL_3
 62
7
  6
CONTINUOUS
 10
-12.3662986843
 20
512.2799275339
  0
VERTEX
  8
SHELL_3
 62
7
  6
CONTINUOUS
 10
-12.4018470532
 20
512.2231548525
  0
VERTEX
  8
SHELL_3
 62
7
  6
CONTINUOUS
 10
-12.4367877838
 20
512.1656502099
  0
VERTEX
  8
SHELL_3
 62
7
  6
CONTINUOUS
 10
-12.4711037717
 20
512.1074181459
  0
VERTEX
  8
SHELL_3
 62
7
  6
CONTINUOUS
 10
-12.504778099
 20
512.048463139
  0
VERTEX
  8
SHELL_3
 62
7
  6
CONTINUOUS
 10
-12.5377935077
 20
511.988790521
  0
VERTEX
  8
SHELL_3
 62
7
  6
CONTINUOUS
 10
-12.5701329321
 20
511.9284055669
  0
VERTEX
  8
SHELL_3
 62
7
  6
CONTINUOUS
 10
-12.6017789965
 20
511.8673144267
  0
VERTEX
  8
SHELL_3
 62
7
  6
CONTINUOUS
 10
-12.6327145006
 20
511.8055232468
  0
VERTEX
  8
SHELL_3
 62
7
  6
CONTINUOUS
 10
-12.6629230965
 20
511.7430366951
  0
VERTEX
  8
SHELL_3
 62
7
  6
CONTINUOUS
 10
-12.6923841106
 20
511.6798689445
  0
VERTEX
  8
SHELL_3
 62
7
  6
CONTINUOUS
 10
-12.7210774031
 20
511.6160344245
  0
VERTEX
  8
SHELL_3
 62
7
  6
CONTINUOUS
 10
-12.7489861668
 20
511.5515411998
  0
VERTEX
  8
SHELL_3
 62
7
  6
CONTINUOUS
 10
-12.7760917713
 20
511.4864022418
  0
VERTEX
  8
SHELL_3
 62
7
  6
CONTINUOUS
 10
-12.8023797345
 20
511.4206211454
  0
VERTEX
  8
SHELL_3
 62
7
  6
CONTINUOUS
 10
-12.8278341515
 20
511.3542048682
  0
VERTEX
  8
SHELL_3
 62
7
  6
CONTINUOUS
 10
-12.8524393003
 20
511.2871599717
  0
VERTEX
  8
SHELL_3
 62
7
  6
CONTINUOUS
 10
-12.8761790514
 20
511.2194941907
  0
VERTEX
  8
SHELL_3
 62
7
  6
CONTINUOUS
 10
-12.8990374497
 20
511.1512148809
  0
VERTEX
  8
SHELL_3
 62
7
  6
CONTINUOUS
 10
-12.9209981648
 20
511.0823306242
  0
VERTEX
  8
SHELL_3
 62
7
  6
CONTINUOUS
 10
-12.9420450349
 20
511.0128496431
  0
VERTEX
  8
SHELL_3
 62
7
  6
CONTINUOUS
 10
-12.9621615607
 20
510.9427814389
  0
VERTEX
  8
SHELL_3
 62
7
  6
CONTINUOUS
 10
-12.9813314096
 20
510.8721351755
  0
VERTEX
  8
SHELL_3
 62
7
  6
CONTINUOUS
 10
-12.9995379548
 20
510.8009213482
  0
VERTEX
  8
SHELL_3
 62
7
  6
CONTINUOUS
 10
-13.0167647384
 20
510.7291501381
  0
VERTEX
  8
SHELL_3
 62
7
  6
CONTINUOUS
 10
-13.0329950575
 20
510.6568331098
  0
VERTEX
  8
SHELL_3
 62
7
  6
CONTINUOUS
 10
-13.0482123852
 20
510.5839815378
  0
VERTEX
  8
SHELL_3
 62
7
  6
CONTINUOUS
 10
-13.062400005
 20
510.5106081306
  0
VERTEX
  8
SHELL_3
 62
7
  6
CONTINUOUS
 10
-13.0755413879
 20
510.4367253314
  0
VERTEX
  8
SHELL_3
 62
7
  6
CONTINUOUS
 10
-13.0876198779
 20
510.3623470657
  0
VERTEX
  8
SHELL_3
 62
7
  6
CONTINUOUS
 10
-13.0986190229
 20
510.2874870182
  0
VERTEX
  8
SHELL_3
 62
7
  6
CONTINUOUS
 10
-13.1085223131
 20
510.2121604008
  0
VERTEX
  8
SHELL_3
 62
7
  6
CONTINUOUS
 10
-13.117313464
 20
510.1363822085
  0
VERTEX
  8
SHELL_3
 62
7
  6
CONTINUOUS
 10
-13.1249762099
 20
510.0601690049
  0
VERTEX
  8
SHELL_3
 62
7
  6
CONTINUOUS
 10
-13.131494537
 20
509.9835371583
  0
VERTEX
  8
SHELL_3
 62
7
  6
CONTINUOUS
 10
-13.1368525337
 20
509.9065046418
  0
VERTEX
  8
SHELL_3
 62
7
  6
CONTINUOUS
 10
-13.1410345724
 20
509.8290892529
  0
VERTEX
  8
SHELL_3
 62
7
  6
CONTINUOUS
 10
-13.1440252171
 20
509.7513104238
  0
VERTEX
  8
SHELL_3
 62
7
  6
CONTINUOUS
 10
-13.1458093539
 20
509.6731874276
  0
VERTEX
  8
SHELL_3
 62
7
  6
CONTINUOUS
 10
-13.1463732803
 20
509.5980944673
  0
SEQEND
  0
POLYLINE
  8
SHELL
 62
7
  6
CONTINUOUS
 66
1
 70
0
  0
VERTEX
  8
SHELL
 62
7
  6
CONTINUOUS
 10
182.1500620685
 20
576.0091011529
  0
VERTEX
  8
SHELL
 62
7
  6
CONTINUOUS
 10
182.2983618298
 20
576.0556853706
  0
VERTEX
  8
SHELL
 62
7
  6
CONTINUOUS
 10
182.416905095
 20
576.1028634608
  0
VERTEX
  8
SHELL
 62
7
  6
CONTINUOUS
 10
182.5036442581
 20
576.1501429969
  0
VERTEX
  8
SHELL
 62
7
  6
CONTINUOUS
 10
182.5567783026
 20
576.1968265149
  0
SEQEND
  0
LINE
  8
SHELL
 62
7
  6
CONTINUOUS
 10
176.2965170254
 20
574.5255168245
 11
175.911700042
 21
574.4077069375
  0
LINE
  8
SHELL
 62
7
  6
CONTINUOUS
 10
176.3323589937
 20
574.5851253088
 11
177.3029568589
 21
574.8802439978
  0
LINE
  8
SHELL_2
 62
7
  6
CONTINUOUS
 10
331.7534132936
 20
-261.9019054564
 11
33.8767236927
 21
-261.9019054564
  0
POLYLINE
  8
SHELL_4
 62
7
  6
CONTINUOUS
 66
1
 70
0
  0
VERTEX
  8
SHELL_4
 62
7
  6
CONTINUOUS
 10
-16.8651781222
 20
554.8515984721
  0
VERTEX
  8
SHELL_4
 62
7
  6
CONTINUOUS
 10
-16.5308723236
 20
555.6530894849
  0
VERTEX
  8
SHELL_4
 62
7
  6
CONTINUOUS
 10
-16.128605466
 20
556.5010826838
  0
VERTEX
  8
SHELL_4
 62
7
  6
CONTINUOUS
 10
-15.6464132659
 20
557.3822365381
  0
VERTEX
  8
SHELL_4
 62
7
  6
CONTINUOUS
 10
-15.0468912489
 20
558.3179589842
  0
VERTEX
  8
SHELL_4
 62
7
  6
CONTINUOUS
 10
-14.2820985265
 20
559.31789628
  0
VERTEX
  8
SHELL_4
 62
7
  6
CONTINUOUS
 10
-13.3248868945
 20
560.3429574667
  0
VERTEX
  8
SHELL_4
 62
7
  6
CONTINUOUS
 10
-12.1325253526
 20
561.3595997939
  0
VERTEX
  8
SHELL_4
 62
7
  6
CONTINUOUS
 10
-10.7127357889
 20
562.2862416084
  0
VERTEX
  8
SHELL_4
 62
7
  6
CONTINUOUS
 10
-9.0881709726
 20
563.049959416
  0
VERTEX
  8
SHELL_4
 62
7
  6
CONTINUOUS
 10
-7.2807594732
 20
563.5925615505
  0
VERTEX
  8
SHELL_4
 62
7
  6
CONTINUOUS
 10
-5.1356508569
 20
563.8689894166
  0
SEQEND
  0
POLYLINE
  8
SHELL_4
 62
7
  6
CONTINUOUS
 66
1
 70
0
  0
VERTEX
  8
SHELL_4
 62
7
  6
CONTINUOUS
 10
-16.8656722475
 20
554.850453579
  0
VERTEX
  8
SHELL_4
 62
7
  6
CONTINUOUS
 10
-16.9391510705
 20
554.6585628012
  0
VERTEX
  8
SHELL_4
 62
7
  6
CONTINUOUS
 10
-17.2836180981
 20
553.5876232429
  0
VERTEX
  8
SHELL_4
 62
7
  6
CONTINUOUS
 10
-17.5288346936
 20
552.4845087702
  0
VERTEX
  8
SHELL_4
 62
7
  6
CONTINUOUS
 10
-17.6712914489
 20
551.3576291145
  0
SEQEND
  0
LINE
  8
SHELL_4
 62
7
  6
CONTINUOUS
 10
-16.8651781222
 20
554.8515984721
 11
-16.8664148577
 21
554.8484479985
  0
LINE
  8
SHELL
 62
7
  6
CONTINUOUS
 10
164.3063674833
 20
574.407697463
 11
161.6730516273
 21
571.01018961
  0
LINE
  8
SHELL_4
 62
7
  6
CONTINUOUS
 10
-17.7019784803
 20
550.8199506818
 11
-18.7861761352
 21
519.7725920271
  0
LINE
  8
SHELL_4
 62
7
  6
CONTINUOUS
 10
-17.6712914489
 20
551.3576291145
 11
-17.7019830511
 21
550.8198537049
  0
POLYLINE
  8
SHELL
 62
7
  6
CONTINUOUS
 66
1
 70
0
  0
VERTEX
  8
SHELL
 62
7
  6
CONTINUOUS
 10
174.1531075467
 20
570.9223686143
  0
VERTEX
  8
SHELL
 62
7
  6
CONTINUOUS
 10
174.5263817514
 20
571.5556109558
  0
VERTEX
  8
SHELL
 62
7
  6
CONTINUOUS
 10
174.8956005853
 20
572.1797756939
  0
VERTEX
  8
SHELL
 62
7
  6
CONTINUOUS
 10
175.2607367498
 20
572.7948961602
  0
VERTEX
  8
SHELL
 62
7
  6
CONTINUOUS
 10
175.6218721411
 20
573.4008723601
  0
VERTEX
  8
SHELL
 62
7
  6
CONTINUOUS
 10
175.9790886553
 20
573.9976042992
  0
SEQEND
  0
POLYLINE
  8
SHELL
 62
7
  6
CONTINUOUS
 66
1
 70
0
  0
VERTEX
  8
SHELL
 62
7
  6
CONTINUOUS
 10
175.911700042
 20
574.4077069375
  0
VERTEX
  8
SHELL
 62
7
  6
CONTINUOUS
 10
175.586782011
 20
573.861269234
  0
VERTEX
  8
SHELL
 62
7
  6
CONTINUOUS
 10
175.2583814644
 20
573.306892453
  0
VERTEX
  8
SHELL
 62
7
  6
CONTINUOUS
 10
174.9265102526
 20
572.7445740946
  0
VERTEX
  8
SHELL
 62
7
  6
CONTINUOUS
 10
174.5911328249
 20
572.174321659
  0
VERTEX
  8
SHELL
 62
7
  6
CONTINUOUS
 10
174.2522136305
 20
571.5961426467
  0
VERTEX
  8
SHELL
 62
7
  6
CONTINUOUS
 10
173.9097645198
 20
571.0100345575
  0
SEQEND
  0
LINE
  8
SHELL
 62
7
  6
CONTINUOUS
 10
175.9790887498
 20
573.9976044564
 11
176.3323589937
 21
574.5851253088
  0
LINE
  8
SHELL_2
 62
7
  6
CONTINUOUS
 10
28.8945395556
 20
-257.3188604697
 11
-3.4055063699
 21
128.6391118311
  0
LINE
  8
SHELL_3
 62
7
  6
CONTINUOUS
 10
-3.6565963765
 20
147.9151096249
 11
-13.1241784593
 21
509.4674777647
  0
POLYLINE
  8
SHELL_2
 62
7
  6
CONTINUOUS
 66
1
 70
0
  0
VERTEX
  8
SHELL_2
 62
7
  6
CONTINUOUS
 10
-3.4455607289
 20
129.5980945437
  0
VERTEX
  8
SHELL_2
 62
7
  6
CONTINUOUS
 10
-3.4444472498
 20
129.4380834332
  0
VERTEX
  8
SHELL_2
 62
7
  6
CONTINUOUS
 10
-3.4411077879
 20
129.2781033023
  0
VERTEX
  8
SHELL_2
 62
7
  6
CONTINUOUS
 10
-3.4355430331
 20
129.1181854074
  0
VERTEX
  8
SHELL_2
 62
7
  6
CONTINUOUS
 10
-3.4277539325
 20
128.9583598619
  0
VERTEX
  8
SHELL_2
 62
7
  6
CONTINUOUS
 10
-3.4177418165
 20
128.7986567642
  0
VERTEX
  8
SHELL_2
 62
7
  6
CONTINUOUS
 10
-3.40550862
 20
128.6391073205
  0
SEQEND
  0
POLYLINE
  8
SHELL_1
 62
7
  6
CONTINUOUS
 66
1
 70
0
  0
VERTEX
  8
SHELL_1
 62
7
  6
CONTINUOUS
 10
2.39043897
 20
141.171657661
  0
VERTEX
  8
SHELL_1
 62
7
  6
CONTINUOUS
 10
2.3723245567
 20
141.0508273939
  0
VERTEX
  8
SHELL_1
 62
7
  6
CONTINUOUS
 10
2.2401752872
 20
140.1587820362
  0
VERTEX
  8
SHELL_1
 62
7
  6
CONTINUOUS
 10
2.1312863436
 20
139.4142874582
  0
SEQEND
  0
LINE
  8
SHELL
 62
7
  6
CONTINUOUS
 10
182.5567783026
 20
576.1968265149
 11
182.5747747789
 21
576.2431465027
  0
POLYLINE
  8
SHELL
 62
7
  6
CONTINUOUS
 66
1
 70
0
  0
VERTEX
  8
SHELL
 62
7
  6
CONTINUOUS
 10
182.0747747789
 20
576.0383094613
  0
VERTEX
  8
SHELL
 62
7
  6
CONTINUOUS
 10
182.059728839
 20
575.9990133082
  0
VERTEX
  8
SHELL
 62
7
  6
CONTINUOUS
 10
182.0385871413
 20
575.9801854731
  0
SEQEND
  0
POLYLINE
  8
SHELL_2
 62
7
  6
CONTINUOUS
 66
1
 70
0
  0
VERTEX
  8
SHELL_2
 62
7
  6
CONTINUOUS
 10
4.5007810964
 20
140.5352296645
  0
VERTEX
  8
SHELL_2
 62
7
  6
CONTINUOUS
 10
2.8335620338
 20
139.844643091
  0
VERTEX
  8
SHELL_2
 62
7
  6
CONTINUOUS
 10
1.2949073696
 20
138.901753125
  0
VERTEX
  8
SHELL_2
 62
7
  6
CONTINUOUS
 10
-0.0772993227
 20
137.7297769291
  0
VERTEX
  8
SHELL_2
 62
7
  6
CONTINUOUS
 10
-1.2492704484
 20
136.3575742908
  0
VERTEX
  8
SHELL_2
 62
7
  6
CONTINUOUS
 10
-2.1921494409
 20
134.8189332999
  0
VERTEX
  8
SHELL_2
 62
7
  6
CONTINUOUS
 10
-2.8827201393
 20
133.1517442438
  0
VERTEX
  8
SHELL_2
 62
7
  6
CONTINUOUS
 10
-3.3039793546
 20
131.3970629992
  0
VERTEX
  8
SHELL_2
 62
7
  6
CONTINUOUS
 10
-3.4455607289
 20
129.5980945437
  0
SEQEND
  0
LINE
  8
SHELL
 62
7
  6
CONTINUOUS
 10
182.0747747789
 20
576.6598222367
 11
182.0747747789
 21
575.9895713268
  0
LINE
  8
SHELL
 62
7
  6
CONTINUOUS
 10
182.5747747789
 20
576.2431425783
 11
182.5747747789
 21
576.8630044004
  0
POLYLINE
  8
SHELL_2
 62
7
  6
CONTINUOUS
 66
1
 70
0
  0
VERTEX
  8
SHELL_2
 62
7
  6
CONTINUOUS
 10
8.0545594015
 20
141.0980945436
  0
VERTEX
  8
SHELL_2
 62
7
  6
CONTINUOUS
 10
6.2555144734
 20
140.9565060643
  0
VERTEX
  8
SHELL_2
 62
7
  6
CONTINUOUS
 10
4.5007810964
 20
140.5352296645
  0
SEQEND
  0
LINE
  8
SHELL_3
 62
7
  6
CONTINUOUS
 10
362.299284627
 20
141.0980945436
 11
3.3308516925
 21
141.0980945436
  0
LINE
  8
SHELL_2
 62
7
  6
CONTINUOUS
 10
8.0545593437
 20
141.0980945436
 11
357.5755776425
 21
141.0980945436
  0
POLYLINE
  8
SHELL_2
 62
7
  6
CONTINUOUS
 66
1
 70
0
  0
VERTEX
  8
SHELL_2
 62
7
  6
CONTINUOUS
 10
361.129356207
 20
140.5352295621
  0
VERTEX
  8
SHELL_2
 62
7
  6
CONTINUOUS
 10
359.3746227807
 20
140.9565060222
  0
VERTEX
  8
SHELL_2
 62
7
  6
CONTINUOUS
 10
357.5755776439
 20
141.0980945436
  0
SEQEND
  0
POLYLINE
  8
SHELL_2
 62
7
  6
CONTINUOUS
 66
1
 70
0
  0
VERTEX
  8
SHELL_2
 62
7
  6
CONTINUOUS
 10
369.0756977153
 20
129.5980945437
  0
VERTEX
  8
SHELL_2
 62
7
  6
CONTINUOUS
 10
368.9341163028
 20
131.3970632446
  0
VERTEX
  8
SHELL_2
 62
7
  6
CONTINUOUS
 10
368.512857024
 20
133.15174456
  0
VERTEX
  8
SHELL_2
 62
7
  6
CONTINUOUS
 10
367.8222863416
 20
134.8189334707
  0
VERTEX
  8
SHELL_2
 62
7
  6
CONTINUOUS
 10
366.8794074319
 20
136.3575742969
  0
VERTEX
  8
SHELL_2
 62
7
  6
CONTINUOUS
 10
365.7074363104
 20
137.7297769294
  0
VERTEX
  8
SHELL_2
 62
7
  6
CONTINUOUS
 10
364.3352296238
 20
138.9017531212
  0
VERTEX
  8
SHELL_2
 62
7
  6
CONTINUOUS
 10
362.7965751209
 20
139.844643006
  0
VERTEX
  8
SHELL_2
 62
7
  6
CONTINUOUS
 10
361.129356207
 20
140.5352295621
  0
SEQEND
  0
LINE
  8
SHELL_3
 62
7
  6
CONTINUOUS
 10
378.7543154403
 20
509.4674775625
 11
369.2867333739
 21
147.9151100482
  0
LINE
  8
SHELL_3
 62
7
  6
CONTINUOUS
 10
369.3067009651
 20
147.9148487253
 11
369.2762981735
 21
147.4212283881
  0
POLYLINE
  8
SHELL_2
 62
7
  6
CONTINUOUS
 66
1
 70
0
  0
VERTEX
  8
SHELL_2
 62
7
  6
CONTINUOUS
 10
369.0356460427
 20
128.6391125355
  0
VERTEX
  8
SHELL_2
 62
7
  6
CONTINUOUS
 10
369.0478789392
 20
128.7986587219
  0
VERTEX
  8
SHELL_2
 62
7
  6
CONTINUOUS
 10
369.0578909188
 20
128.9583598619
  0
VERTEX
  8
SHELL_2
 62
7
  6
CONTINUOUS
 10
369.0656800058
 20
129.1181850806
  0
VERTEX
  8
SHELL_2
 62
7
  6
CONTINUOUS
 10
369.0712447742
 20
129.2781033023
  0
VERTEX
  8
SHELL_2
 62
7
  6
CONTINUOUS
 10
369.0745842361
 20
129.4380834332
  0
VERTEX
  8
SHELL_2
 62
7
  6
CONTINUOUS
 10
369.0756977153
 20
129.5980945437
  0
SEQEND
  0
LINE
  8
SHELL_2
 62
7
  6
CONTINUOUS
 10
369.0356433562
 20
128.6391118312
 11
336.7355974528
 21
-257.3188602056
  0
LINE
  8
SHELL_3
 62
7
  6
CONTINUOUS
 10
368.4557206964
 20
144.7486095406
 11
368.0627184251
 21
144.1111320559
  0
POLYLINE
  8
SHELL_1
 62
7
  6
CONTINUOUS
 66
1
 70
0
  0
VERTEX
  8
SHELL_1
 62
7
  6
CONTINUOUS
 10
363.4985500105
 20
139.4144716962
  0
VERTEX
  8
SHELL_1
 62
7
  6
CONTINUOUS
 10
363.4355446086
 20
139.8481175065
  0
VERTEX
  8
SHELL_1
 62
7
  6
CONTINUOUS
 10
363.2685951925
 20
140.9781877548
  0
VERTEX
  8
SHELL_1
 62
7
  6
CONTINUOUS
 10
363.229603006
 20
141.2379577508
  0
SEQEND
  0
LINE
  8
SHELL_4
 62
7
  6
CONTINUOUS
 10
383.3321154711
 20
550.8199505535
 11
384.4163131215
 21
519.7725920271
  0
LINE
  8
SHELL_4
 62
7
  6
CONTINUOUS
 10
383.33212018
 20
550.8198500596
 11
383.3030954168
 21
551.3363679577
  0
POLYLINE
  8
SHELL_2
 62
7
  6
CONTINUOUS
 66
1
 70
0
  0
VERTEX
  8
SHELL_2
 62
7
  6
CONTINUOUS
 10
336.7355976779
 20
-257.3188575165
  0
VERTEX
  8
SHELL_2
 62
7
  6
CONTINUOUS
 10
336.5726781406
 20
-258.2326771349
  0
VERTEX
  8
SHELL_2
 62
7
  6
CONTINUOUS
 10
336.2436651853
 20
-259.1006317223
  0
VERTEX
  8
SHELL_2
 62
7
  6
CONTINUOUS
 10
335.7598985218
 20
-259.8928076686
  0
VERTEX
  8
SHELL_2
 62
7
  6
CONTINUOUS
 10
335.1380509118
 20
-260.5819036728
  0
VERTEX
  8
SHELL_2
 62
7
  6
CONTINUOUS
 10
334.3995536666
 20
-261.1441708494
  0
VERTEX
  8
SHELL_2
 62
7
  6
CONTINUOUS
 10
333.5698587579
 20
-261.5602308574
  0
VERTEX
  8
SHELL_2
 62
7
  6
CONTINUOUS
 10
332.67756113
 20
-261.8157444345
  0
VERTEX
  8
SHELL_2
 62
7
  6
CONTINUOUS
 10
331.7534132931
 20
-261.9019054564
  0
SEQEND
  0
POLYLINE
  8
SHELL_4
 62
7
  6
CONTINUOUS
 66
1
 70
0
  0
VERTEX
  8
SHELL_4
 62
7
  6
CONTINUOUS
 10
383.3030954168
 20
551.3363679577
  0
VERTEX
  8
SHELL_4
 62
7
  6
CONTINUOUS
 10
383.1611755763
 20
552.4718103729
  0
VERTEX
  8
SHELL_4
 62
7
  6
CONTINUOUS
 10
382.9149223243
 20
553.5833206949
  0
VERTEX
  8
SHELL_4
 62
7
  6
CONTINUOUS
 10
382.5678682232
 20
554.6623645163
  0
VERTEX
  8
SHELL_4
 62
7
  6
CONTINUOUS
 10
382.4958065187
 20
554.8504607724
  0
SEQEND
  0
LINE
  8
SHELL
 62
7
  6
CONTINUOUS
 10
201.4393014691
 20
574.5851112142
 11
204.2780538601
 21
570.9225488523
  0
POLYLINE
  8
SHELL_4
 62
7
  6
CONTINUOUS
 66
1
 70
0
  0
VERTEX
  8
SHELL_4
 62
7
  6
CONTINUOUS
 10
382.4956856635
 20
554.8507584871
  0
VERTEX
  8
SHELL_4
 62
7
  6
CONTINUOUS
 10
382.2940915257
 20
555.3456075657
  0
VERTEX
  8
SHELL_4
 62
7
  6
CONTINUOUS
 10
382.0217197832
 20
555.9599400488
  0
VERTEX
  8
SHELL_4
 62
7
  6
CONTINUOUS
 10
381.7118239496
 20
556.592753
  0
VERTEX
  8
SHELL_4
 62
7
  6
CONTINUOUS
 10
381.3465822365
 20
557.2621125114
  0
VERTEX
  8
SHELL_4
 62
7
  6
CONTINUOUS
 10
380.908036741
 20
557.9755109243
  0
VERTEX
  8
SHELL_4
 62
7
  6
CONTINUOUS
 10
380.3715631119
 20
558.7400312051
  0
VERTEX
  8
SHELL_4
 62
7
  6
CONTINUOUS
 10
379.7074420114
 20
559.5558854558
  0
VERTEX
  8
SHELL_4
 62
7
  6
CONTINUOUS
 10
378.8855072026
 20
560.4092840706
  0
VERTEX
  8
SHELL_4
 62
7
  6
CONTINUOUS
 10
377.8679983047
 20
561.2793599152
  0
VERTEX
  8
SHELL_4
 62
7
  6
CONTINUOUS
 10
376.645870158
 20
562.1106094301
  0
VERTEX
  8
SHELL_4
 62
7
  6
CONTINUOUS
 10
375.2114642488
 20
562.8477314365
  0
VERTEX
  8
SHELL_4
 62
7
  6
CONTINUOUS
 10
373.6072935003
 20
563.4186730788
  0
VERTEX
  8
SHELL_4
 62
7
  6
CONTINUOUS
 10
371.8981986941
 20
563.7705360438
  0
VERTEX
  8
SHELL_4
 62
7
  6
CONTINUOUS
 10
370.7651028747
 20
563.8688921857
  0
SEQEND
  0
LINE
  8
SHELL_4
 62
7
  6
CONTINUOUS
 10
382.4958065187
 20
554.8504607724
 11
382.4956929241
 21
554.8507501086
  0
LINE
  8
SHELL_3
 62
7
  6
CONTINUOUS
 10
-8.1361287995
 20
514.5980945436
 11
373.7662657584
 21
514.5980945436
  0
LINE
  8
SHELL_4
 62
7
  6
CONTINUOUS
 10
-13.7880405781
 20
514.5980945436
 11
379.4181786082
 21
514.5980945436
  0
LINE
  8
SHELL
 62
7
  6
CONTINUOUS
 10
177.3029568589
 20
574.8802439978
 11
177.4651982925
 21
574.9258628692
  0
LINE
  8
SHELL
 62
7
  6
CONTINUOUS
 10
177.4651982925
 20
574.9258628692
 11
178.2333744963
 21
575.1418532683
  0
LINE
  8
SHELL
 62
7
  6
CONTINUOUS
 10
155.7370763004
 20
569.389365842
 11
161.6730516273
 21
571.01018961
  0
LINE
  8
SHELL
 62
7
  6
CONTINUOUS
 10
181.9742364483
 20
575.9634934324
 11
182.1500620685
 21
576.0091011529
  0
LINE
  8
SHELL
 62
7
  6
CONTINUOUS
 10
178.2333744963
 20
575.1418532683
 11
178.5484132914
 21
575.2220350058
  0
LINE
  8
SHELL
 62
7
  6
CONTINUOUS
 10
178.5484132914
 20
575.2220350058
 11
179.1240123652
 21
575.3685259974
  0
LINE
  8
SHELL
 62
7
  6
CONTINUOUS
 10
209.8930606859
 20
569.389365842
 11
204.2780538601
 21
570.9225488523
  0
LINE
  8
SHELL
 62
7
  6
CONTINUOUS
 10
179.1240123652
 20
575.3685259974
 11
179.4643784226
 21
575.447059295
  0
LINE
  8
SHELL
 62
7
  6
CONTINUOUS
 10
179.4643784226
 20
575.447059295
 11
179.9739210876
 21
575.5646201708
  0
LINE
  8
SHELL
 62
7
  6
CONTINUOUS
 10
181.7731823082
 20
575.9194628181
 11
181.9742364483
 21
575.9634934324
  0
LINE
  8
SHELL
 62
7
  6
CONTINUOUS
 10
179.9739210876
 20
575.5646201708
 11
180.3341074269
 21
575.6403302985
  0
LINE
  8
SHELL
 62
7
  6
CONTINUOUS
 10
180.3341074269
 20
575.6403302985
 11
180.7822778512
 21
575.7345276088
  0
LINE
  8
SHELL
 62
7
  6
CONTINUOUS
 10
181.5497060948
 20
575.8768477843
 11
181.7731823082
 21
575.9194628181
  0
LINE
  8
SHELL
 62
7
  6
CONTINUOUS
 10
180.7822778512
 20
575.7345276088
 11
181.0905987291
 21
575.7917115556
  0
LINE
  8
SHELL
 62
7
  6
CONTINUOUS
 10
181.0905987291
 20
575.7917115556
 11
181.5497060953
 21
575.8768501746
  0
LINE
  8
SHELL
 62
7
  6
CONTINUOUS
 10
204.2780538601
 20
570.9225488523
 11
174.1524821941
 21
570.9225488523
  0
LINE
  8
SHELL
 62
7
  6
CONTINUOUS
 10
161.6730516273
 20
571.01018961
 11
174.204874951
 21
571.01018961
  0
LINE
  8
SHELL
 62
7
  6
CONTINUOUS
 10
175.9116772844
 20
574.407697463
 11
164.3063674833
 21
574.407697463
  0
LINE
  8
SHELL
 62
7
  6
CONTINUOUS
 10
201.4393014691
 20
574.5851112142
 11
176.332378409
 21
574.5851112142
  0
LINE
  8
SHELL_4
 62
7
  6
CONTINUOUS
 10
370.7655376784
 20
563.8688861127
 11
370.7650689325
 21
563.8689048642
  0
ARC
  8
0
 62
7
  6
CONTINUOUS
 10
182.8150684932
 20
-4059.2781307804
 40
4626.9659301398
 50
89.651066888
 51
90.348933112
  0
ARC
  8
SHELL_4
 62
7
  6
CONTINUOUS
 10
182.8150684932
 20
-4059.2781307804
 40
4626.9659301398
 50
90.0091672263
 51
92.3280335941
  0
ARC
  8
SHELL_4
 62
7
  6
CONTINUOUS
 10
182.8150684932
 20
-4059.2781307804
 40
4626.9659301398
 50
87.671966321
 51
90.0000000016
  0
ARC
  8
SHELL
 62
7
  6
CONTINUOUS
 10
182.8150684932
 20
499.6001387906
 40
77.2632392753
 50
76.0515336486
 51
90.1781938991
  0
ARC
  8
SHELL
 62
7
  6
CONTINUOUS
 10
182.8150684932
 20
499.6001387906
 40
77.0632392753
 50
90.5504097442
 51
103.8968979651
  0
ARC
  8
SHELL_3
 62
7
  6
CONTINUOUS
 10
3.3410114672
 20
148.0980945436
 40
7.0
 50
181.5000622731
 51
269.9985800964
  0
ARC
  8
SHELL_3
 62
7
  6
CONTINUOUS
 10
362.2891255191
 20
148.0980945436
 40
7.0
 50
270.0014145321
 51
358.4999412095
  0
ARC
  8
SHELL_4
 62
7
  6
CONTINUOUS
 10
379.4193589864
 20
519.5980945436
 40
5.0
 50
270.0
 51
1.9999999999
  0
ARC
  8
SHELL_4
 62
7
  6
CONTINUOUS
 10
-13.7892220001
 20
519.5980945436
 40
5.0
 50
178.0000000001
 51
270.0
  0
ARC
  8
SHELL_3
 62
7
  6
CONTINUOUS
 10
373.7765097694
 20
509.5980945436
 40
5.0
 50
0.0
 51
90.0000031107
  0
ARC
  8
SHELL_3
 62
7
  6
CONTINUOUS
 10
-8.1258848848
 20
509.5980945436
 40
4.9999999327
 50
89.9999998976
 51
181.5000011673
  0
ARC
  8
SHELL_3
 62
7
  6
CONTINUOUS
 10
373.7560218712
 20
509.5980945436
 40
4.9999999327
 50
358.4999965057
 51
89.9999999876
  0
ARC
  8
SHELL
 62
7
  6
CONTINUOUS
 10
156.0004843336
 20
568.4246813298
 40
1.0
 50
105.2723793091
 51
159.9999999999
  0
ARC
  8
SHELL
 62
7
  6
CONTINUOUS
 10
209.6296526527
 20
568.4246813298
 40
1.0
 50
20.0000000001
 51
74.7276206909
  0
ENDSEC
  0
EOF
