999
DXF file: K:\Client\125_Heirloom\001\00\Final_Data\Drawings\TOILETS\loftwf-373110d_2.dxf
999
Pro/ENGINEER 2017110 by Parametric Technology Corporation
  0
SECTION
  2
HEADER
  9
$EXTMAX
 10
420.0
 20
297.0
 30
0.0
  9
$EXTMIN
 10
0.0
 20
0.0
 30
0.0
  9
$LIMMIN
 10
0.0
 20
0.0
  9
$LIMMAX
 10
420.0
 20
297.0
  9
$VIEWCTR
 10
210.0
 20
148.5
  9
$VIEWSIZE
 40
297.0
  9
$CLAYER
  8
0
  9
$LTSCALE
 40
23.1
  9
$CELTYPE
  6
BYLAYER
  9
$DIMSCALE
 40
1.0
  9
$DIMASZ
 40
3.0
  9
$DIMEXO
 40
1.0
  9
$DIMDLI
 40
15.96
  9
$DIMEXE
 40
1.0
  9
$DIMCEN
 40
3.78
  9
$DIMLFAC
 40
1.0
  9
$DIMBLK
  1
_FILLED
  9
$DIMALT
 70
0
  9
$DIMALTF
 40
0.0393700787
  9
$DIMTXT
 40
3.0
  9
$AUNITS
 70
0
  9
$PDMODE
 70
3
  9
$PDSIZE
 40
5.0
  9
$TILEMODE
 70
1
  0
ENDSEC
  0
SECTION
  2
TABLES
  0
TABLE
  2
LTYPE
 70
6
  0
LTYPE
  2
BYBLOCK
 70
0
  3

 72
65
 73
0
 40
0.0
  0
LTYPE
  2
BYLAYER
 70
0
  3

 72
65
 73
0
 40
0.0
  0
LTYPE
  2
CONTINUOUS
 70
64
  3
Solid line
 72
65
 73
0
 40
0.0
  0
LTYPE
  2
CENTER
 70
64
  3
____ _ ____ _ ____ _ ____ _ ____ _ ____ _ ____
 72
65
 73
4
 40
0.6
 49
0.375
 49
-0.075
 49
0.075
 49
-0.075
  0
LTYPE
  2
HIDDEN
 70
64
  3
- - - - - - - - - - - - - - - - - - - -
 72
65
 73
2
 40
0.2
 49
0.1
 49
-0.1
  0
LTYPE
  2
PHANTOM
 70
64
  3
_____ _ _ _____ _ _ _____ _ _ _____
 72
65
 73
6
 40
0.8
 49
0.45
 49
-0.05
 49
0.1
 49
-0.05
 49
0.1
 49
-0.05
  0
LTYPE
  2
DOT
 70
64
  3
. . . . . . . . . . . . . . . . . . . .
 72
65
 73
2
 40
0.2
 49
0.1
 49
-0.1
  0
LTYPE
  2
DASHED
 70
64
  3
- - - - - - - - - - - - - - - - - - - -
 72
65
 73
2
 40
0.2
 49
0.1
 49
-0.1
  0
ENDTAB
  0
TABLE
  2
LAYER
 70
36
  0
LAYER
  2
0
 70
0
 62
7
  6
CONTINUOUS
  0
LAYER
  2
DEFAULT_1
 70
0
 62
7
  6
CENTER
  0
LAYER
  2
DEFAULT_2
 70
0
 62
8
  6
HIDDEN
  0
LAYER
  2
DEFAULT_3
 70
0
 62
7
  6
PHANTOM
  0
LAYER
  2
0000_BOM
 70
0
 62
7
  6
CONTINUOUS
  0
LAYER
  2
0000_REV_TABLE
 70
0
 62
7
  6
CONTINUOUS
  0
LAYER
  2
0000_STEVENS_NOTE
 70
0
 62
7
  6
CONTINUOUS
  0
LAYER
  2
01_DATUM_PLANES
 70
0
 62
7
  6
CONTINUOUS
  0
LAYER
  2
01_DEF_PLANES
 70
0
 62
7
  6
CONTINUOUS
  0
LAYER
  2
02_DATUM_COS
 70
0
 62
7
  6
CONTINUOUS
  0
LAYER
  2
90_IMP_FEAT
 70
0
 62
7
  6
CONTINUOUS
  0
LAYER
  2
95_STL
 70
0
 62
7
  6
CONTINUOUS
  0
LAYER
  2
99_SOLID
 70
0
 62
7
  6
CONTINUOUS
  0
LAYER
  2
CAD-MASTER_ZINC-PL
 70
0
 62
7
  6
CONTINUOUS
  0
LAYER
  2
CURVE
 70
0
 62
7
  6
CONTINUOUS
  0
LAYER
  2
SHELL
 70
0
 62
7
  6
CONTINUOUS
  0
LAYER
  2
SHELL_1
 70
0
 62
7
  6
CONTINUOUS
  0
LAYER
  2
SHELL_2
 70
0
 62
7
  6
CONTINUOUS
  0
LAYER
  2
SHELL_3
 70
0
 62
7
  6
CONTINUOUS
  0
LAYER
  2
SHELL_4
 70
0
 62
7
  6
CONTINUOUS
  0
LAYER
  2
SKEL
 70
0
 62
7
  6
CONTINUOUS
  0
LAYER
  2
SKETCH
 70
0
 62
7
  6
CONTINUOUS
  0
LAYER
  2
SURFACE
 70
0
 62
7
  6
CONTINUOUS
  0
ENDTAB
  0
TABLE
  2
STYLE
 70
1
  0
STYLE
  2
STANDARD
 70
0
 40
0.0
 41
0.75
 50
0.0
 71
0
 42
0.2
  3
txt
  4

  0
STYLE
  2
TEXTSTYLE_1
 70
0
 40
0.0
 41
0.8
 50
0.0
 71
0
 42
0.2
  3
gdt
  4

  0
ENDTAB
  0
ENDSEC
  0
SECTION
  2
BLOCKS
  0
BLOCK
  8
0
 62
5
  6
CONTINUOUS
  2
PLUMBING_BL1
 70
64
 10
527.1593379738
 20
-266.8018158139
  0
CIRCLE
  8
0
 62
5
  6
CONTINUOUS
 10
527.1593379738
 20
-266.8018158139
 40
12.5
  0
LINE
  8
0
 62
5
  6
CONTINUOUS
 10
539.6593379738
 20
-254.3018158139
 11
514.6593379738
 21
-279.3018158139
  0
LINE
  8
0
 62
5
  6
CONTINUOUS
 10
527.1593379738
 20
-266.8018158139
 11
514.6593379738
 21
-254.3018158139
  0
LINE
  8
0
 62
5
  6
CONTINUOUS
 10
527.1593379738
 20
-266.8018158139
 11
539.6593379738
 21
-279.3018158139
  0
ENDBLK
  8
0
  6
BYBLOCK
 62
0
  0
BLOCK
  8
0
 62
1
  6
CONTINUOUS
  2
PLUMBING_BL0
 70
64
 10
317.2786827221
 20
-86.8018158151
  0
CIRCLE
  8
0
 62
1
  6
CONTINUOUS
 10
317.2786827221
 20
-86.8018158151
 40
12.5
  0
LINE
  8
0
 62
1
  6
CONTINUOUS
 10
329.7786827221
 20
-74.3018158151
 11
304.7786827221
 21
-99.3018158151
  0
LINE
  8
0
 62
1
  6
CONTINUOUS
 10
317.2786827221
 20
-86.8018158151
 11
304.7786827221
 21
-74.3018158151
  0
LINE
  8
0
 62
1
  6
CONTINUOUS
 10
317.2786827221
 20
-86.8018158151
 11
329.7786827221
 21
-99.3018158151
  0
ENDBLK
  8
0
  6
BYBLOCK
 62
0
  0
ENDSEC
  0
SECTION
  2
ENTITIES
  0
INSERT
  8
0
 62
1
  6
CONTINUOUS
  2
PLUMBING_BL0
 10
317.2786827221
 20
-86.8018158151
  0
INSERT
  8
0
 62
5
  6
CONTINUOUS
  2
PLUMBING_BL1
 10
527.1593379738
 20
-266.8018158139
  0
LINE
  8
DEFAULT_2
 62
8
  6
HIDDEN
 10
267.2786827221
 20
-136.8018158151
 11
317.2786827221
 21
-136.8018158151
  0
LINE
  8
DEFAULT_2
 62
8
  6
HIDDEN
 10
267.2786827221
 20
-36.8018158151
 11
317.2786827221
 21
-36.8018158151
  0
LINE
  8
DEFAULT_2
 62
8
  6
HIDDEN
 10
317.2786827221
 20
-36.8018158151
 11
317.2786827221
 21
-136.8018158151
  0
LINE
  8
SHELL_2
 62
7
  6
CONTINUOUS
 10
-64.769132692
 20
-266.8018158139
 11
522.1593379738
 21
-266.8018158139
  0
LINE
  8
SHELL_1
 62
7
  6
CONTINUOUS
 10
-167.831315426
 20
142.5839018922
 11
-167.9311709521
 21
148.148253215
  0
POLYLINE
  8
SHELL_1
 62
7
  6
CONTINUOUS
 66
1
 70
0
  0
VERTEX
  8
SHELL_1
 62
7
  6
CONTINUOUS
 10
-167.931142924
 20
148.1467066793
  0
VERTEX
  8
SHELL_1
 62
7
  6
CONTINUOUS
 10
-167.8939493591
 20
148.7690040546
  0
VERTEX
  8
SHELL_1
 62
7
  6
CONTINUOUS
 10
-167.7606263274
 20
149.3776003033
  0
VERTEX
  8
SHELL_1
 62
7
  6
CONTINUOUS
 10
-167.5425472874
 20
149.9411547617
  0
VERTEX
  8
SHELL_1
 62
7
  6
CONTINUOUS
 10
-167.2436908269
 20
150.4630274966
  0
VERTEX
  8
SHELL_1
 62
7
  6
CONTINUOUS
 10
-166.8621722084
 20
150.9426161672
  0
VERTEX
  8
SHELL_1
 62
7
  6
CONTINUOUS
 10
-166.4054764403
 20
151.3633386002
  0
VERTEX
  8
SHELL_1
 62
7
  6
CONTINUOUS
 10
-165.8817096107
 20
151.7124841349
  0
VERTEX
  8
SHELL_1
 62
7
  6
CONTINUOUS
 10
-165.301709059
 20
151.9780436156
  0
VERTEX
  8
SHELL_1
 62
7
  6
CONTINUOUS
 10
-164.6763387798
 20
152.1500337739
  0
VERTEX
  8
SHELL_1
 62
7
  6
CONTINUOUS
 10
-164.127738664
 20
152.2151330879
  0
SEQEND
  0
LINE
  8
SHELL_1
 62
7
  6
CONTINUOUS
 10
-168.3318371018
 20
135.3389131901
 11
-169.6447918323
 21
127.8927768968
  0
POLYLINE
  8
SHELL
 62
7
  6
CONTINUOUS
 66
1
 70
0
  0
VERTEX
  8
SHELL
 62
7
  6
CONTINUOUS
 10
429.9861399788
 20
569.5077557513
  0
VERTEX
  8
SHELL
 62
7
  6
CONTINUOUS
 10
430.9770376847
 20
569.8111133838
  0
VERTEX
  8
SHELL
 62
7
  6
CONTINUOUS
 10
431.9242129366
 20
570.0791369605
  0
VERTEX
  8
SHELL
 62
7
  6
CONTINUOUS
 10
432.8279792241
 20
570.3102140129
  0
VERTEX
  8
SHELL
 62
7
  6
CONTINUOUS
 10
433.6873960782
 20
570.5091819461
  0
VERTEX
  8
SHELL
 62
7
  6
CONTINUOUS
 10
434.5015230303
 20
570.6808781649
  0
VERTEX
  8
SHELL
 62
7
  6
CONTINUOUS
 10
435.2706735698
 20
570.8236902009
  0
SEQEND
  0
POLYLINE
  8
SHELL_1
 62
7
  6
CONTINUOUS
 66
1
 70
0
  0
VERTEX
  8
SHELL_1
 62
7
  6
CONTINUOUS
 10
-167.4520313816
 20
140.9541790954
  0
VERTEX
  8
SHELL_1
 62
7
  6
CONTINUOUS
 10
-167.6038103616
 20
141.3240776612
  0
VERTEX
  8
SHELL_1
 62
7
  6
CONTINUOUS
 10
-167.7686479116
 20
141.9468060396
  0
VERTEX
  8
SHELL_1
 62
7
  6
CONTINUOUS
 10
-167.8313165935
 20
142.5839031422
  0
SEQEND
  0
LINE
  8
SHELL_2
 62
7
  6
CONTINUOUS
 10
-69.5987618235
 20
-263.0959110394
 11
-170.7448558542
 21
114.3864508704
  0
POLYLINE
  8
SHELL
 62
7
  6
CONTINUOUS
 66
1
 70
0
  0
VERTEX
  8
SHELL
 62
7
  6
CONTINUOUS
 10
427.5205792128
 20
566.0224582568
  0
VERTEX
  8
SHELL
 62
7
  6
CONTINUOUS
 10
427.561008605
 20
566.0369253877
  0
VERTEX
  8
SHELL
 62
7
  6
CONTINUOUS
 10
427.7651878818
 20
566.1102792526
  0
SEQEND
  0
POLYLINE
  8
SHELL_1
 62
7
  6
CONTINUOUS
 66
1
 70
0
  0
VERTEX
  8
SHELL_1
 62
7
  6
CONTINUOUS
 10
-167.4520313816
 20
140.9541790954
  0
VERTEX
  8
SHELL_1
 62
7
  6
CONTINUOUS
 10
-167.4040775563
 20
140.8556803545
  0
VERTEX
  8
SHELL_1
 62
7
  6
CONTINUOUS
 10
-167.2766347299
 20
140.6223970976
  0
VERTEX
  8
SHELL_1
 62
7
  6
CONTINUOUS
 10
-167.136054155
 20
140.4011322186
  0
VERTEX
  8
SHELL_1
 62
7
  6
CONTINUOUS
 10
-166.9836476206
 20
140.1925743623
  0
VERTEX
  8
SHELL_1
 62
7
  6
CONTINUOUS
 10
-166.8206542854
 20
139.9971595481
  0
VERTEX
  8
SHELL_1
 62
7
  6
CONTINUOUS
 10
-166.6483791692
 20
139.8152913114
  0
VERTEX
  8
SHELL_1
 62
7
  6
CONTINUOUS
 10
-166.4680195532
 20
139.6471562224
  0
VERTEX
  8
SHELL_1
 62
7
  6
CONTINUOUS
 10
-166.2808460508
 20
139.4929307065
  0
VERTEX
  8
SHELL_1
 62
7
  6
CONTINUOUS
 10
-166.0879969469
 20
139.3526019897
  0
VERTEX
  8
SHELL_1
 62
7
  6
CONTINUOUS
 10
-165.8906871666
 20
139.2261507208
  0
VERTEX
  8
SHELL_1
 62
7
  6
CONTINUOUS
 10
-165.6898427596
 20
139.113321669
  0
SEQEND
  0
POLYLINE
  8
SHELL_1
 62
7
  6
CONTINUOUS
 66
1
 70
0
  0
VERTEX
  8
SHELL_1
 62
7
  6
CONTINUOUS
 10
-165.6069008397
 20
139.0710459046
  0
VERTEX
  8
SHELL_1
 62
7
  6
CONTINUOUS
 10
-166.1214201678
 20
139.3756812515
  0
VERTEX
  8
SHELL_1
 62
7
  6
CONTINUOUS
 10
-166.5929504353
 20
139.7613831978
  0
VERTEX
  8
SHELL_1
 62
7
  6
CONTINUOUS
 10
-167.0053423767
 20
140.2205890848
  0
VERTEX
  8
SHELL_1
 62
7
  6
CONTINUOUS
 10
-167.346163636
 20
140.7450791163
  0
VERTEX
  8
SHELL_1
 62
7
  6
CONTINUOUS
 10
-167.4520313816
 20
140.9541790954
  0
SEQEND
  0
POLYLINE
  8
SHELL_1
 62
7
  6
CONTINUOUS
 66
1
 70
0
  0
VERTEX
  8
SHELL_1
 62
7
  6
CONTINUOUS
 10
-165.6898427596
 20
139.113321669
  0
VERTEX
  8
SHELL_1
 62
7
  6
CONTINUOUS
 10
-165.48703285
 20
139.0141462625
  0
VERTEX
  8
SHELL_1
 62
7
  6
CONTINUOUS
 10
-165.2829638263
 20
138.9281303338
  0
VERTEX
  8
SHELL_1
 62
7
  6
CONTINUOUS
 10
-165.0807587459
 20
138.8556080714
  0
VERTEX
  8
SHELL_1
 62
7
  6
CONTINUOUS
 10
-164.8816776802
 20
138.7958682331
  0
VERTEX
  8
SHELL_1
 62
7
  6
CONTINUOUS
 10
-164.6914992288
 20
138.7491137765
  0
VERTEX
  8
SHELL_1
 62
7
  6
CONTINUOUS
 10
-164.5128980553
 20
138.7140545915
  0
SEQEND
  0
POLYLINE
  8
SHELL_1
 62
7
  6
CONTINUOUS
 66
1
 70
0
  0
VERTEX
  8
SHELL_1
 62
7
  6
CONTINUOUS
 10
-164.4485770891
 20
138.7034914996
  0
VERTEX
  8
SHELL_1
 62
7
  6
CONTINUOUS
 10
-165.0503219723
 20
138.8457446282
  0
VERTEX
  8
SHELL_1
 62
7
  6
CONTINUOUS
 10
-165.6069008397
 20
139.0710459046
  0
SEQEND
  0
LINE
  8
SHELL
 62
7
  6
CONTINUOUS
 10
428.5351049979
 20
569.6852008567
 11
425.6963526069
 21
566.0226384949
  0
LINE
  8
SHELL_1
 62
7
  6
CONTINUOUS
 10
-163.831959343
 20
138.6556789436
 11
-164.4485770891
 21
138.7034914996
  0
POLYLINE
  8
SHELL_1
 62
7
  6
CONTINUOUS
 66
1
 70
0
  0
VERTEX
  8
SHELL_1
 62
7
  6
CONTINUOUS
 10
-164.5128980553
 20
138.7140545915
  0
VERTEX
  8
SHELL_1
 62
7
  6
CONTINUOUS
 10
-164.355011938
 20
138.6900104011
  0
VERTEX
  8
SHELL_1
 62
7
  6
CONTINUOUS
 10
-164.2269446785
 20
138.6752084971
  0
VERTEX
  8
SHELL_1
 62
7
  6
CONTINUOUS
 10
-164.1287355172
 20
138.6666746199
  0
VERTEX
  8
SHELL_1
 62
7
  6
CONTINUOUS
 10
-164.0682380238
 20
138.6626235042
  0
VERTEX
  8
SHELL_1
 62
7
  6
CONTINUOUS
 10
-164.0303180306
 20
138.6605482685
  0
VERTEX
  8
SHELL_1
 62
7
  6
CONTINUOUS
 10
-164.0037702619
 20
138.6593052371
  0
VERTEX
  8
SHELL_1
 62
7
  6
CONTINUOUS
 10
-163.9861620163
 20
138.6585742033
  0
VERTEX
  8
SHELL_1
 62
7
  6
CONTINUOUS
 10
-163.9713356654
 20
138.6580148889
  0
VERTEX
  8
SHELL_1
 62
7
  6
CONTINUOUS
 10
-163.9492585876
 20
138.6572729095
  0
SEQEND
  0
POLYLINE
  8
SHELL
 62
7
  6
CONTINUOUS
 66
1
 70
0
  0
VERTEX
  8
SHELL
 62
7
  6
CONTINUOUS
 10
429.6998311696
 20
569.685215801
  0
VERTEX
  8
SHELL
 62
7
  6
CONTINUOUS
 10
429.3465605159
 20
569.0976942658
  0
VERTEX
  8
SHELL
 62
7
  6
CONTINUOUS
 10
428.9893438125
 20
568.5009620115
  0
VERTEX
  8
SHELL
 62
7
  6
CONTINUOUS
 10
428.62820839
 20
567.8949857595
  0
VERTEX
  8
SHELL
 62
7
  6
CONTINUOUS
 10
428.2630722567
 20
567.2798653453
  0
VERTEX
  8
SHELL
 62
7
  6
CONTINUOUS
 10
427.8938534208
 20
566.6557006038
  0
VERTEX
  8
SHELL
 62
7
  6
CONTINUOUS
 10
427.5205792128
 20
566.0224582568
  0
SEQEND
  0
POLYLINE
  8
SHELL_1
 62
7
  6
CONTINUOUS
 66
1
 70
0
  0
VERTEX
  8
SHELL_1
 62
7
  6
CONTINUOUS
 10
-137.8018991778
 20
139.1221084777
  0
VERTEX
  8
SHELL_1
 62
7
  6
CONTINUOUS
 10
-137.5610278738
 20
139.1265787714
  0
VERTEX
  8
SHELL_1
 62
7
  6
CONTINUOUS
 10
-137.1716286467
 20
139.1337034598
  0
VERTEX
  8
SHELL_1
 62
7
  6
CONTINUOUS
 10
-136.7707021975
 20
139.1409397606
  0
SEQEND
  0
LINE
  8
SHELL_1
 62
7
  6
CONTINUOUS
 10
233.4844600469
 20
145.7851024551
 11
-163.2161210534
 21
138.6660794222
  0
LINE
  8
SHELL_1
 62
7
  6
CONTINUOUS
 10
-134.027895953
 20
139.1898340161
 11
-164.4643764756
 21
138.6436787514
  0
LINE
  8
SHELL_2
 62
7
  6
CONTINUOUS
 10
365.003057546
 20
123.1981841861
 11
217.0326853043
 21
123.1981841861
  0
LINE
  8
SHELL_1
 62
7
  6
CONTINUOUS
 10
-165.7055608203
 20
123.1981841861
 11
217.0326853043
 21
123.1981841861
  0
LINE
  8
SHELL_2
 62
7
  6
CONTINUOUS
 10
319.8801999846
 20
133.1981841861
 11
263.9069813898
 21
133.1981841861
  0
LINE
  8
SHELL_2
 62
7
  6
CONTINUOUS
 10
382.5443718406
 20
136.1981841861
 11
378.2865877143
 21
136.1981841861
  0
LINE
  8
SHELL_3
 62
7
  6
CONTINUOUS
 10
367.0519942658
 20
136.1981841861
 11
378.2865877143
 21
136.1981841861
  0
LINE
  8
SHELL_3
 62
7
  6
CONTINUOUS
 10
382.5443718406
 20
136.1981841861
 11
522.1593379738
 21
136.1981841861
  0
LINE
  8
SHELL_1
 62
7
  6
CONTINUOUS
 10
-163.8889100866
 20
138.6557061728
 11
-163.8421909155
 21
138.6548058755
  0
LINE
  8
SHELL_1
 62
7
  6
CONTINUOUS
 10
-163.9241786733
 20
138.6565497676
 11
-163.8889100866
 21
138.6557061728
  0
LINE
  8
SHELL_1
 62
7
  6
CONTINUOUS
 10
-163.9492585876
 20
138.6572729095
 11
-163.9241786733
 21
138.6565497676
  0
POLYLINE
  8
SHELL
 62
7
  6
CONTINUOUS
 66
1
 70
0
  0
VERTEX
  8
SHELL
 62
7
  6
CONTINUOUS
 10
427.9843429672
 20
566.1103112149
  0
VERTEX
  8
SHELL
 62
7
  6
CONTINUOUS
 10
428.3267541489
 20
566.6962278699
  0
VERTEX
  8
SHELL
 62
7
  6
CONTINUOUS
 10
428.6656505839
 20
567.2742920871
  0
VERTEX
  8
SHELL
 62
7
  6
CONTINUOUS
 10
429.0010290772
 20
567.844520668
  0
VERTEX
  8
SHELL
 62
7
  6
CONTINUOUS
 10
429.3328992139
 20
568.4068632079
  0
VERTEX
  8
SHELL
 62
7
  6
CONTINUOUS
 10
429.6612705795
 20
568.9612693018
  0
VERTEX
  8
SHELL
 62
7
  6
CONTINUOUS
 10
429.9861399788
 20
569.5077557513
  0
SEQEND
  0
POLYLINE
  8
SHELL_1
 62
7
  6
CONTINUOUS
 66
1
 70
0
  0
VERTEX
  8
SHELL_1
 62
7
  6
CONTINUOUS
 10
-161.9706845035
 20
152.3011698848
  0
VERTEX
  8
SHELL_1
 62
7
  6
CONTINUOUS
 10
-162.1983419884
 20
152.2912186691
  0
VERTEX
  8
SHELL_1
 62
7
  6
CONTINUOUS
 10
-162.3654304414
 20
152.2835970655
  0
VERTEX
  8
SHELL_1
 62
7
  6
CONTINUOUS
 10
-162.4889455178
 20
152.2799559656
  0
VERTEX
  8
SHELL_1
 62
7
  6
CONTINUOUS
 10
-162.6879268966
 20
152.2734031406
  0
SEQEND
  0
POLYLINE
  8
SHELL_1
 62
7
  6
CONTINUOUS
 66
1
 70
0
  0
VERTEX
  8
SHELL_1
 62
7
  6
CONTINUOUS
 10
-163.2451217418
 20
152.2523747127
  0
VERTEX
  8
SHELL_1
 62
7
  6
CONTINUOUS
 10
-163.4105085233
 20
152.2458737467
  0
VERTEX
  8
SHELL_1
 62
7
  6
CONTINUOUS
 10
-163.5666101745
 20
152.2395874261
  0
VERTEX
  8
SHELL_1
 62
7
  6
CONTINUOUS
 10
-163.7103425602
 20
152.2336526571
  0
VERTEX
  8
SHELL_1
 62
7
  6
CONTINUOUS
 10
-163.8393948527
 20
152.2281674805
  0
VERTEX
  8
SHELL_1
 62
7
  6
CONTINUOUS
 10
-163.9500551477
 20
152.2233252669
  0
VERTEX
  8
SHELL_1
 62
7
  6
CONTINUOUS
 10
-164.0390098809
 20
152.219310426
  0
VERTEX
  8
SHELL_1
 62
7
  6
CONTINUOUS
 10
-164.127738664
 20
152.2151330879
  0
SEQEND
  0
POLYLINE
  8
SHELL_1
 62
7
  6
CONTINUOUS
 66
1
 70
0
  0
VERTEX
  8
SHELL_1
 62
7
  6
CONTINUOUS
 10
-162.6879268966
 20
152.2734031406
  0
VERTEX
  8
SHELL_1
 62
7
  6
CONTINUOUS
 10
-162.8943470601
 20
152.2656470957
  0
VERTEX
  8
SHELL_1
 62
7
  6
CONTINUOUS
 10
-163.2451217418
 20
152.2523747127
  0
SEQEND
  0
LINE
  8
SHELL_1
 62
7
  6
CONTINUOUS
 10
-164.1276948639
 20
152.2151352356
 11
-164.0354169805
 21
152.2185923732
  0
LINE
  8
SHELL_1
 62
7
  6
CONTINUOUS
 10
248.9814346986
 20
162.914141075
 11
257.1092278915
 21
163.1249616626
  0
LINE
  8
SHELL_1
 62
7
  6
CONTINUOUS
 10
248.9109142371
 20
162.9126501983
 11
-133.7126386864
 21
153.0038603853
  0
LINE
  8
SHELL_1
 62
7
  6
CONTINUOUS
 10
-133.7259092254
 20
153.0035167186
 11
-164.0353661798
 21
152.2185936891
  0
LINE
  8
SHELL_1
 62
7
  6
CONTINUOUS
 10
252.7910473339
 20
159.7679538768
 11
251.2813422893
 21
157.978900147
  0
LINE
  8
SHELL_1
 62
7
  6
CONTINUOUS
 10
246.0236355372
 20
151.7483321904
 11
251.2808348483
 21
157.9782988116
  0
LINE
  8
SHELL_1
 62
7
  6
CONTINUOUS
 10
264.4275926824
 20
136.7282911032
 11
269.81791621
 21
140.0789758962
  0
LINE
  8
SHELL_2
 62
7
  6
CONTINUOUS
 10
263.9069813898
 20
123.1981841861
 11
263.9069813898
 21
133.1981841861
  0
LINE
  8
SHELL
 62
7
  6
CONTINUOUS
 10
419.4050611935
 20
563.8667911157
 11
418.8109308136
 21
562.2344313126
  0
LINE
  8
SHELL_2
 62
7
  6
CONTINUOUS
 10
319.8801999846
 20
123.1981841861
 11
319.8801999846
 21
133.1981841861
  0
POLYLINE
  8
SHELL_4
 62
7
  6
CONTINUOUS
 66
1
 70
0
  0
VERTEX
  8
SHELL_4
 62
7
  6
CONTINUOUS
 10
346.0528606452
 20
545.2971373927
  0
VERTEX
  8
SHELL_4
 62
7
  6
CONTINUOUS
 10
346.1832697472
 20
546.6914180241
  0
VERTEX
  8
SHELL_4
 62
7
  6
CONTINUOUS
 10
346.4735077809
 20
548.0547722643
  0
VERTEX
  8
SHELL_4
 62
7
  6
CONTINUOUS
 10
346.908167078
 20
549.3461669284
  0
VERTEX
  8
SHELL_4
 62
7
  6
CONTINUOUS
 10
347.4833225503
 20
550.5742139527
  0
VERTEX
  8
SHELL_4
 62
7
  6
CONTINUOUS
 10
348.2024066988
 20
551.7425205388
  0
VERTEX
  8
SHELL_4
 62
7
  6
CONTINUOUS
 10
349.0577322673
 20
552.8297135055
  0
VERTEX
  8
SHELL_4
 62
7
  6
CONTINUOUS
 10
350.0444426455
 20
553.821951766
  0
VERTEX
  8
SHELL_4
 62
7
  6
CONTINUOUS
 10
351.1488398359
 20
554.6988249905
  0
VERTEX
  8
SHELL_4
 62
7
  6
CONTINUOUS
 10
352.3522378895
 20
555.4421116358
  0
VERTEX
  8
SHELL_4
 62
7
  6
CONTINUOUS
 10
353.6435518667
 20
556.0421175028
  0
VERTEX
  8
SHELL_4
 62
7
  6
CONTINUOUS
 10
355.0124881566
 20
556.4890415573
  0
VERTEX
  8
SHELL_4
 62
7
  6
CONTINUOUS
 10
356.422065093
 20
556.768351656
  0
SEQEND
  0
LINE
  8
SHELL_3
 62
7
  6
CONTINUOUS
 10
360.0562584767
 20
142.9538877092
 11
347.4299628709
 21
504.5236867026
  0
LINE
  8
SHELL_4
 62
7
  6
CONTINUOUS
 10
346.0528685456
 20
545.2974243517
 11
344.9904131195
 21
514.8726816696
  0
LINE
  8
SHELL_2
 62
7
  6
CONTINUOUS
 10
527.1593379738
 20
-261.8018158139
 11
527.1593379738
 21
131.1981843383
  0
LINE
  8
SHELL_3
 62
7
  6
CONTINUOUS
 10
527.1593379738
 20
141.1981841393
 11
527.1593379738
 21
504.6981841861
  0
LINE
  8
SHELL_4
 62
7
  6
CONTINUOUS
 10
527.1593379738
 20
514.6981841861
 11
527.1593379738
 21
553.1871989597
  0
LINE
  8
SHELL
 62
7
  6
CONTINUOUS
 10
425.6963526069
 20
566.0226384949
 11
420.0813457811
 21
564.4894554845
  0
POLYLINE
  8
SHELL
 62
7
  6
CONTINUOUS
 66
1
 70
0
  0
VERTEX
  8
SHELL
 62
7
  6
CONTINUOUS
 10
434.916704269
 20
570.9768635372
  0
VERTEX
  8
SHELL
 62
7
  6
CONTINUOUS
 10
434.1494738089
 20
570.834566116
  0
VERTEX
  8
SHELL
 62
7
  6
CONTINUOUS
 10
433.3410588191
 20
570.6646396213
  0
VERTEX
  8
SHELL
 62
7
  6
CONTINUOUS
 10
432.4911919493
 20
570.4685482473
  0
VERTEX
  8
SHELL
 62
7
  6
CONTINUOUS
 10
431.6006752506
 20
570.2418994115
  0
VERTEX
  8
SHELL
 62
7
  6
CONTINUOUS
 10
430.6703107742
 20
569.9803005313
  0
VERTEX
  8
SHELL
 62
7
  6
CONTINUOUS
 10
429.6998311696
 20
569.685215801
  0
SEQEND
  0
POLYLINE
  8
SHELL
 62
7
  6
CONTINUOUS
 66
1
 70
0
  0
VERTEX
  8
SHELL
 62
7
  6
CONTINUOUS
 10
435.2706735698
 20
570.8236883636
  0
VERTEX
  8
SHELL
 62
7
  6
CONTINUOUS
 10
435.4843351953
 20
570.8608048725
  0
VERTEX
  8
SHELL
 62
7
  6
CONTINUOUS
 10
435.716985541
 20
570.8989795141
  0
VERTEX
  8
SHELL
 62
7
  6
CONTINUOUS
 10
435.9667057073
 20
570.9383938155
  0
VERTEX
  8
SHELL
 62
7
  6
CONTINUOUS
 10
436.2314324696
 20
570.9785031953
  0
VERTEX
  8
SHELL
 62
7
  6
CONTINUOUS
 10
436.5088837831
 20
571.018959094
  0
VERTEX
  8
SHELL
 62
7
  6
CONTINUOUS
 10
436.7965858541
 20
571.0593549726
  0
VERTEX
  8
SHELL
 62
7
  6
CONTINUOUS
 10
437.0919121734
 20
571.099102765
  0
VERTEX
  8
SHELL
 62
7
  6
CONTINUOUS
 10
437.3919939134
 20
571.1383984931
  0
SEQEND
  0
LINE
  8
SHELL_4
 62
7
  6
CONTINUOUS
 10
349.9873672548
 20
509.6981841861
 11
522.1593379738
 21
509.6981841861
  0
POLYLINE
  8
SHELL
 62
7
  6
CONTINUOUS
 66
1
 70
0
  0
VERTEX
  8
SHELL
 62
7
  6
CONTINUOUS
 10
437.3921914774
 20
571.3432505858
  0
VERTEX
  8
SHELL
 62
7
  6
CONTINUOUS
 10
437.0375819747
 20
571.2969202277
  0
VERTEX
  8
SHELL
 62
7
  6
CONTINUOUS
 10
436.6898551177
 20
571.2502187769
  0
VERTEX
  8
SHELL
 62
7
  6
CONTINUOUS
 10
436.3523855207
 20
571.2029116705
  0
VERTEX
  8
SHELL
 62
7
  6
CONTINUOUS
 10
436.0282390327
 20
571.1557025972
  0
VERTEX
  8
SHELL
 62
7
  6
CONTINUOUS
 10
435.7201946694
 20
571.109084859
  0
VERTEX
  8
SHELL
 62
7
  6
CONTINUOUS
 10
435.4308210836
 20
571.0634550526
  0
VERTEX
  8
SHELL
 62
7
  6
CONTINUOUS
 10
435.1623612585
 20
571.0194443374
  0
VERTEX
  8
SHELL
 62
7
  6
CONTINUOUS
 10
434.9167043105
 20
570.9768423269
  0
SEQEND
  0
LINE
  8
SHELL
 62
7
  6
CONTINUOUS
 10
468.6223233408
 20
566.0226384949
 11
466.7965307333
 21
566.0226384949
  0
LINE
  8
SHELL
 62
7
  6
CONTINUOUS
 10
427.5221452143
 20
566.0226384949
 11
425.6963526069
 21
566.0226384949
  0
LINE
  8
SHELL
 62
7
  6
CONTINUOUS
 10
427.7651878818
 20
566.1102792526
 11
466.5534880659
 21
566.1102792526
  0
LINE
  8
SHELL
 62
7
  6
CONTINUOUS
 10
464.3324332945
 20
569.5077871056
 11
429.9862574042
 21
569.5077871056
  0
LINE
  8
SHELL
 62
7
  6
CONTINUOUS
 10
465.7835709498
 20
569.6852008567
 11
464.6189136622
 21
569.6852008567
  0
LINE
  8
SHELL
 62
7
  6
CONTINUOUS
 10
429.6997622855
 20
569.6852008567
 11
428.5351049979
 21
569.6852008567
  0
LINE
  8
SHELL
 62
7
  6
CONTINUOUS
 10
474.9136147541
 20
563.8667911157
 11
475.5773794906
 21
562.0431124904
  0
LINE
  8
SHELL
 62
7
  6
CONTINUOUS
 10
457.281155533
 20
571.2969161575
 11
456.9266820343
 21
571.3432361453
  0
POLYLINE
  8
SHELL
 62
7
  6
CONTINUOUS
 66
1
 70
0
  0
VERTEX
  8
SHELL
 62
7
  6
CONTINUOUS
 10
456.9266820343
 20
571.1383991039
  0
VERTEX
  8
SHELL
 62
7
  6
CONTINUOUS
 10
457.2267641218
 20
571.0991029508
  0
VERTEX
  8
SHELL
 62
7
  6
CONTINUOUS
 10
457.5220907795
 20
571.0593549037
  0
VERTEX
  8
SHELL
 62
7
  6
CONTINUOUS
 10
457.8097932138
 20
571.0189589876
  0
VERTEX
  8
SHELL
 62
7
  6
CONTINUOUS
 10
458.0872447739
 20
570.9785031272
  0
VERTEX
  8
SHELL
 62
7
  6
CONTINUOUS
 10
458.3519715808
 20
570.9383936757
  0
VERTEX
  8
SHELL
 62
7
  6
CONTINUOUS
 10
458.6016915521
 20
570.8989793715
  0
VERTEX
  8
SHELL
 62
7
  6
CONTINUOUS
 10
458.834341416
 20
570.8608049276
  0
VERTEX
  8
SHELL
 62
7
  6
CONTINUOUS
 10
459.0480023778
 20
570.8236887729
  0
SEQEND
  0
POLYLINE
  8
SHELL
 62
7
  6
CONTINUOUS
 66
1
 70
0
  0
VERTEX
  8
SHELL
 62
7
  6
CONTINUOUS
 10
459.4014981854
 20
570.9769374268
  0
VERTEX
  8
SHELL
 62
7
  6
CONTINUOUS
 10
459.155624905
 20
571.0195669646
  0
VERTEX
  8
SHELL
 62
7
  6
CONTINUOUS
 10
458.8870702682
 20
571.0635830749
  0
VERTEX
  8
SHELL
 62
7
  6
CONTINUOUS
 10
458.5977918712
 20
571.1091907954
  0
VERTEX
  8
SHELL
 62
7
  6
CONTINUOUS
 10
458.2899452244
 20
571.1557750132
  0
VERTEX
  8
SHELL
 62
7
  6
CONTINUOUS
 10
457.9659918776
 20
571.2029531034
  0
VERTEX
  8
SHELL
 62
7
  6
CONTINUOUS
 10
457.6287177135
 20
571.2502326395
  0
VERTEX
  8
SHELL
 62
7
  6
CONTINUOUS
 10
457.281155533
 20
571.2969161575
  0
SEQEND
  0
POLYLINE
  8
SHELL
 62
7
  6
CONTINUOUS
 66
1
 70
0
  0
VERTEX
  8
SHELL
 62
7
  6
CONTINUOUS
 10
459.0480023778
 20
570.8236902009
  0
VERTEX
  8
SHELL
 62
7
  6
CONTINUOUS
 10
459.8171527052
 20
570.6808782101
  0
VERTEX
  8
SHELL
 62
7
  6
CONTINUOUS
 10
460.6312795473
 20
570.5091820169
  0
VERTEX
  8
SHELL
 62
7
  6
CONTINUOUS
 10
461.4907050669
 20
570.3102115365
  0
VERTEX
  8
SHELL
 62
7
  6
CONTINUOUS
 10
462.3944627755
 20
570.0791370236
  0
VERTEX
  8
SHELL
 62
7
  6
CONTINUOUS
 10
463.3415861851
 20
569.8111287331
  0
VERTEX
  8
SHELL
 62
7
  6
CONTINUOUS
 10
464.3323974583
 20
569.5077965801
  0
SEQEND
  0
LINE
  8
SHELL
 62
7
  6
CONTINUOUS
 10
468.6223233408
 20
566.0226384949
 11
474.2373301666
 21
564.4894554845
  0
POLYLINE
  8
SHELL
 62
7
  6
CONTINUOUS
 66
1
 70
0
  0
VERTEX
  8
SHELL
 62
7
  6
CONTINUOUS
 10
464.3323974583
 20
569.5077965801
  0
VERTEX
  8
SHELL
 62
7
  6
CONTINUOUS
 10
464.6573154894
 20
568.9613588765
  0
VERTEX
  8
SHELL
 62
7
  6
CONTINUOUS
 10
464.9857160359
 20
568.4069820956
  0
VERTEX
  8
SHELL
 62
7
  6
CONTINUOUS
 10
465.3175872477
 20
567.8446637371
  0
VERTEX
  8
SHELL
 62
7
  6
CONTINUOUS
 10
465.6529646755
 20
567.2744113016
  0
VERTEX
  8
SHELL
 62
7
  6
CONTINUOUS
 10
465.9918838698
 20
566.6962322893
  0
VERTEX
  8
SHELL
 62
7
  6
CONTINUOUS
 10
466.3343329805
 20
566.1101242001
  0
SEQEND
  0
POLYLINE
  8
SHELL
 62
7
  6
CONTINUOUS
 66
1
 70
0
  0
VERTEX
  8
SHELL
 62
7
  6
CONTINUOUS
 10
466.7980967348
 20
566.0224582568
  0
VERTEX
  8
SHELL
 62
7
  6
CONTINUOUS
 10
466.4248225302
 20
566.6557005983
  0
VERTEX
  8
SHELL
 62
7
  6
CONTINUOUS
 10
466.0556036962
 20
567.2798653364
  0
VERTEX
  8
SHELL
 62
7
  6
CONTINUOUS
 10
465.6904675317
 20
567.8949858028
  0
VERTEX
  8
SHELL
 62
7
  6
CONTINUOUS
 10
465.3293321404
 20
568.5009620027
  0
VERTEX
  8
SHELL
 62
7
  6
CONTINUOUS
 10
464.9721156262
 20
569.0976939417
  0
VERTEX
  8
SHELL
 62
7
  6
CONTINUOUS
 10
464.6188452878
 20
569.6852149514
  0
SEQEND
  0
POLYLINE
  8
SHELL
 62
7
  6
CONTINUOUS
 66
1
 70
0
  0
VERTEX
  8
SHELL
 62
7
  6
CONTINUOUS
 10
464.6188452878
 20
569.6852149514
  0
VERTEX
  8
SHELL
 62
7
  6
CONTINUOUS
 10
463.6482053643
 20
569.9803464286
  0
VERTEX
  8
SHELL
 62
7
  6
CONTINUOUS
 10
462.7176872395
 20
570.2419829909
  0
VERTEX
  8
SHELL
 62
7
  6
CONTINUOUS
 10
461.826999322
 20
570.4686646555
  0
VERTEX
  8
SHELL
 62
7
  6
CONTINUOUS
 10
460.9770163856
 20
570.6647713709
  0
VERTEX
  8
SHELL
 62
7
  6
CONTINUOUS
 10
460.1686132041
 20
570.8346830858
  0
VERTEX
  8
SHELL
 62
7
  6
CONTINUOUS
 10
459.4014981862
 20
570.9769398172
  0
SEQEND
  0
LINE
  8
SHELL
 62
7
  6
CONTINUOUS
 10
466.7171659305
 20
566.0514460339
 11
466.7980967348
 21
566.0224582568
  0
LINE
  8
SHELL
 62
7
  6
CONTINUOUS
 10
466.5534880659
 20
566.1102792526
 11
466.594867283
 21
566.0954117623
  0
LINE
  8
SHELL
 62
7
  6
CONTINUOUS
 10
466.594867283
 20
566.0954117623
 11
466.7171659305
 21
566.0514460339
  0
LINE
  8
SHELL
 62
7
  6
CONTINUOUS
 10
465.7835709498
 20
569.6852008567
 11
468.6223233408
 21
566.0226384949
  0
ARC
  8
0
 62
7
  6
CONTINUOUS
 10
445.1066981383
 20
-91.7520055629
 40
654.5398945648
 50
83.1765644225
 51
97.7765545806
  0
ARC
  8
SHELL_2
 62
7
  6
CONTINUOUS
 10
-163.9833750702
 20
116.1981841861
 40
7.0
 50
90.0
 51
194.9999999997
  0
ARC
  8
SHELL_2
 62
7
  6
CONTINUOUS
 10
-64.769132692
 20
-261.8018158139
 40
5.0
 50
195.0000000001
 51
270.0
  0
ARC
  8
SHELL_1
 62
7
  6
CONTINUOUS
 10
-165.7055608203
 20
127.1981841861
 40
4.0
 50
170.0
 51
270.0
  0
ARC
  8
SHELL_1
 62
7
  6
CONTINUOUS
 10
-164.36347679
 20
134.6452327442
 40
3.9995744931
 50
91.4448891447
 51
170.1358159048
  0
ARC
  8
SHELL_4
 62
7
  6
CONTINUOUS
 10
444.9874385303
 20
-91.7520055629
 40
654.5398945648
 50
92.2920908669
 51
97.7765089324
  0
ARC
  8
SHELL_4
 62
7
  6
CONTINUOUS
 10
444.9874385303
 20
-91.7520055629
 40
654.5398945648
 50
83.1765644225
 51
87.3211786836
  0
ARC
  8
SHELL_3
 62
7
  6
CONTINUOUS
 10
367.0519942658
 20
143.1981841861
 40
7.0
 50
182.0
 51
270.0
  0
ARC
  8
SHELL_2
 62
7
  6
CONTINUOUS
 10
356.2638654748
 20
130.1981841861
 40
7.0
 50
270.0
 51
355.9039562416
  0
ARC
  8
SHELL_2
 62
7
  6
CONTINUOUS
 10
370.2281055178
 20
129.1981841861
 40
7.0
 50
90.0
 51
175.9039562413
  0
ARC
  8
SHELL_3
 62
7
  6
CONTINUOUS
 10
522.1593378817
 20
141.1981840017
 40
5.0000001369
 50
270.0000010557
 51
0.000001577
  0
ARC
  8
SHELL_2
 62
7
  6
CONTINUOUS
 10
522.1593379738
 20
131.1981841861
 40
5.0
 50
0.0000017441
 51
90.0
  0
ARC
  8
SHELL_2
 62
7
  6
CONTINUOUS
 10
522.1593379738
 20
-261.8018158139
 40
5.0
 50
270.0
 51
360.0
  0
ARC
  8
SHELL_1
 62
7
  6
CONTINUOUS
 10
217.0326853041
 20
212.9735663568
 40
89.7753821707
 50
270.0000000001
 51
301.8655417618
  0
ARC
  8
SHELL_1
 62
7
  6
CONTINUOUS
 10
233.1829941532
 20
162.5839939317
 40
16.8015962494
 50
271.0280957861
 51
319.840428194
  0
ARC
  8
SHELL_1
 62
7
  6
CONTINUOUS
 10
262.8614841368
 20
151.2699479357
 40
13.1768661819
 50
301.8655415153
 51
139.8404281981
  0
ARC
  8
SHELL_1
 62
7
  6
CONTINUOUS
 10
248.9885884602
 20
159.9136559143
 40
3.0
 50
319.8254008163
 51
91.4836341807
  0
ARC
  8
SHELL_4
 62
7
  6
CONTINUOUS
 10
349.9873672548
 20
514.6981841861
 40
5.0
 50
178.0000000001
 51
270.0
  0
ARC
  8
SHELL_3
 62
7
  6
CONTINUOUS
 10
352.4269170058
 20
504.6981841861
 40
5.0
 50
90.0
 51
181.9999999999
  0
ARC
  8
SHELL
 62
7
  6
CONTINUOUS
 10
447.1593379738
 20
494.7002284332
 40
77.2632392753
 50
98.8744772385
 51
103.9484663514
  0
ARC
  8
SHELL
 62
7
  6
CONTINUOUS
 10
447.1593379738
 20
494.7002284332
 40
77.2632392753
 50
76.0515336486
 51
81.1255228045
  0
ARC
  8
SHELL
 62
7
  6
CONTINUOUS
 10
447.1593379738
 20
494.7002284332
 40
77.2628656098
 50
82.73742688
 51
97.2624488029
  0
ARC
  8
SHELL
 62
7
  6
CONTINUOUS
 10
447.1593379738
 20
494.7002284332
 40
77.0596834461
 50
82.7181508037
 51
97.2818491963
  0
ARC
  8
SHELL_4
 62
7
  6
CONTINUOUS
 10
522.1593379738
 20
514.6981841861
 40
5.0
 50
270.0
 51
360.0
  0
ARC
  8
SHELL_4
 62
7
  6
CONTINUOUS
 10
522.159337914
 20
553.1871989787
 40
5.0
 50
359.9999960326
 51
83.1765722996
  0
ARC
  8
SHELL_3
 62
7
  6
CONTINUOUS
 10
522.1593379738
 20
504.6981841861
 40
5.0
 50
0.0
 51
90.0
  0
ARC
  8
SHELL
 62
7
  6
CONTINUOUS
 10
420.3447538143
 20
563.5247709724
 40
1.0
 50
105.2723793093
 51
159.9999999999
  0
ARC
  8
SHELL
 62
7
  6
CONTINUOUS
 10
473.9739221334
 20
563.5247709724
 40
1.0
 50
20.0000000001
 51
74.7276206907
  0
ENDSEC
  0
EOF
