999
DXF file: K:\Client\125_Heirloom\001\00\Final_Data\Drawings\TOILETS\loftwf-373110d_3.dxf
999
Pro/ENGINEER 2017110 by Parametric Technology Corporation
  0
SECTION
  2
HEADER
  9
$EXTMAX
 10
420.0
 20
297.0
 30
0.0
  9
$EXTMIN
 10
0.0
 20
0.0
 30
0.0
  9
$LIMMIN
 10
0.0
 20
0.0
  9
$LIMMAX
 10
420.0
 20
297.0
  9
$VIEWCTR
 10
210.0
 20
148.5
  9
$VIEWSIZE
 40
297.0
  9
$CLAYER
  8
0
  9
$LTSCALE
 40
23.1
  9
$CELTYPE
  6
BYLAYER
  9
$DIMSCALE
 40
1.0
  9
$DIMASZ
 40
3.0
  9
$DIMEXO
 40
1.0
  9
$DIMDLI
 40
15.96
  9
$DIMEXE
 40
1.0
  9
$DIMCEN
 40
3.78
  9
$DIMLFAC
 40
1.0
  9
$DIMBLK
  1
_FILLED
  9
$DIMALT
 70
0
  9
$DIMALTF
 40
0.0393700787
  9
$DIMTXT
 40
3.0
  9
$AUNITS
 70
0
  9
$PDMODE
 70
3
  9
$PDSIZE
 40
5.0
  9
$TILEMODE
 70
1
  0
ENDSEC
  0
SECTION
  2
TABLES
  0
TABLE
  2
LTYPE
 70
6
  0
LTYPE
  2
BYBLOCK
 70
0
  3

 72
65
 73
0
 40
0.0
  0
LTYPE
  2
BYLAYER
 70
0
  3

 72
65
 73
0
 40
0.0
  0
LTYPE
  2
CONTINUOUS
 70
64
  3
Solid line
 72
65
 73
0
 40
0.0
  0
LTYPE
  2
CENTER
 70
64
  3
____ _ ____ _ ____ _ ____ _ ____ _ ____ _ ____
 72
65
 73
4
 40
0.6
 49
0.375
 49
-0.075
 49
0.075
 49
-0.075
  0
LTYPE
  2
HIDDEN
 70
64
  3
- - - - - - - - - - - - - - - - - - - -
 72
65
 73
2
 40
0.2
 49
0.1
 49
-0.1
  0
LTYPE
  2
PHANTOM
 70
64
  3
_____ _ _ _____ _ _ _____ _ _ _____
 72
65
 73
6
 40
0.8
 49
0.45
 49
-0.05
 49
0.1
 49
-0.05
 49
0.1
 49
-0.05
  0
LTYPE
  2
DOT
 70
64
  3
. . . . . . . . . . . . . . . . . . . .
 72
65
 73
2
 40
0.2
 49
0.1
 49
-0.1
  0
LTYPE
  2
DASHED
 70
64
  3
- - - - - - - - - - - - - - - - - - - -
 72
65
 73
2
 40
0.2
 49
0.1
 49
-0.1
  0
ENDTAB
  0
TABLE
  2
LAYER
 70
36
  0
LAYER
  2
0
 70
0
 62
7
  6
CONTINUOUS
  0
LAYER
  2
DEFAULT_1
 70
0
 62
7
  6
CENTER
  0
LAYER
  2
DEFAULT_2
 70
0
 62
8
  6
HIDDEN
  0
LAYER
  2
DEFAULT_3
 70
0
 62
7
  6
PHANTOM
  0
LAYER
  2
0000_BOM
 70
0
 62
7
  6
CONTINUOUS
  0
LAYER
  2
0000_REV_TABLE
 70
0
 62
7
  6
CONTINUOUS
  0
LAYER
  2
0000_STEVENS_NOTE
 70
0
 62
7
  6
CONTINUOUS
  0
LAYER
  2
01_DATUM_PLANES
 70
0
 62
7
  6
CONTINUOUS
  0
LAYER
  2
01_DEF_PLANES
 70
0
 62
7
  6
CONTINUOUS
  0
LAYER
  2
02_DATUM_COS
 70
0
 62
7
  6
CONTINUOUS
  0
LAYER
  2
90_IMP_FEAT
 70
0
 62
7
  6
CONTINUOUS
  0
LAYER
  2
95_STL
 70
0
 62
7
  6
CONTINUOUS
  0
LAYER
  2
99_SOLID
 70
0
 62
7
  6
CONTINUOUS
  0
LAYER
  2
CAD-MASTER_ZINC-PL
 70
0
 62
7
  6
CONTINUOUS
  0
LAYER
  2
CURVE
 70
0
 62
7
  6
CONTINUOUS
  0
LAYER
  2
SHELL
 70
0
 62
7
  6
CONTINUOUS
  0
LAYER
  2
SHELL_1
 70
0
 62
7
  6
CONTINUOUS
  0
LAYER
  2
SHELL_2
 70
0
 62
7
  6
CONTINUOUS
  0
LAYER
  2
SHELL_3
 70
0
 62
7
  6
CONTINUOUS
  0
LAYER
  2
SHELL_4
 70
0
 62
7
  6
CONTINUOUS
  0
LAYER
  2
SKEL
 70
0
 62
7
  6
CONTINUOUS
  0
LAYER
  2
SKETCH
 70
0
 62
7
  6
CONTINUOUS
  0
LAYER
  2
SURFACE
 70
0
 62
7
  6
CONTINUOUS
  0
ENDTAB
  0
TABLE
  2
STYLE
 70
1
  0
STYLE
  2
STANDARD
 70
0
 40
0.0
 41
0.75
 50
0.0
 71
0
 42
0.2
  3
txt
  4

  0
STYLE
  2
TEXTSTYLE_1
 70
0
 40
0.0
 41
0.8
 50
0.0
 71
0
 42
0.2
  3
gdt
  4

  0
ENDTAB
  0
ENDSEC
  0
SECTION
  2
BLOCKS
  0
BLOCK
  8
0
 62
1
  6
CONTINUOUS
  2
PLUMBING_BL1
 70
64
 10
186.0327043836
 20
290.7838364617
  0
CIRCLE
  8
0
 62
1
  6
CONTINUOUS
 10
186.0327043836
 20
290.7838364617
 40
12.5
  0
LINE
  8
0
 62
1
  6
CONTINUOUS
 10
198.5327043836
 20
303.2838364617
 11
173.5327043836
 21
278.2838364617
  0
LINE
  8
0
 62
1
  6
CONTINUOUS
 10
186.0327043836
 20
290.7838364617
 11
173.5327043836
 21
303.2838364617
  0
LINE
  8
0
 62
1
  6
CONTINUOUS
 10
186.0327043836
 20
290.7838364617
 11
198.5327043836
 21
278.2838364617
  0
ENDBLK
  8
0
  6
BYBLOCK
 62
0
  0
BLOCK
  8
0
 62
5
  6
CONTINUOUS
  2
PLUMBING_BL0
 70
64
 10
186.0327043836
 20
500.6644917135
  0
CIRCLE
  8
0
 62
5
  6
CONTINUOUS
 10
186.0327043836
 20
500.6644917135
 40
12.5
  0
LINE
  8
0
 62
5
  6
CONTINUOUS
 10
198.5327043836
 20
513.1644917135
 11
173.5327043836
 21
488.1644917135
  0
LINE
  8
0
 62
5
  6
CONTINUOUS
 10
186.0327043836
 20
500.6644917135
 11
173.5327043836
 21
513.1644917135
  0
LINE
  8
0
 62
5
  6
CONTINUOUS
 10
186.0327043836
 20
500.6644917135
 11
198.5327043836
 21
488.1644917135
  0
ENDBLK
  8
0
  6
BYBLOCK
 62
0
  0
ENDSEC
  0
SECTION
  2
ENTITIES
  0
INSERT
  8
0
 62
5
  6
CONTINUOUS
  2
PLUMBING_BL0
 10
186.0327043836
 20
500.6644917135
  0
INSERT
  8
0
 62
1
  6
CONTINUOUS
  2
PLUMBING_BL1
 10
186.0327043836
 20
290.7838364617
  0
POLYLINE
  8
SHELL_1
 62
7
  6
CONTINUOUS
 66
1
 70
0
  0
VERTEX
  8
SHELL_1
 62
7
  6
CONTINUOUS
 10
186.0327047715
 20
-194.4266595085
  0
VERTEX
  8
SHELL_1
 62
7
  6
CONTINUOUS
 10
197.4348314363
 20
-194.0926691857
  0
VERTEX
  8
SHELL_1
 62
7
  6
CONTINUOUS
 10
210.063013124
 20
-192.9455036037
  0
VERTEX
  8
SHELL_1
 62
7
  6
CONTINUOUS
 10
223.377656688
 20
-190.8803475951
  0
VERTEX
  8
SHELL_1
 62
7
  6
CONTINUOUS
 10
235.9186358185
 20
-188.0538235984
  0
VERTEX
  8
SHELL_1
 62
7
  6
CONTINUOUS
 10
246.0403786489
 20
-185.1361076978
  0
VERTEX
  8
SHELL_1
 62
7
  6
CONTINUOUS
 10
255.0084729342
 20
-182.0564466148
  0
VERTEX
  8
SHELL_1
 62
7
  6
CONTINUOUS
 10
263.0810691767
 20
-178.8360210675
  0
VERTEX
  8
SHELL_1
 62
7
  6
CONTINUOUS
 10
271.5584496968
 20
-175.0393507685
  0
VERTEX
  8
SHELL_1
 62
7
  6
CONTINUOUS
 10
281.8035552829
 20
-169.7861044857
  0
VERTEX
  8
SHELL_1
 62
7
  6
CONTINUOUS
 10
292.42550669
 20
-163.4913131561
  0
SEQEND
  0
POLYLINE
  8
SHELL_1
 62
7
  6
CONTINUOUS
 66
1
 70
0
  0
VERTEX
  8
SHELL_1
 62
7
  6
CONTINUOUS
 10
79.6386524221
 20
-163.4947204667
  0
VERTEX
  8
SHELL_1
 62
7
  6
CONTINUOUS
 10
89.0540348259
 20
-169.1160351558
  0
VERTEX
  8
SHELL_1
 62
7
  6
CONTINUOUS
 10
99.1897259161
 20
-174.4157080874
  0
VERTEX
  8
SHELL_1
 62
7
  6
CONTINUOUS
 10
109.153548815
 20
-178.9298057645
  0
VERTEX
  8
SHELL_1
 62
7
  6
CONTINUOUS
 10
119.351687073
 20
-182.8880220934
  0
VERTEX
  8
SHELL_1
 62
7
  6
CONTINUOUS
 10
130.3537728569
 20
-186.4552348025
  0
VERTEX
  8
SHELL_1
 62
7
  6
CONTINUOUS
 10
141.6144030523
 20
-189.3914226691
  0
VERTEX
  8
SHELL_1
 62
7
  6
CONTINUOUS
 10
152.607453333
 20
-191.5911612294
  0
VERTEX
  8
SHELL_1
 62
7
  6
CONTINUOUS
 10
163.7170487102
 20
-193.1679620484
  0
VERTEX
  8
SHELL_1
 62
7
  6
CONTINUOUS
 10
175.2234964782
 20
-194.1320591151
  0
VERTEX
  8
SHELL_1
 62
7
  6
CONTINUOUS
 10
186.0327046315
 20
-194.4266595791
  0
SEQEND
  0
LINE
  8
SHELL_2
 62
7
  6
CONTINUOUS
 10
74.0244878219
 20
-163.7136602056
 11
83.0029773552
 21
-169.4421248571
  0
POLYLINE
  8
SHELL_2
 62
7
  6
CONTINUOUS
 66
1
 70
0
  0
VERTEX
  8
SHELL_2
 62
7
  6
CONTINUOUS
 10
16.6656082167
 20
-76.9930668632
  0
VERTEX
  8
SHELL_2
 62
7
  6
CONTINUOUS
 10
20.9639515869
 20
-91.2217353172
  0
VERTEX
  8
SHELL_2
 62
7
  6
CONTINUOUS
 10
25.7425469279
 20
-103.6552536338
  0
VERTEX
  8
SHELL_2
 62
7
  6
CONTINUOUS
 10
31.0017416781
 20
-114.73831812
  0
VERTEX
  8
SHELL_2
 62
7
  6
CONTINUOUS
 10
36.7298104684
 20
-124.71883961
  0
VERTEX
  8
SHELL_2
 62
7
  6
CONTINUOUS
 10
42.9412581472
 20
-133.7894703443
  0
VERTEX
  8
SHELL_2
 62
7
  6
CONTINUOUS
 10
49.6790335615
 20
-142.1039290125
  0
VERTEX
  8
SHELL_2
 62
7
  6
CONTINUOUS
 10
56.9602137419
 20
-149.7399987392
  0
VERTEX
  8
SHELL_2
 62
7
  6
CONTINUOUS
 10
64.9832410323
 20
-156.8947776818
  0
VERTEX
  8
SHELL_2
 62
7
  6
CONTINUOUS
 10
74.0244878219
 20
-163.7136602056
  0
SEQEND
  0
POLYLINE
  8
SHELL_1
 62
7
  6
CONTINUOUS
 66
1
 70
0
  0
VERTEX
  8
SHELL_1
 62
7
  6
CONTINUOUS
 10
21.3430844537
 20
-83.2361252228
  0
VERTEX
  8
SHELL_1
 62
7
  6
CONTINUOUS
 10
23.4858926716
 20
-90.6847004091
  0
VERTEX
  8
SHELL_1
 62
7
  6
CONTINUOUS
 10
26.3740823826
 20
-98.8278658479
  0
VERTEX
  8
SHELL_1
 62
7
  6
CONTINUOUS
 10
29.7789542709
 20
-106.7657564676
  0
VERTEX
  8
SHELL_1
 62
7
  6
CONTINUOUS
 10
33.6553557033
 20
-114.4198209034
  0
VERTEX
  8
SHELL_1
 62
7
  6
CONTINUOUS
 10
38.0045426587
 20
-121.7966806935
  0
VERTEX
  8
SHELL_1
 62
7
  6
CONTINUOUS
 10
42.8431882043
 20
-128.9238666684
  0
VERTEX
  8
SHELL_1
 62
7
  6
CONTINUOUS
 10
48.1215523918
 20
-135.7246156829
  0
VERTEX
  8
SHELL_1
 62
7
  6
CONTINUOUS
 10
53.8308044402
 20
-142.1788314798
  0
VERTEX
  8
SHELL_1
 62
7
  6
CONTINUOUS
 10
59.9328743787
 20
-148.2477747164
  0
VERTEX
  8
SHELL_1
 62
7
  6
CONTINUOUS
 10
66.4128043977
 20
-153.9220906065
  0
VERTEX
  8
SHELL_1
 62
7
  6
CONTINUOUS
 10
73.2678170361
 20
-159.188392377
  0
VERTEX
  8
SHELL_1
 62
7
  6
CONTINUOUS
 10
79.6385867459
 20
-163.4948048611
  0
SEQEND
  0
LINE
  8
SHELL_4
 62
7
  6
CONTINUOUS
 10
-15.5564650567
 20
376.8716038174
 11
-12.7254692783
 21
495.7834955312
  0
POLYLINE
  8
SHELL_1
 62
7
  6
CONTINUOUS
 66
1
 70
0
  0
VERTEX
  8
SHELL_1
 62
7
  6
CONTINUOUS
 10
6.2609645584
 20
236.2056313859
  0
VERTEX
  8
SHELL_1
 62
7
  6
CONTINUOUS
 10
5.840573781
 20
231.4847069955
  0
VERTEX
  8
SHELL_1
 62
7
  6
CONTINUOUS
 10
5.4259190049
 20
225.8600647766
  0
VERTEX
  8
SHELL_1
 62
7
  6
CONTINUOUS
 10
5.0876118431
 20
220.069574325
  0
VERTEX
  8
SHELL_1
 62
7
  6
CONTINUOUS
 10
4.826514431
 20
214.1391694208
  0
VERTEX
  8
SHELL_1
 62
7
  6
CONTINUOUS
 10
4.6433831962
 20
208.0960948979
  0
VERTEX
  8
SHELL_1
 62
7
  6
CONTINUOUS
 10
4.538783816
 20
201.9693008873
  0
SEQEND
  0
LINE
  8
SHELL_1
 62
7
  6
CONTINUOUS
 10
6.2609586214
 20
236.2055698537
 11
6.7815605812
 21
241.5958934294
  0
LINE
  8
SHELL_1
 62
7
  6
CONTINUOUS
 10
6.8457274496
 20
242.204441769
 11
6.7812022153
 21
241.5921070003
  0
POLYLINE
  8
SHELL_1
 62
7
  6
CONTINUOUS
 66
1
 70
0
  0
VERTEX
  8
SHELL_1
 62
7
  6
CONTINUOUS
 10
8.1814498987
 20
223.5064417039
  0
VERTEX
  8
SHELL_1
 62
7
  6
CONTINUOUS
 10
7.8223195995
 20
222.7279210084
  0
VERTEX
  8
SHELL_1
 62
7
  6
CONTINUOUS
 10
7.565407922
 20
221.8115349234
  0
VERTEX
  8
SHELL_1
 62
7
  6
CONTINUOUS
 10
7.4319280317
 20
220.7504254407
  0
SEQEND
  0
LINE
  8
SHELL
 62
7
  6
CONTINUOUS
 10
194.69466533
 20
440.3032504744
 11
187.2980667814
 21
432.9066519258
  0
LINE
  8
SHELL
 62
7
  6
CONTINUOUS
 10
187.6516777542
 20
432.5531561175
 11
194.9380083569
 21
439.8394867201
  0
POLYLINE
  8
SHELL_2
 62
7
  6
CONTINUOUS
 66
1
 70
0
  0
VERTEX
  8
SHELL_2
 62
7
  6
CONTINUOUS
 10
6.6185469374
 20
10.4638797564
  0
VERTEX
  8
SHELL_2
 62
7
  6
CONTINUOUS
 10
7.5433355001
 20
-15.545209034
  0
VERTEX
  8
SHELL_2
 62
7
  6
CONTINUOUS
 10
9.8336083122
 20
-40.7192219499
  0
VERTEX
  8
SHELL_2
 62
7
  6
CONTINUOUS
 10
13.0497586012
 20
-61.1160119312
  0
VERTEX
  8
SHELL_2
 62
7
  6
CONTINUOUS
 10
16.6656082167
 20
-76.9930668632
  0
SEQEND
  0
POLYLINE
  8
SHELL_1
 62
7
  6
CONTINUOUS
 66
1
 70
0
  0
VERTEX
  8
SHELL_1
 62
7
  6
CONTINUOUS
 10
9.5299613344
 20
6.6305346155
  0
VERTEX
  8
SHELL_1
 62
7
  6
CONTINUOUS
 10
9.9842409731
 20
-8.5049594431
  0
VERTEX
  8
SHELL_1
 62
7
  6
CONTINUOUS
 10
11.0474624552
 20
-23.6099117283
  0
VERTEX
  8
SHELL_1
 62
7
  6
CONTINUOUS
 10
12.7179019649
 20
-38.6598400601
  0
VERTEX
  8
SHELL_1
 62
7
  6
CONTINUOUS
 10
14.9928530766
 20
-53.6303679986
  0
VERTEX
  8
SHELL_1
 62
7
  6
CONTINUOUS
 10
17.8686310347
 20
-68.4972476339
  0
VERTEX
  8
SHELL_1
 62
7
  6
CONTINUOUS
 10
21.340576292
 20
-83.2363824729
  0
SEQEND
  0
LINE
  8
SHELL_1
 62
7
  6
CONTINUOUS
 10
4.5534374726
 20
190.4852961549
 11
6.9478706546
 21
6.7966164095
  0
LINE
  8
SHELL_2
 62
7
  6
CONTINUOUS
 10
2.4961269348
 20
335.6053951111
 11
6.6182878911
 21
10.463879654
  0
LINE
  8
SHELL_1
 62
7
  6
CONTINUOUS
 10
7.4210438386
 20
220.2535714429
 11
9.5299577516
 21
6.6305346202
  0
LINE
  8
SHELL_1
 62
7
  6
CONTINUOUS
 10
4.5130099792
 20
195.7865550369
 11
4.5534379897
 21
190.4852961699
  0
LINE
  8
SHELL_1
 62
7
  6
CONTINUOUS
 10
4.538783816
 20
201.9693008873
 11
4.5130099792
 21
195.7865550369
  0
LINE
  8
SHELL_1
 62
7
  6
CONTINUOUS
 10
7.4319280317
 20
220.7504254407
 11
7.4208319973
 21
220.2823188995
  0
LINE
  8
SHELL_1
 62
7
  6
CONTINUOUS
 10
109.5327043836
 20
230.6143816311
 11
109.5327043836
 21
222.4161019711
  0
LINE
  8
SHELL
 62
7
  6
CONTINUOUS
 10
186.2729980978
 20
430.4318046856
 11
186.2729980978
 21
410.897345217
  0
LINE
  8
SHELL
 62
7
  6
CONTINUOUS
 10
186.7729980978
 20
410.897147653
 11
186.7729980978
 21
430.4318357739
  0
LINE
  8
SHELL_1
 62
7
  6
CONTINUOUS
 10
262.5327043836
 20
222.4160679768
 11
262.5327043836
 21
230.6143816311
  0
LINE
  8
SHELL_1
 62
7
  6
CONTINUOUS
 10
360.6625546914
 20
225.4937421999
 11
262.5327043836
 21
225.4937421999
  0
LINE
  8
SHELL_1
 62
7
  6
CONTINUOUS
 10
11.4029726911
 20
225.4937421999
 11
109.5327043836
 21
225.4937421999
  0
LINE
  8
SHELL_1
 62
7
  6
CONTINUOUS
 10
262.5327043836
 20
230.6143816313
 11
109.5327043836
 21
230.6143816313
  0
POLYLINE
  8
SHELL_1
 62
7
  6
CONTINUOUS
 66
1
 70
0
  0
VERTEX
  8
SHELL_1
 62
7
  6
CONTINUOUS
 10
11.4029725537
 20
225.4937322019
  0
VERTEX
  8
SHELL_1
 62
7
  6
CONTINUOUS
 10
10.8600768573
 20
225.4503939854
  0
VERTEX
  8
SHELL_1
 62
7
  6
CONTINUOUS
 10
10.2328287388
 20
225.2894135872
  0
VERTEX
  8
SHELL_1
 62
7
  6
CONTINUOUS
 10
9.6448106452
 20
225.017029981
  0
VERTEX
  8
SHELL_1
 62
7
  6
CONTINUOUS
 10
9.0968824796
 20
224.6279283787
  0
VERTEX
  8
SHELL_1
 62
7
  6
CONTINUOUS
 10
8.6072581754
 20
224.1277683581
  0
VERTEX
  8
SHELL_1
 62
7
  6
CONTINUOUS
 10
8.1814498987
 20
223.5064417039
  0
SEQEND
  0
LINE
  8
SHELL_1
 62
7
  6
CONTINUOUS
 10
12.0809469986
 20
249.5435040584
 11
359.9844624449
 21
249.5435040584
  0
POLYLINE
  8
SHELL_1
 62
7
  6
CONTINUOUS
 66
1
 70
0
  0
VERTEX
  8
SHELL_1
 62
7
  6
CONTINUOUS
 10
12.081746549
 20
249.5435003585
  0
VERTEX
  8
SHELL_1
 62
7
  6
CONTINUOUS
 10
11.3814784472
 20
249.4860482564
  0
VERTEX
  8
SHELL_1
 62
7
  6
CONTINUOUS
 10
10.6841942801
 20
249.3098712761
  0
VERTEX
  8
SHELL_1
 62
7
  6
CONTINUOUS
 10
10.0321216194
 20
249.0243071103
  0
VERTEX
  8
SHELL_1
 62
7
  6
CONTINUOUS
 10
9.4216627533
 20
248.6276434534
  0
VERTEX
  8
SHELL_1
 62
7
  6
CONTINUOUS
 10
8.8878237667
 20
248.1446232273
  0
VERTEX
  8
SHELL_1
 62
7
  6
CONTINUOUS
 10
8.4439464293
 20
247.6042914366
  0
VERTEX
  8
SHELL_1
 62
7
  6
CONTINUOUS
 10
8.072436819
 20
247.0049729589
  0
VERTEX
  8
SHELL_1
 62
7
  6
CONTINUOUS
 10
7.7527287292
 20
246.3206380753
  0
VERTEX
  8
SHELL_1
 62
7
  6
CONTINUOUS
 10
7.4758035247
 20
245.5282450256
  0
VERTEX
  8
SHELL_1
 62
7
  6
CONTINUOUS
 10
7.2245146333
 20
244.5548736643
  0
VERTEX
  8
SHELL_1
 62
7
  6
CONTINUOUS
 10
7.0112435787
 20
243.4214831706
  0
VERTEX
  8
SHELL_1
 62
7
  6
CONTINUOUS
 10
6.8457274496
 20
242.204441769
  0
SEQEND
  0
LINE
  8
SHELL_1
 62
7
  6
CONTINUOUS
 10
365.2843436248
 20
241.5906252776
 11
365.205884721
 21
242.3227275533
  0
LINE
  8
SHELL_1
 62
7
  6
CONTINUOUS
 10
365.8045127494
 20
236.2049196505
 11
365.2838481859
 21
241.5958934294
  0
POLYLINE
  8
SHELL_1
 62
7
  6
CONTINUOUS
 66
1
 70
0
  0
VERTEX
  8
SHELL_1
 62
7
  6
CONTINUOUS
 10
365.8041964119
 20
236.2049232835
  0
VERTEX
  8
SHELL_1
 62
7
  6
CONTINUOUS
 10
366.2670298773
 20
230.9659273724
  0
VERTEX
  8
SHELL_1
 62
7
  6
CONTINUOUS
 10
366.6608560662
 20
225.5373426946
  0
VERTEX
  8
SHELL_1
 62
7
  6
CONTINUOUS
 10
366.9841069898
 20
219.9472781012
  0
VERTEX
  8
SHELL_1
 62
7
  6
CONTINUOUS
 10
367.2357400878
 20
214.2206664999
  0
VERTEX
  8
SHELL_1
 62
7
  6
CONTINUOUS
 10
367.4148842568
 20
208.383467665
  0
VERTEX
  8
SHELL_1
 62
7
  6
CONTINUOUS
 10
367.5208811431
 20
202.4632319317
  0
SEQEND
  0
LINE
  8
SHELL_1
 62
7
  6
CONTINUOUS
 10
364.6440707336
 20
220.2985547193
 11
364.6309936776
 21
220.7837880469
  0
LINE
  8
SHELL_1
 62
7
  6
CONTINUOUS
 10
367.5208811431
 20
202.4632319317
 11
367.5533650373
 21
196.4870214367
  0
LINE
  8
SHELL_1
 62
7
  6
CONTINUOUS
 10
367.5533650373
 20
196.4870214367
 11
367.5122548375
 21
190.4842616791
  0
LINE
  8
SHELL_1
 62
7
  6
CONTINUOUS
 10
362.5354510156
 20
6.6305346202
 11
364.6443649285
 21
220.2535714428
  0
LINE
  8
SHELL_2
 62
7
  6
CONTINUOUS
 10
369.5692818324
 20
335.6053951111
 11
365.4471207346
 21
10.4638685019
  0
LINE
  8
SHELL_1
 62
7
  6
CONTINUOUS
 10
367.5114788199
 20
190.4475160158
 11
365.1175381125
 21
6.7966164095
  0
LINE
  8
SHELL_2
 62
7
  6
CONTINUOUS
 10
364.5562097745
 20
-14.9785779968
 11
365.4471211112
 21
10.4638674619
  0
LINE
  8
SHELL
 62
7
  6
CONTINUOUS
 10
187.2985402739
 20
408.4218580086
 11
194.69466533
 21
401.0257329525
  0
LINE
  8
SHELL
 62
7
  6
CONTINUOUS
 10
194.9380083569
 20
401.4894967068
 11
187.6516777542
 21
408.7758273095
  0
POLYLINE
  8
SHELL_1
 62
7
  6
CONTINUOUS
 66
1
 70
0
  0
VERTEX
  8
SHELL_1
 62
7
  6
CONTINUOUS
 10
363.8650049639
 20
223.5394318721
  0
VERTEX
  8
SHELL_1
 62
7
  6
CONTINUOUS
 10
363.4352883393
 20
224.155372429
  0
VERTEX
  8
SHELL_1
 62
7
  6
CONTINUOUS
 10
362.9465380483
 20
224.6465482907
  0
VERTEX
  8
SHELL_1
 62
7
  6
CONTINUOUS
 10
362.3994746445
 20
225.0293680571
  0
VERTEX
  8
SHELL_1
 62
7
  6
CONTINUOUS
 10
361.8149657239
 20
225.2954020557
  0
VERTEX
  8
SHELL_1
 62
7
  6
CONTINUOUS
 10
361.187534181
 20
225.453106987
  0
VERTEX
  8
SHELL_1
 62
7
  6
CONTINUOUS
 10
360.6625548045
 20
225.4937297593
  0
SEQEND
  0
POLYLINE
  8
SHELL_1
 62
7
  6
CONTINUOUS
 66
1
 70
0
  0
VERTEX
  8
SHELL_1
 62
7
  6
CONTINUOUS
 10
365.205884721
 20
242.3227275533
  0
VERTEX
  8
SHELL_1
 62
7
  6
CONTINUOUS
 10
365.0254491065
 20
243.5968782431
  0
VERTEX
  8
SHELL_1
 62
7
  6
CONTINUOUS
 10
364.7904613701
 20
244.775777994
  0
VERTEX
  8
SHELL_1
 62
7
  6
CONTINUOUS
 10
364.5123652202
 20
245.7733886978
  0
VERTEX
  8
SHELL_1
 62
7
  6
CONTINUOUS
 10
364.2085293715
 20
246.5656559242
  0
VERTEX
  8
SHELL_1
 62
7
  6
CONTINUOUS
 10
363.8550930406
 20
247.2472715261
  0
VERTEX
  8
SHELL_1
 62
7
  6
CONTINUOUS
 10
363.436721196
 20
247.8481059299
  0
VERTEX
  8
SHELL_1
 62
7
  6
CONTINUOUS
 10
362.9343591138
 20
248.3834309415
  0
VERTEX
  8
SHELL_1
 62
7
  6
CONTINUOUS
 10
362.3323642665
 20
248.8476639091
  0
VERTEX
  8
SHELL_1
 62
7
  6
CONTINUOUS
 10
361.6515256664
 20
249.2068175749
  0
VERTEX
  8
SHELL_1
 62
7
  6
CONTINUOUS
 10
360.9374561556
 20
249.4362622416
  0
VERTEX
  8
SHELL_1
 62
7
  6
CONTINUOUS
 10
360.1871327534
 20
249.5387062484
  0
VERTEX
  8
SHELL_1
 62
7
  6
CONTINUOUS
 10
359.9840934736
 20
249.5435017471
  0
SEQEND
  0
POLYLINE
  8
SHELL_1
 62
7
  6
CONTINUOUS
 66
1
 70
0
  0
VERTEX
  8
SHELL_1
 62
7
  6
CONTINUOUS
 10
364.6309936776
 20
220.7837880469
  0
VERTEX
  8
SHELL_1
 62
7
  6
CONTINUOUS
 10
364.4889163599
 20
221.8652304764
  0
VERTEX
  8
SHELL_1
 62
7
  6
CONTINUOUS
 10
364.2241818868
 20
222.7784748924
  0
VERTEX
  8
SHELL_1
 62
7
  6
CONTINUOUS
 10
363.8650049639
 20
223.5394318721
  0
SEQEND
  0
LINE
  8
SHELL_4
 62
7
  6
CONTINUOUS
 10
387.6218738239
 20
376.8716038174
 11
384.7908780454
 21
495.7834955312
  0
POLYLINE
  8
SHELL_1
 62
7
  6
CONTINUOUS
 66
1
 70
0
  0
VERTEX
  8
SHELL_1
 62
7
  6
CONTINUOUS
 10
350.7248317239
 20
-83.2363854548
  0
VERTEX
  8
SHELL_1
 62
7
  6
CONTINUOUS
 10
354.1967826911
 20
-68.4972244921
  0
VERTEX
  8
SHELL_1
 62
7
  6
CONTINUOUS
 10
357.0725576359
 20
-53.6303566775
  0
VERTEX
  8
SHELL_1
 62
7
  6
CONTINUOUS
 10
359.3474981612
 20
-38.6599057669
  0
VERTEX
  8
SHELL_1
 62
7
  6
CONTINUOUS
 10
361.0179346053
 20
-23.6100408412
  0
VERTEX
  8
SHELL_1
 62
7
  6
CONTINUOUS
 10
362.0811628485
 20
-8.5050579724
  0
VERTEX
  8
SHELL_1
 62
7
  6
CONTINUOUS
 10
362.5354474327
 20
6.630534654
  0
SEQEND
  0
POLYLINE
  8
SHELL_2
 62
7
  6
CONTINUOUS
 66
1
 70
0
  0
VERTEX
  8
SHELL_2
 62
7
  6
CONTINUOUS
 10
351.0823993356
 20
-91.2773011837
  0
VERTEX
  8
SHELL_2
 62
7
  6
CONTINUOUS
 10
355.4148554758
 20
-76.9354662333
  0
VERTEX
  8
SHELL_2
 62
7
  6
CONTINUOUS
 10
359.0315875479
 20
-61.0337685288
  0
VERTEX
  8
SHELL_2
 62
7
  6
CONTINUOUS
 10
362.2877948276
 20
-40.2670444611
  0
VERTEX
  8
SHELL_2
 62
7
  6
CONTINUOUS
 10
364.5562097745
 20
-14.9785779968
  0
SEQEND
  0
POLYLINE
  8
SHELL_1
 62
7
  6
CONTINUOUS
 66
1
 70
0
  0
VERTEX
  8
SHELL_1
 62
7
  6
CONTINUOUS
 10
292.4261498986
 20
-163.4923085595
  0
VERTEX
  8
SHELL_1
 62
7
  6
CONTINUOUS
 10
298.7845706894
 20
-159.1851638167
  0
VERTEX
  8
SHELL_1
 62
7
  6
CONTINUOUS
 10
305.6241822991
 20
-153.9196428833
  0
VERTEX
  8
SHELL_1
 62
7
  6
CONTINUOUS
 10
312.0902147236
 20
-148.2521254268
  0
VERTEX
  8
SHELL_1
 62
7
  6
CONTINUOUS
 10
318.1829891625
 20
-142.1951015473
  0
VERTEX
  8
SHELL_1
 62
7
  6
CONTINUOUS
 10
323.8898422208
 20
-135.7571557082
  0
VERTEX
  8
SHELL_1
 62
7
  6
CONTINUOUS
 10
329.1728031621
 20
-128.9738180012
  0
VERTEX
  8
SHELL_1
 62
7
  6
CONTINUOUS
 10
334.0184780921
 20
-121.859574131
  0
VERTEX
  8
SHELL_1
 62
7
  6
CONTINUOUS
 10
338.3720780315
 20
-114.4865560395
  0
VERTEX
  8
SHELL_1
 62
7
  6
CONTINUOUS
 10
342.2488594423
 20
-106.828417901
  0
VERTEX
  8
SHELL_1
 62
7
  6
CONTINUOUS
 10
345.6530786954
 20
-98.8763780865
  0
VERTEX
  8
SHELL_1
 62
7
  6
CONTINUOUS
 10
348.5437562266
 20
-90.7047155917
  0
VERTEX
  8
SHELL_1
 62
7
  6
CONTINUOUS
 10
350.6914955266
 20
-83.228292667
  0
SEQEND
  0
POLYLINE
  8
SHELL_2
 62
7
  6
CONTINUOUS
 66
1
 70
0
  0
VERTEX
  8
SHELL_2
 62
7
  6
CONTINUOUS
 10
289.0637408089
 20
-169.4413322596
  0
VERTEX
  8
SHELL_2
 62
7
  6
CONTINUOUS
 10
297.7300426605
 20
-163.9282027476
  0
VERTEX
  8
SHELL_2
 62
7
  6
CONTINUOUS
 10
306.6449760675
 20
-157.2524811138
  0
VERTEX
  8
SHELL_2
 62
7
  6
CONTINUOUS
 10
314.7224620424
 20
-150.1088750146
  0
VERTEX
  8
SHELL_2
 62
7
  6
CONTINUOUS
 10
322.1080790101
 20
-142.4192939282
  0
VERTEX
  8
SHELL_2
 62
7
  6
CONTINUOUS
 10
328.9119292017
 20
-134.0714711764
  0
VERTEX
  8
SHELL_2
 62
7
  6
CONTINUOUS
 10
335.1812481603
 20
-124.9637387317
  0
VERTEX
  8
SHELL_2
 62
7
  6
CONTINUOUS
 10
340.9558562373
 20
-114.9441933966
  0
VERTEX
  8
SHELL_2
 62
7
  6
CONTINUOUS
 10
346.256948048
 20
-103.8070317426
  0
VERTEX
  8
SHELL_2
 62
7
  6
CONTINUOUS
 10
351.0823993356
 20
-91.2773011837
  0
SEQEND
  0
LINE
  8
SHELL_4
 62
7
  6
CONTINUOUS
 10
379.7922944369
 20
500.6644917135
 11
-7.7268856697
 21
500.6644917135
  0
ARC
  8
SHELL_4
 62
7
  6
CONTINUOUS
 10
186.0327043836
 20
3319.0132848155
 40
3000.520763821
 50
267.1171120563
 51
272.8828879437
  0
ARC
  8
SHELL_1
 62
7
  6
CONTINUOUS
 10
385.6819504952
 20
11.7335207914
 40
378.7662554367
 50
180.7468241713
 51
194.5821851458
  0
ARC
  8
SHELL_1
 62
7
  6
CONTINUOUS
 10
-13.616541728
 20
11.7335207914
 40
378.7662554367
 50
345.4178148542
 51
359.2531758287
  0
ARC
  8
SHELL_2
 62
7
  6
CONTINUOUS
 10
186.0327043836
 20
5.851431813
 40
203.3296531435
 50
239.5548902145
 51
300.4455382017
  0
ARC
  8
SHELL_1
 62
7
  6
CONTINUOUS
 10
186.0327043836
 20
4.7958483561
 40
200.9962554367
 50
237.6720415565
 51
302.3279584435
  0
ARC
  8
SHELL_1
 62
7
  6
CONTINUOUS
 10
151.9408814775
 20
-49.0738657972
 40
137.2451888416
 50
194.5821851458
 51
237.6720415564
  0
ARC
  8
SHELL_1
 62
7
  6
CONTINUOUS
 10
220.1245272896
 20
-49.0738657972
 40
137.2451888416
 50
302.3279584436
 51
345.4178148542
  0
ARC
  8
SHELL_4
 62
7
  6
CONTINUOUS
 10
37.8072050874
 20
375.6011478292
 40
53.3787911971
 50
178.6361879172
 51
267.1171120563
  0
ARC
  8
SHELL_4
 62
7
  6
CONTINUOUS
 10
334.2582036798
 20
375.6011478292
 40
53.3787911971
 50
272.8828879437
 51
1.3638120828
  0
ARC
  8
SHELL_2
 62
7
  6
CONTINUOUS
 10
104.4031076314
 20
265.3987444268
 40
27.9866092974
 50
325.4838171363
 51
214.5178859654
  0
ARC
  8
SHELL_2
 62
7
  6
CONTINUOUS
 10
267.6623011358
 20
265.3987444268
 40
27.9866092974
 50
325.4838171363
 51
214.5178859654
  0
ARC
  8
SHELL
 62
7
  6
CONTINUOUS
 10
186.0327043836
 20
420.6644917135
 40
21.462985367
 50
66.1962084565
 51
293.8037915435
  0
ARC
  8
SHELL
 62
7
  6
CONTINUOUS
 10
186.0327043836
 20
420.6644917135
 40
21.1420168659
 50
293.4615672859
 51
66.5384327141
  0
ARC
  8
SHELL
 62
7
  6
CONTINUOUS
 10
186.0327043836
 20
420.6644917135
 40
18.624232976
 50
69.6301838421
 51
290.3698161579
  0
ARC
  8
SHELL
 62
7
  6
CONTINUOUS
 10
186.0327043836
 20
420.6644917135
 40
18.5087010099
 50
291.8996949074
 51
68.1004275204
  0
ARC
  8
SHELL_4
 62
7
  6
CONTINUOUS
 10
379.7922944369
 20
495.6644917135
 40
5.0
 50
1.3638120829
 51
89.9999999394
  0
ARC
  8
SHELL_4
 62
7
  6
CONTINUOUS
 10
-7.7268856697
 20
495.6644917135
 40
5.0
 50
90.0000000872
 51
178.6361879171
  0
ARC
  8
SHELL
 62
7
  6
CONTINUOUS
 10
189.7729980978
 20
410.897147653
 40
3.5
 50
179.9967658328
 51
225.0096285825
  0
ARC
  8
SHELL
 62
7
  6
CONTINUOUS
 10
189.7729980978
 20
430.4318357739
 40
3.5
 50
135.0013330891
 51
180.0
  0
ARC
  8
SHELL
 62
7
  6
CONTINUOUS
 10
189.7729980978
 20
430.4318357739
 40
3.0
 50
135.0
 51
180.0
  0
ARC
  8
SHELL
 62
7
  6
CONTINUOUS
 10
189.7729980978
 20
410.897147653
 40
3.0
 50
180.0
 51
225.0
  0
ENDSEC
  0
EOF
