999
DXF file: K:\Client\125_Heirloom\001\00\Final_Data\Drawings\TOILETS\sentinel-374124_2.dxf
999
Pro/ENGINEER 2017110 by Parametric Technology Corporation
  0
SECTION
  2
HEADER
  9
$EXTMAX
 10
420.0
 20
297.0
 30
0.0
  9
$EXTMIN
 10
0.0
 20
0.0
 30
0.0
  9
$LIMMIN
 10
0.0
 20
0.0
  9
$LIMMAX
 10
420.0
 20
297.0
  9
$VIEWCTR
 10
210.0
 20
148.5
  9
$VIEWSIZE
 40
297.0
  9
$CLAYER
  8
0
  9
$LTSCALE
 40
23.1
  9
$CELTYPE
  6
BYLAYER
  9
$DIMSCALE
 40
1.0
  9
$DIMASZ
 40
3.0
  9
$DIMEXO
 40
1.0
  9
$DIMDLI
 40
15.96
  9
$DIMEXE
 40
1.0
  9
$DIMCEN
 40
3.78
  9
$DIMLFAC
 40
1.0
  9
$DIMBLK
  1
_FILLED
  9
$DIMALT
 70
0
  9
$DIMALTF
 40
0.0393700787
  9
$DIMTXT
 40
3.0
  9
$AUNITS
 70
0
  9
$PDMODE
 70
3
  9
$PDSIZE
 40
5.0
  9
$TILEMODE
 70
1
  0
ENDSEC
  0
SECTION
  2
TABLES
  0
TABLE
  2
LTYPE
 70
6
  0
LTYPE
  2
BYBLOCK
 70
0
  3

 72
65
 73
0
 40
0.0
  0
LTYPE
  2
BYLAYER
 70
0
  3

 72
65
 73
0
 40
0.0
  0
LTYPE
  2
CONTINUOUS
 70
64
  3
Solid line
 72
65
 73
0
 40
0.0
  0
LTYPE
  2
CENTER
 70
64
  3
____ _ ____ _ ____ _ ____ _ ____ _ ____ _ ____
 72
65
 73
4
 40
0.6
 49
0.375
 49
-0.075
 49
0.075
 49
-0.075
  0
LTYPE
  2
HIDDEN
 70
64
  3
- - - - - - - - - - - - - - - - - - - -
 72
65
 73
2
 40
0.2
 49
0.1
 49
-0.1
  0
LTYPE
  2
PHANTOM
 70
64
  3
_____ _ _ _____ _ _ _____ _ _ _____
 72
65
 73
6
 40
0.8
 49
0.45
 49
-0.05
 49
0.1
 49
-0.05
 49
0.1
 49
-0.05
  0
LTYPE
  2
DOT
 70
64
  3
. . . . . . . . . . . . . . . . . . . .
 72
65
 73
2
 40
0.2
 49
0.1
 49
-0.1
  0
LTYPE
  2
DASHED
 70
64
  3
- - - - - - - - - - - - - - - - - - - -
 72
65
 73
2
 40
0.2
 49
0.1
 49
-0.1
  0
ENDTAB
  0
TABLE
  2
LAYER
 70
36
  0
LAYER
  2
0
 70
0
 62
7
  6
CONTINUOUS
  0
LAYER
  2
DEFAULT_1
 70
0
 62
7
  6
CENTER
  0
LAYER
  2
DEFAULT_2
 70
0
 62
8
  6
HIDDEN
  0
LAYER
  2
DEFAULT_3
 70
0
 62
7
  6
PHANTOM
  0
LAYER
  2
0000_BOM
 70
0
 62
7
  6
CONTINUOUS
  0
LAYER
  2
0000_REV_TABLE
 70
0
 62
7
  6
CONTINUOUS
  0
LAYER
  2
0000_STEVENS_NOTE
 70
0
 62
7
  6
CONTINUOUS
  0
LAYER
  2
01_DATUM_PLANES
 70
0
 62
7
  6
CONTINUOUS
  0
LAYER
  2
01_DEF_PLANES
 70
0
 62
7
  6
CONTINUOUS
  0
LAYER
  2
02_DATUM_COS
 70
0
 62
7
  6
CONTINUOUS
  0
LAYER
  2
90_IMP_FEAT
 70
0
 62
7
  6
CONTINUOUS
  0
LAYER
  2
95_STL
 70
0
 62
7
  6
CONTINUOUS
  0
LAYER
  2
99_SOLID
 70
0
 62
7
  6
CONTINUOUS
  0
LAYER
  2
CAD-MASTER_ZINC-PL
 70
0
 62
7
  6
CONTINUOUS
  0
LAYER
  2
CURVE
 70
0
 62
7
  6
CONTINUOUS
  0
LAYER
  2
SHELL
 70
0
 62
7
  6
CONTINUOUS
  0
LAYER
  2
SKEL
 70
0
 62
7
  6
CONTINUOUS
  0
LAYER
  2
SKETCH
 70
0
 62
7
  6
CONTINUOUS
  0
LAYER
  2
SURFACE
 70
0
 62
7
  6
CONTINUOUS
  0
ENDTAB
  0
TABLE
  2
STYLE
 70
1
  0
STYLE
  2
STANDARD
 70
0
 40
0.0
 41
0.75
 50
0.0
 71
0
 42
0.2
  3
txt
  4

  0
STYLE
  2
TEXTSTYLE_1
 70
0
 40
0.0
 41
0.8
 50
0.0
 71
0
 42
0.2
  3
gdt
  4

  0
ENDTAB
  0
ENDSEC
  0
SECTION
  2
BLOCKS
  0
BLOCK
  8
0
 62
5
  6
CONTINUOUS
  2
PLUMBING_BL1
 70
64
 10
554.9713121723
 20
-273.321815587
  0
CIRCLE
  8
0
 62
5
  6
CONTINUOUS
 10
554.9713121723
 20
-273.321815587
 40
12.5
  0
LINE
  8
0
 62
5
  6
CONTINUOUS
 10
567.4713121723
 20
-260.821815587
 11
542.4713121723
 21
-285.821815587
  0
LINE
  8
0
 62
5
  6
CONTINUOUS
 10
554.9713121723
 20
-273.321815587
 11
542.4713121723
 21
-260.821815587
  0
LINE
  8
0
 62
5
  6
CONTINUOUS
 10
554.9713121723
 20
-273.321815587
 11
567.4713121723
 21
-285.821815587
  0
ENDBLK
  8
0
  6
BYBLOCK
 62
0
  0
BLOCK
  8
0
 62
1
  6
CONTINUOUS
  2
PLUMBING_BL0
 70
64
 10
279.9713121723
 20
-88.321815587
  0
CIRCLE
  8
0
 62
1
  6
CONTINUOUS
 10
279.9713121723
 20
-88.321815587
 40
12.5
  0
LINE
  8
0
 62
1
  6
CONTINUOUS
 10
292.4713121723
 20
-75.821815587
 11
267.4713121723
 21
-100.821815587
  0
LINE
  8
0
 62
1
  6
CONTINUOUS
 10
279.9713121723
 20
-88.321815587
 11
267.4713121723
 21
-75.821815587
  0
LINE
  8
0
 62
1
  6
CONTINUOUS
 10
279.9713121723
 20
-88.321815587
 11
292.4713121723
 21
-100.821815587
  0
ENDBLK
  8
0
  6
BYBLOCK
 62
0
  0
ENDSEC
  0
SECTION
  2
ENTITIES
  0
INSERT
  8
0
 62
1
  6
CONTINUOUS
  2
PLUMBING_BL0
 10
279.9713121723
 20
-88.321815587
  0
INSERT
  8
0
 62
5
  6
CONTINUOUS
  2
PLUMBING_BL1
 10
554.9713121723
 20
-273.321815587
  0
LINE
  8
DEFAULT_2
 62
8
  6
HIDDEN
 10
226.9713121723
 20
-138.321815587
 11
279.9713121723
 21
-138.321815587
  0
LINE
  8
DEFAULT_2
 62
8
  6
HIDDEN
 10
226.9713121723
 20
-38.321815587
 11
279.9713121723
 21
-38.321815587
  0
POLYLINE
  8
0
 62
7
  6
CONTINUOUS
 66
1
 70
0
  0
VERTEX
  8
0
 62
7
  6
CONTINUOUS
 10
117.7686666159
 20
199.4141398913
  0
VERTEX
  8
0
 62
7
  6
CONTINUOUS
 10
119.4968017116
 20
199.5003059377
  0
VERTEX
  8
0
 62
7
  6
CONTINUOUS
 10
121.2369709936
 20
199.5935251771
  0
VERTEX
  8
0
 62
7
  6
CONTINUOUS
 10
122.9744979846
 20
199.6926939841
  0
VERTEX
  8
0
 62
7
  6
CONTINUOUS
 10
124.6947062076
 20
199.7967087334
  0
VERTEX
  8
0
 62
7
  6
CONTINUOUS
 10
126.3846774547
 20
199.9045414609
  0
VERTEX
  8
0
 62
7
  6
CONTINUOUS
 10
128.0385265967
 20
200.0154668478
  0
VERTEX
  8
0
 62
7
  6
CONTINUOUS
 10
129.6521267737
 20
200.1288352367
  0
VERTEX
  8
0
 62
7
  6
CONTINUOUS
 10
131.2213511258
 20
200.2439969701
  0
VERTEX
  8
0
 62
7
  6
CONTINUOUS
 10
132.743244058
 20
200.3603782697
  0
VERTEX
  8
0
 62
7
  6
CONTINUOUS
 10
134.2195350338
 20
200.4777088734
  0
VERTEX
  8
0
 62
7
  6
CONTINUOUS
 10
135.6531247818
 20
200.5957943982
  0
VERTEX
  8
0
 62
7
  6
CONTINUOUS
 10
137.0469140303
 20
200.7144404609
  0
VERTEX
  8
0
 62
7
  6
CONTINUOUS
 10
139.7235267904
 20
200.9526446711
  0
VERTEX
  8
0
 62
7
  6
CONTINUOUS
 10
142.2567433818
 20
201.1908064536
  0
VERTEX
  8
0
 62
7
  6
CONTINUOUS
 10
144.6522001278
 20
201.4276630794
  0
VERTEX
  8
0
 62
7
  6
CONTINUOUS
 10
146.921266983
 20
201.6629290958
  0
VERTEX
  8
0
 62
7
  6
CONTINUOUS
 10
148.0128794492
 20
201.7800247621
  0
VERTEX
  8
0
 62
7
  6
CONTINUOUS
 10
149.0805408863
 20
201.8971392967
  0
VERTEX
  8
0
 62
7
  6
CONTINUOUS
 10
150.1286968969
 20
202.0146995037
  0
VERTEX
  8
0
 62
7
  6
CONTINUOUS
 10
151.1617930841
 20
202.1331321872
  0
VERTEX
  8
0
 62
7
  6
CONTINUOUS
 10
152.1840456934
 20
202.2528510961
  0
VERTEX
  8
0
 62
7
  6
CONTINUOUS
 10
153.1987535413
 20
202.3742177578
  0
VERTEX
  8
0
 62
7
  6
CONTINUOUS
 10
154.208986087
 20
202.4975806443
  0
VERTEX
  8
0
 62
7
  6
CONTINUOUS
 10
155.2178127897
 20
202.6232882276
  0
VERTEX
  8
0
 62
7
  6
CONTINUOUS
 10
157.2377093222
 20
202.8825344953
  0
VERTEX
  8
0
 62
7
  6
CONTINUOUS
 10
158.2469194467
 20
203.0159494169
  0
VERTEX
  8
0
 62
7
  6
CONTINUOUS
 10
159.2539129084
 20
203.1517599486
  0
VERTEX
  8
0
 62
7
  6
CONTINUOUS
 10
160.2589292696
 20
203.2900922183
  0
VERTEX
  8
0
 62
7
  6
CONTINUOUS
 10
161.2683400481
 20
203.4319736103
  0
VERTEX
  8
0
 62
7
  6
CONTINUOUS
 10
162.2900497504
 20
203.5786568228
  0
VERTEX
  8
0
 62
7
  6
CONTINUOUS
 10
163.3319628831
 20
203.7313945544
  0
VERTEX
  8
0
 62
7
  6
CONTINUOUS
 10
165.4979566706
 20
204.0588973176
  0
VERTEX
  8
0
 62
7
  6
CONTINUOUS
 10
166.624012745
 20
204.234590552
  0
VERTEX
  8
0
 62
7
  6
CONTINUOUS
 10
167.7792534867
 20
204.4187682358
  0
VERTEX
  8
0
 62
7
  6
CONTINUOUS
 10
168.9634856758
 20
204.6117346571
  0
VERTEX
  8
0
 62
7
  6
CONTINUOUS
 10
170.1743075731
 20
204.8134416138
  0
VERTEX
  8
0
 62
7
  6
CONTINUOUS
 10
171.4087653095
 20
205.023752781
  0
VERTEX
  8
0
 62
7
  6
CONTINUOUS
 10
172.6639050157
 20
205.2425318339
  0
VERTEX
  8
0
 62
7
  6
CONTINUOUS
 10
173.9362249241
 20
205.4694798547
  0
VERTEX
  8
0
 62
7
  6
CONTINUOUS
 10
175.2200316718
 20
205.7036475526
  0
VERTEX
  8
0
 62
7
  6
CONTINUOUS
 10
176.5090839976
 20
205.9439230439
  0
VERTEX
  8
0
 62
7
  6
CONTINUOUS
 10
177.79714064
 20
206.1891944448
  0
VERTEX
  8
0
 62
7
  6
CONTINUOUS
 10
179.0785137474
 20
206.4383978781
  0
VERTEX
  8
0
 62
7
  6
CONTINUOUS
 10
180.3497291067
 20
206.6906614938
  0
VERTEX
  8
0
 62
7
  6
CONTINUOUS
 10
181.6078659145
 20
206.9451614483
  0
VERTEX
  8
0
 62
7
  6
CONTINUOUS
 10
182.8500033673
 20
207.2010738983
  0
VERTEX
  8
0
 62
7
  6
CONTINUOUS
 10
184.0759855409
 20
207.4582550815
  0
VERTEX
  8
0
 62
7
  6
CONTINUOUS
 10
185.2967160281
 20
207.7192815615
  0
VERTEX
  8
0
 62
7
  6
CONTINUOUS
 10
186.5258633009
 20
207.9874099832
  0
VERTEX
  8
0
 62
7
  6
CONTINUOUS
 10
187.7770958313
 20
208.2658969915
  0
VERTEX
  8
0
 62
7
  6
CONTINUOUS
 10
189.0645878701
 20
208.558093138
  0
VERTEX
  8
0
 62
7
  6
CONTINUOUS
 10
190.4045367832
 20
208.8677246015
  0
VERTEX
  8
0
 62
7
  6
CONTINUOUS
 10
191.8099262499
 20
209.1978843384
  0
VERTEX
  8
0
 62
7
  6
CONTINUOUS
 10
193.2788620886
 20
209.5487567897
  0
VERTEX
  8
0
 62
7
  6
CONTINUOUS
 10
194.8052683429
 20
209.9196772419
  0
VERTEX
  8
0
 62
7
  6
CONTINUOUS
 10
196.3812198183
 20
210.3094928777
  0
VERTEX
  8
0
 62
7
  6
CONTINUOUS
 10
197.9983290106
 20
210.7169288542
  0
VERTEX
  8
0
 62
7
  6
CONTINUOUS
 10
199.6482084157
 20
211.1407103285
  0
SEQEND
  0
POLYLINE
  8
0
 62
7
  6
CONTINUOUS
 66
1
 70
0
  0
VERTEX
  8
0
 62
7
  6
CONTINUOUS
 10
115.5071197538
 20
200.0384094904
  0
VERTEX
  8
0
 62
7
  6
CONTINUOUS
 10
112.7894778844
 20
199.9184722352
  0
VERTEX
  8
0
 62
7
  6
CONTINUOUS
 10
110.0709131007
 20
199.8216993446
  0
VERTEX
  8
0
 62
7
  6
CONTINUOUS
 10
106.9323788558
 20
199.7389957198
  0
VERTEX
  8
0
 62
7
  6
CONTINUOUS
 10
103.7932662005
 20
199.6802558316
  0
VERTEX
  8
0
 62
7
  6
CONTINUOUS
 10
100.4537620636
 20
199.6361247226
  0
VERTEX
  8
0
 62
7
  6
CONTINUOUS
 10
97.1140918783
 20
199.6111341513
  0
VERTEX
  8
0
 62
7
  6
CONTINUOUS
 10
93.5669604326
 20
199.6069985048
  0
VERTEX
  8
0
 62
7
  6
CONTINUOUS
 10
90.019841745
 20
199.6232216277
  0
VERTEX
  8
0
 62
7
  6
CONTINUOUS
 10
86.2424643657
 20
199.6591444745
  0
VERTEX
  8
0
 62
7
  6
CONTINUOUS
 10
82.4653029452
 20
199.7123671876
  0
VERTEX
  8
0
 62
7
  6
CONTINUOUS
 10
78.4042316215
 20
199.7866279859
  0
VERTEX
  8
0
 62
7
  6
CONTINUOUS
 10
74.3434079782
 20
199.8739650406
  0
VERTEX
  8
0
 62
7
  6
CONTINUOUS
 10
69.8897632406
 20
199.9803655816
  0
VERTEX
  8
0
 62
7
  6
CONTINUOUS
 10
65.4364617435
 20
200.0998283565
  0
SEQEND
  0
LINE
  8
DEFAULT_2
 62
8
  6
HIDDEN
 10
279.9713121723
 20
-38.6863718821
 11
279.9713121723
 21
-137.9572592919
  0
POLYLINE
  8
0
 62
7
  6
CONTINUOUS
 66
1
 70
0
  0
VERTEX
  8
0
 62
7
  6
CONTINUOUS
 10
199.6482084157
 20
211.1407103285
  0
VERTEX
  8
0
 62
7
  6
CONTINUOUS
 10
201.5654806065
 20
211.6465223946
  0
VERTEX
  8
0
 62
7
  6
CONTINUOUS
 10
203.4577355934
 20
212.1612661963
  0
VERTEX
  8
0
 62
7
  6
CONTINUOUS
 10
205.3230211022
 20
212.6835385178
  0
VERTEX
  8
0
 62
7
  6
CONTINUOUS
 10
207.1592860401
 20
213.2118420633
  0
VERTEX
  8
0
 62
7
  6
CONTINUOUS
 10
208.9644500161
 20
213.7446397045
  0
VERTEX
  8
0
 62
7
  6
CONTINUOUS
 10
210.7363558398
 20
214.2802808488
  0
VERTEX
  8
0
 62
7
  6
CONTINUOUS
 10
212.4728271207
 20
214.8170865375
  0
VERTEX
  8
0
 62
7
  6
CONTINUOUS
 10
214.1716874685
 20
215.3533778122
  0
VERTEX
  8
0
 62
7
  6
CONTINUOUS
 10
215.8305579691
 20
215.8874469267
  0
VERTEX
  8
0
 62
7
  6
CONTINUOUS
 10
217.4462496142
 20
216.417470986
  0
VERTEX
  8
0
 62
7
  6
CONTINUOUS
 10
219.0153708719
 20
216.9415983072
  0
VERTEX
  8
0
 62
7
  6
CONTINUOUS
 10
220.53453021
 20
217.4579772078
  0
VERTEX
  8
0
 62
7
  6
CONTINUOUS
 10
222.0003286119
 20
217.9647463387
  0
VERTEX
  8
0
 62
7
  6
CONTINUOUS
 10
223.4093371216
 20
218.4600056856
  0
VERTEX
  8
0
 62
7
  6
CONTINUOUS
 10
224.7581192982
 20
218.9418455674
  0
VERTEX
  8
0
 62
7
  6
CONTINUOUS
 10
226.043238701
 20
219.4083563034
  0
VERTEX
  8
0
 62
7
  6
CONTINUOUS
 10
227.2614677131
 20
219.8577457399
  0
VERTEX
  8
0
 62
7
  6
CONTINUOUS
 10
228.4104140141
 20
220.2886918314
  0
VERTEX
  8
0
 62
7
  6
CONTINUOUS
 10
228.9582238054
 20
220.496872211
  0
VERTEX
  8
0
 62
7
  6
CONTINUOUS
 10
229.4878941077
 20
220.69999006
  0
VERTEX
  8
0
 62
7
  6
CONTINUOUS
 10
229.999151984
 20
220.8978948136
  0
VERTEX
  8
0
 62
7
  6
CONTINUOUS
 10
230.4917244973
 20
221.0904359072
  0
VERTEX
  8
0
 62
7
  6
CONTINUOUS
 10
230.9653386447
 20
221.2774626909
  0
VERTEX
  8
0
 62
7
  6
CONTINUOUS
 10
231.4197211595
 20
221.4588241743
  0
VERTEX
  8
0
 62
7
  6
CONTINUOUS
 10
231.8545987095
 20
221.6343692822
  0
VERTEX
  8
0
 62
7
  6
CONTINUOUS
 10
232.2696979622
 20
221.8039469393
  0
VERTEX
  8
0
 62
7
  6
CONTINUOUS
 10
232.6647455853
 20
221.9674060702
  0
VERTEX
  8
0
 62
7
  6
CONTINUOUS
 10
233.0394682464
 20
222.1245955996
  0
VERTEX
  8
0
 62
7
  6
CONTINUOUS
 10
233.393592613
 20
222.2753644521
  0
VERTEX
  8
0
 62
7
  6
CONTINUOUS
 10
233.7268453529
 20
222.4195615525
  0
VERTEX
  8
0
 62
7
  6
CONTINUOUS
 10
234.0389911483
 20
222.5570529832
  0
VERTEX
  8
0
 62
7
  6
CONTINUOUS
 10
234.3299467415
 20
222.6877734573
  0
VERTEX
  8
0
 62
7
  6
CONTINUOUS
 10
234.5996668891
 20
222.811674846
  0
VERTEX
  8
0
 62
7
  6
CONTINUOUS
 10
234.8481063479
 20
222.9287090203
  0
VERTEX
  8
0
 62
7
  6
CONTINUOUS
 10
235.075219875
 20
223.0388278511
  0
VERTEX
  8
0
 62
7
  6
CONTINUOUS
 10
235.1807652756
 20
223.0912789724
  0
VERTEX
  8
0
 62
7
  6
CONTINUOUS
 10
235.280962227
 20
223.1419832095
  0
VERTEX
  8
0
 62
7
  6
CONTINUOUS
 10
235.3758050739
 20
223.1909345463
  0
VERTEX
  8
0
 62
7
  6
CONTINUOUS
 10
235.4652881608
 20
223.2381269665
  0
VERTEX
  8
0
 62
7
  6
CONTINUOUS
 10
235.5494058324
 20
223.2835544542
  0
VERTEX
  8
0
 62
7
  6
CONTINUOUS
 10
235.6281524333
 20
223.3272109931
  0
VERTEX
  8
0
 62
7
  6
CONTINUOUS
 10
235.7015223081
 20
223.3690905672
  0
VERTEX
  8
0
 62
7
  6
CONTINUOUS
 10
235.7695098013
 20
223.4091871603
  0
VERTEX
  8
0
 62
7
  6
CONTINUOUS
 10
235.8321092576
 20
223.4474947563
  0
VERTEX
  8
0
 62
7
  6
CONTINUOUS
 10
235.8893150215
 20
223.4840073391
  0
VERTEX
  8
0
 62
7
  6
CONTINUOUS
 10
235.9411214377
 20
223.5187188925
  0
VERTEX
  8
0
 62
7
  6
CONTINUOUS
 10
235.9875228508
 20
223.5516234005
  0
VERTEX
  8
0
 62
7
  6
CONTINUOUS
 10
236.0285136053
 20
223.5827148468
  0
VERTEX
  8
0
 62
7
  6
CONTINUOUS
 10
236.0469782183
 20
223.5975787918
  0
VERTEX
  8
0
 62
7
  6
CONTINUOUS
 10
236.0640880459
 20
223.6119872154
  0
VERTEX
  8
0
 62
7
  6
CONTINUOUS
 10
236.0798423812
 20
223.6259393655
  0
VERTEX
  8
0
 62
7
  6
CONTINUOUS
 10
236.0942405172
 20
223.6394344902
  0
VERTEX
  8
0
 62
7
  6
CONTINUOUS
 10
236.107281747
 20
223.6524718373
  0
VERTEX
  8
0
 62
7
  6
CONTINUOUS
 10
236.1189653637
 20
223.665050655
  0
VERTEX
  8
0
 62
7
  6
CONTINUOUS
 10
236.1292906603
 20
223.6771701911
  0
VERTEX
  8
0
 62
7
  6
CONTINUOUS
 10
236.13825693
 20
223.6888296936
  0
VERTEX
  8
0
 62
7
  6
CONTINUOUS
 10
236.1458634658
 20
223.7000284106
  0
VERTEX
  8
0
 62
7
  6
CONTINUOUS
 10
236.1521095608
 20
223.7107655901
  0
VERTEX
  8
0
 62
7
  6
CONTINUOUS
 10
236.156994508
 20
223.7210404799
  0
VERTEX
  8
0
 62
7
  6
CONTINUOUS
 10
236.1605176006
 20
223.7308523281
  0
VERTEX
  8
0
 62
7
  6
CONTINUOUS
 10
236.1626781316
 20
223.7402003828
  0
VERTEX
  8
0
 62
7
  6
CONTINUOUS
 10
236.1634753941
 20
223.7490838917
  0
VERTEX
  8
0
 62
7
  6
CONTINUOUS
 10
236.1629086811
 20
223.7575021031
  0
VERTEX
  8
0
 62
7
  6
CONTINUOUS
 10
236.1609772858
 20
223.7654542647
  0
VERTEX
  8
0
 62
7
  6
CONTINUOUS
 10
236.1576805012
 20
223.7729396247
  0
VERTEX
  8
0
 62
7
  6
CONTINUOUS
 10
236.1530176203
 20
223.7799574309
  0
SEQEND
  0
POLYLINE
  8
0
 62
7
  6
CONTINUOUS
 66
1
 70
0
  0
VERTEX
  8
0
 62
7
  6
CONTINUOUS
 10
115.5071197538
 20
200.0384094904
  0
VERTEX
  8
0
 62
7
  6
CONTINUOUS
 10
115.5426553203
 20
200.0439330212
  0
VERTEX
  8
0
 62
7
  6
CONTINUOUS
 10
115.5782815997
 20
200.0488376001
  0
VERTEX
  8
0
 62
7
  6
CONTINUOUS
 10
115.6265753037
 20
200.0544894793
  0
VERTEX
  8
0
 62
7
  6
CONTINUOUS
 10
115.6749866957
 20
200.0590241189
  0
VERTEX
  8
0
 62
7
  6
CONTINUOUS
 10
115.7239337145
 20
200.0624788664
  0
VERTEX
  8
0
 62
7
  6
CONTINUOUS
 10
115.772946737
 20
200.0648212107
  0
VERTEX
  8
0
 62
7
  6
CONTINUOUS
 10
115.8225504685
 20
200.0660745586
  0
VERTEX
  8
0
 62
7
  6
CONTINUOUS
 10
115.8721693593
 20
200.0662251678
  0
VERTEX
  8
0
 62
7
  6
CONTINUOUS
 10
115.9224310227
 20
200.065273496
  0
VERTEX
  8
0
 62
7
  6
CONTINUOUS
 10
115.9726621985
 20
200.0632322822
  0
VERTEX
  8
0
 62
7
  6
CONTINUOUS
 10
116.0240025774
 20
200.0600402478
  0
VERTEX
  8
0
 62
7
  6
CONTINUOUS
 10
116.0752684882
 20
200.0557590774
  0
VERTEX
  8
0
 62
7
  6
CONTINUOUS
 10
116.1264379724
 20
200.0504167267
  0
VERTEX
  8
0
 62
7
  6
CONTINUOUS
 10
116.1774890716
 20
200.0440411516
  0
VERTEX
  8
0
 62
7
  6
CONTINUOUS
 10
116.2302496044
 20
200.0363736209
  0
VERTEX
  8
0
 62
7
  6
CONTINUOUS
 10
116.2828455677
 20
200.0276589255
  0
VERTEX
  8
0
 62
7
  6
CONTINUOUS
 10
116.3352631259
 20
200.0179295942
  0
VERTEX
  8
0
 62
7
  6
CONTINUOUS
 10
116.3874884433
 20
200.0072181559
  0
VERTEX
  8
0
 62
7
  6
CONTINUOUS
 10
116.4596601732
 20
199.9907771634
  0
VERTEX
  8
0
 62
7
  6
CONTINUOUS
 10
116.531412022
 20
199.9725881143
  0
VERTEX
  8
0
 62
7
  6
CONTINUOUS
 10
116.6027214007
 20
199.952733632
  0
VERTEX
  8
0
 62
7
  6
CONTINUOUS
 10
116.6767529479
 20
199.9302915606
  0
VERTEX
  8
0
 62
7
  6
CONTINUOUS
 10
116.7502657507
 20
199.9062049029
  0
VERTEX
  8
0
 62
7
  6
CONTINUOUS
 10
116.8232490311
 20
199.880557917
  0
VERTEX
  8
0
 62
7
  6
CONTINUOUS
 10
116.8991382266
 20
199.8521023264
  0
VERTEX
  8
0
 62
7
  6
CONTINUOUS
 10
116.9744330947
 20
199.8221091981
  0
VERTEX
  8
0
 62
7
  6
CONTINUOUS
 10
117.0491324215
 20
199.7906613478
  0
VERTEX
  8
0
 62
7
  6
CONTINUOUS
 10
117.1268810182
 20
199.7561837191
  0
VERTEX
  8
0
 62
7
  6
CONTINUOUS
 10
117.2039789361
 20
199.7202748452
  0
VERTEX
  8
0
 62
7
  6
CONTINUOUS
 10
117.2804326592
 20
199.6830142614
  0
VERTEX
  8
0
 62
7
  6
CONTINUOUS
 10
117.3600441212
 20
199.6425093939
  0
VERTEX
  8
0
 62
7
  6
CONTINUOUS
 10
117.4389656708
 20
199.6006755378
  0
VERTEX
  8
0
 62
7
  6
CONTINUOUS
 10
117.5172108312
 20
199.5575869948
  0
VERTEX
  8
0
 62
7
  6
CONTINUOUS
 10
117.5986955819
 20
199.5110488358
  0
VERTEX
  8
0
 62
7
  6
CONTINUOUS
 10
117.679463182
 20
199.463279348
  0
VERTEX
  8
0
 62
7
  6
CONTINUOUS
 10
117.7595280247
 20
199.4143498849
  0
SEQEND
  0
POLYLINE
  8
0
 62
7
  6
CONTINUOUS
 66
1
 70
0
  0
VERTEX
  8
0
 62
7
  6
CONTINUOUS
 10
236.152906159
 20
223.780296588
  0
VERTEX
  8
0
 62
7
  6
CONTINUOUS
 10
236.1085287236
 20
223.8262831493
  0
VERTEX
  8
0
 62
7
  6
CONTINUOUS
 10
236.0637062986
 20
223.8718433255
  0
VERTEX
  8
0
 62
7
  6
CONTINUOUS
 10
236.0183832996
 20
223.916906447
  0
VERTEX
  8
0
 62
7
  6
CONTINUOUS
 10
235.9725041423
 20
223.961401844
  0
VERTEX
  8
0
 62
7
  6
CONTINUOUS
 10
235.9260132423
 20
224.0052588471
  0
VERTEX
  8
0
 62
7
  6
CONTINUOUS
 10
235.887170546
 20
224.0408971897
  0
VERTEX
  8
0
 62
7
  6
CONTINUOUS
 10
235.8478436378
 20
224.0760012259
  0
VERTEX
  8
0
 62
7
  6
CONTINUOUS
 10
235.8080022246
 20
224.1105189572
  0
VERTEX
  8
0
 62
7
  6
CONTINUOUS
 10
235.7676160133
 20
224.1443983853
  0
VERTEX
  8
0
 62
7
  6
CONTINUOUS
 10
235.7266547108
 20
224.1775875121
  0
VERTEX
  8
0
 62
7
  6
CONTINUOUS
 10
235.6926274776
 20
224.2042284968
  0
VERTEX
  8
0
 62
7
  6
CONTINUOUS
 10
235.6581484753
 20
224.2302817778
  0
VERTEX
  8
0
 62
7
  6
CONTINUOUS
 10
235.6231726114
 20
224.255658303
  0
VERTEX
  8
0
 62
7
  6
CONTINUOUS
 10
235.5876547933
 20
224.2802690203
  0
VERTEX
  8
0
 62
7
  6
CONTINUOUS
 10
235.5515499285
 20
224.3040248776
  0
VERTEX
  8
0
 62
7
  6
CONTINUOUS
 10
235.5226616956
 20
224.3220754715
  0
VERTEX
  8
0
 62
7
  6
CONTINUOUS
 10
235.4933643288
 20
224.3394624241
  0
VERTEX
  8
0
 62
7
  6
CONTINUOUS
 10
235.4636410934
 20
224.3561080256
  0
VERTEX
  8
0
 62
7
  6
CONTINUOUS
 10
235.4334752545
 20
224.3719345663
  0
VERTEX
  8
0
 62
7
  6
CONTINUOUS
 10
235.4028500776
 20
224.3868643363
  0
VERTEX
  8
0
 62
7
  6
CONTINUOUS
 10
235.3717488277
 20
224.4008196258
  0
VERTEX
  8
0
 62
7
  6
CONTINUOUS
 10
235.3469206226
 20
224.4110667706
  0
VERTEX
  8
0
 62
7
  6
CONTINUOUS
 10
235.3218015347
 20
224.4206029316
  0
VERTEX
  8
0
 62
7
  6
CONTINUOUS
 10
235.2964061461
 20
224.4293693206
  0
VERTEX
  8
0
 62
7
  6
CONTINUOUS
 10
235.2707490388
 20
224.4373071497
  0
VERTEX
  8
0
 62
7
  6
CONTINUOUS
 10
235.2448447948
 20
224.4443576308
  0
VERTEX
  8
0
 62
7
  6
CONTINUOUS
 10
235.2187079961
 20
224.4504619758
  0
VERTEX
  8
0
 62
7
  6
CONTINUOUS
 10
235.1923532248
 20
224.4555613967
  0
VERTEX
  8
0
 62
7
  6
CONTINUOUS
 10
235.1634943452
 20
224.459902589
  0
VERTEX
  8
0
 62
7
  6
CONTINUOUS
 10
235.1344577445
 20
224.4629610905
  0
VERTEX
  8
0
 62
7
  6
CONTINUOUS
 10
235.105305828
 20
224.4647100456
  0
VERTEX
  8
0
 62
7
  6
CONTINUOUS
 10
235.0761010008
 20
224.4651225989
  0
VERTEX
  8
0
 62
7
  6
CONTINUOUS
 10
235.0469056681
 20
224.4641718948
  0
VERTEX
  8
0
 62
7
  6
CONTINUOUS
 10
235.0177822351
 20
224.461831078
  0
VERTEX
  8
0
 62
7
  6
CONTINUOUS
 10
234.9944408446
 20
224.4589181638
  0
VERTEX
  8
0
 62
7
  6
CONTINUOUS
 10
234.9712349282
 20
224.4550662447
  0
VERTEX
  8
0
 62
7
  6
CONTINUOUS
 10
234.9482129699
 20
224.4502540987
  0
VERTEX
  8
0
 62
7
  6
CONTINUOUS
 10
234.9254234532
 20
224.4444605035
  0
VERTEX
  8
0
 62
7
  6
CONTINUOUS
 10
234.902914862
 20
224.4376642369
  0
VERTEX
  8
0
 62
7
  6
CONTINUOUS
 10
234.8807356802
 20
224.4298440767
  0
VERTEX
  8
0
 62
7
  6
CONTINUOUS
 10
234.8589343913
 20
224.4209788008
  0
VERTEX
  8
0
 62
7
  6
CONTINUOUS
 10
234.8383007816
 20
224.4114108716
  0
VERTEX
  8
0
 62
7
  6
CONTINUOUS
 10
234.8181569499
 20
224.4008385248
  0
VERTEX
  8
0
 62
7
  6
CONTINUOUS
 10
234.7985953405
 20
224.3892510459
  0
VERTEX
  8
0
 62
7
  6
CONTINUOUS
 10
234.7797083977
 20
224.3766377202
  0
VERTEX
  8
0
 62
7
  6
CONTINUOUS
 10
234.7615885659
 20
224.3629878331
  0
VERTEX
  8
0
 62
7
  6
CONTINUOUS
 10
234.7443282894
 20
224.34829067
  0
VERTEX
  8
0
 62
7
  6
CONTINUOUS
 10
234.7298780245
 20
224.3344574756
  0
VERTEX
  8
0
 62
7
  6
CONTINUOUS
 10
234.7161765498
 20
224.3198655172
  0
VERTEX
  8
0
 62
7
  6
CONTINUOUS
 10
234.703231596
 20
224.3045795961
  0
VERTEX
  8
0
 62
7
  6
CONTINUOUS
 10
234.6910508939
 20
224.2886645136
  0
VERTEX
  8
0
 62
7
  6
CONTINUOUS
 10
234.6796421741
 20
224.2721850712
  0
VERTEX
  8
0
 62
7
  6
CONTINUOUS
 10
234.6690131673
 20
224.25520607
  0
VERTEX
  8
0
 62
7
  6
CONTINUOUS
 10
234.6582577091
 20
224.2360932759
  0
VERTEX
  8
0
 62
7
  6
CONTINUOUS
 10
234.648400583
 20
224.2165155885
  0
VERTEX
  8
0
 62
7
  6
CONTINUOUS
 10
234.6393940179
 20
224.1965304693
  0
VERTEX
  8
0
 62
7
  6
CONTINUOUS
 10
234.6311902429
 20
224.1761953802
  0
VERTEX
  8
0
 62
7
  6
CONTINUOUS
 10
234.6237414868
 20
224.155567783
  0
VERTEX
  8
0
 62
7
  6
CONTINUOUS
 10
234.6169999786
 20
224.1347051393
  0
VERTEX
  8
0
 62
7
  6
CONTINUOUS
 10
234.6089696498
 20
224.1063788354
  0
VERTEX
  8
0
 62
7
  6
CONTINUOUS
 10
234.6020197843
 20
224.0777825969
  0
VERTEX
  8
0
 62
7
  6
CONTINUOUS
 10
234.596039375
 20
224.04896733
  0
VERTEX
  8
0
 62
7
  6
CONTINUOUS
 10
234.5909174145
 20
224.0199839407
  0
VERTEX
  8
0
 62
7
  6
CONTINUOUS
 10
234.5865428956
 20
223.9908833351
  0
VERTEX
  8
0
 62
7
  6
CONTINUOUS
 10
234.5813924921
 20
223.9494053694
  0
VERTEX
  8
0
 62
7
  6
CONTINUOUS
 10
234.5771997993
 20
223.9078288041
  0
VERTEX
  8
0
 62
7
  6
CONTINUOUS
 10
234.5736370566
 20
223.8661889731
  0
VERTEX
  8
0
 62
7
  6
CONTINUOUS
 10
234.5703765032
 20
223.8245212103
  0
VERTEX
  8
0
 62
7
  6
CONTINUOUS
 10
234.5627161292
 20
223.7246772667
  0
VERTEX
  8
0
 62
7
  6
CONTINUOUS
 10
234.5556645872
 20
223.6247991927
  0
SEQEND
  0
POLYLINE
  8
0
 62
7
  6
CONTINUOUS
 66
1
 70
0
  0
VERTEX
  8
0
 62
7
  6
CONTINUOUS
 10
247.2191286836
 20
220.8507532769
  0
VERTEX
  8
0
 62
7
  6
CONTINUOUS
 10
246.9838591931
 20
221.1086225698
  0
VERTEX
  8
0
 62
7
  6
CONTINUOUS
 10
246.7422859321
 20
221.3612472828
  0
VERTEX
  8
0
 62
7
  6
CONTINUOUS
 10
246.4944856684
 20
221.608267652
  0
VERTEX
  8
0
 62
7
  6
CONTINUOUS
 10
246.2405351695
 20
221.8493239132
  0
VERTEX
  8
0
 62
7
  6
CONTINUOUS
 10
245.980511203
 20
222.0840563022
  0
VERTEX
  8
0
 62
7
  6
CONTINUOUS
 10
245.7315990901
 20
222.2977965795
  0
VERTEX
  8
0
 62
7
  6
CONTINUOUS
 10
245.4774923485
 20
222.5053815786
  0
VERTEX
  8
0
 62
7
  6
CONTINUOUS
 10
245.2182540009
 20
222.7065159496
  0
VERTEX
  8
0
 62
7
  6
CONTINUOUS
 10
244.9539470702
 20
222.9009043424
  0
VERTEX
  8
0
 62
7
  6
CONTINUOUS
 10
244.684634579
 20
223.0882514069
  0
VERTEX
  8
0
 62
7
  6
CONTINUOUS
 10
244.4103795502
 20
223.2682617931
  0
VERTEX
  8
0
 62
7
  6
CONTINUOUS
 10
244.1312450064
 20
223.4406401509
  0
VERTEX
  8
0
 62
7
  6
CONTINUOUS
 10
243.8472939706
 20
223.6050911303
  0
VERTEX
  8
0
 62
7
  6
CONTINUOUS
 10
243.5585894654
 20
223.7613193811
  0
VERTEX
  8
0
 62
7
  6
CONTINUOUS
 10
243.2823189265
 20
223.9007489402
  0
VERTEX
  8
0
 62
7
  6
CONTINUOUS
 10
243.002114963
 20
224.0325187014
  0
VERTEX
  8
0
 62
7
  6
CONTINUOUS
 10
242.7182077523
 20
224.1565301699
  0
VERTEX
  8
0
 62
7
  6
CONTINUOUS
 10
242.4308274715
 20
224.272684851
  0
VERTEX
  8
0
 62
7
  6
CONTINUOUS
 10
242.140204298
 20
224.3808842497
  0
VERTEX
  8
0
 62
7
  6
CONTINUOUS
 10
241.846568409
 20
224.4810298714
  0
VERTEX
  8
0
 62
7
  6
CONTINUOUS
 10
241.550149982
 20
224.5730232211
  0
VERTEX
  8
0
 62
7
  6
CONTINUOUS
 10
241.2511791941
 20
224.656765804
  0
VERTEX
  8
0
 62
7
  6
CONTINUOUS
 10
240.9498862226
 20
224.7321591253
  0
VERTEX
  8
0
 62
7
  6
CONTINUOUS
 10
240.6465012449
 20
224.7991046903
  0
VERTEX
  8
0
 62
7
  6
CONTINUOUS
 10
240.3412544383
 20
224.8575040039
  0
VERTEX
  8
0
 62
7
  6
CONTINUOUS
 10
240.03437598
 20
224.9072585715
  0
VERTEX
  8
0
 62
7
  6
CONTINUOUS
 10
239.7260960473
 20
224.9482698982
  0
VERTEX
  8
0
 62
7
  6
CONTINUOUS
 10
239.4166448175
 20
224.9804394892
  0
VERTEX
  8
0
 62
7
  6
CONTINUOUS
 10
239.0891137854
 20
225.0047152606
  0
VERTEX
  8
0
 62
7
  6
CONTINUOUS
 10
238.7608814221
 20
225.0190818677
  0
VERTEX
  8
0
 62
7
  6
CONTINUOUS
 10
238.432294251
 20
225.0235843092
  0
VERTEX
  8
0
 62
7
  6
CONTINUOUS
 10
238.1036987953
 20
225.0182675838
  0
VERTEX
  8
0
 62
7
  6
CONTINUOUS
 10
237.7754415783
 20
225.0031766903
  0
VERTEX
  8
0
 62
7
  6
CONTINUOUS
 10
237.4478691234
 20
224.9783566276
  0
VERTEX
  8
0
 62
7
  6
CONTINUOUS
 10
237.1213279537
 20
224.9438523943
  0
VERTEX
  8
0
 62
7
  6
CONTINUOUS
 10
236.7961645925
 20
224.8997089893
  0
VERTEX
  8
0
 62
7
  6
CONTINUOUS
 10
236.4727255632
 20
224.8459714113
  0
VERTEX
  8
0
 62
7
  6
CONTINUOUS
 10
236.151357389
 20
224.7826846591
  0
VERTEX
  8
0
 62
7
  6
CONTINUOUS
 10
235.8324065932
 20
224.7098937315
  0
VERTEX
  8
0
 62
7
  6
CONTINUOUS
 10
235.516219699
 20
224.6276436273
  0
VERTEX
  8
0
 62
7
  6
CONTINUOUS
 10
235.2031432298
 20
224.5359793451
  0
VERTEX
  8
0
 62
7
  6
CONTINUOUS
 10
234.8935237088
 20
224.4349458839
  0
SEQEND
  0
LINE
  8
0
 62
7
  6
CONTINUOUS
 10
549.9713121723
 20
-273.321815587
 11
-63.8598081551
 21
-273.321815587
  0
POLYLINE
  8
0
 62
7
  6
CONTINUOUS
 66
1
 70
0
  0
VERTEX
  8
0
 62
7
  6
CONTINUOUS
 10
-198.5490639023
 20
178.2532515851
  0
VERTEX
  8
0
 62
7
  6
CONTINUOUS
 10
-198.5519828015
 20
177.937644529
  0
VERTEX
  8
0
 62
7
  6
CONTINUOUS
 10
-198.4267975006
 20
177.3183036419
  0
SEQEND
  0
LINE
  8
0
 62
7
  6
CONTINUOUS
 10
-198.5213335389
 20
178.569354958
 11
-198.549049116
 21
178.2533511432
  0
LINE
  8
0
 62
7
  6
CONTINUOUS
 10
-197.6744157615
 20
188.1827384384
 11
-197.7571237998
 21
187.2426787455
  0
POLYLINE
  8
0
 62
7
  6
CONTINUOUS
 66
1
 70
0
  0
VERTEX
  8
0
 62
7
  6
CONTINUOUS
 10
-197.7571237998
 20
187.2426787455
  0
VERTEX
  8
0
 62
7
  6
CONTINUOUS
 10
-197.9610746154
 20
184.9291905759
  0
VERTEX
  8
0
 62
7
  6
CONTINUOUS
 10
-198.1567915651
 20
182.7111292917
  0
VERTEX
  8
0
 62
7
  6
CONTINUOUS
 10
-198.3436901014
 20
180.5905198342
  0
VERTEX
  8
0
 62
7
  6
CONTINUOUS
 10
-198.5213335389
 20
178.569354958
  0
SEQEND
  0
LINE
  8
0
 62
7
  6
CONTINUOUS
 10
-197.6741778203
 20
188.1845121672
 11
-197.6744157615
 21
188.1827384384
  0
POLYLINE
  8
0
 62
7
  6
CONTINUOUS
 66
1
 70
0
  0
VERTEX
  8
0
 62
7
  6
CONTINUOUS
 10
-197.4291415203
 20
189.7399696537
  0
VERTEX
  8
0
 62
7
  6
CONTINUOUS
 10
-197.5717483463
 20
189.0481897115
  0
VERTEX
  8
0
 62
7
  6
CONTINUOUS
 10
-197.6764351822
 20
188.2806288598
  0
VERTEX
  8
0
 62
7
  6
CONTINUOUS
 10
-197.6857102693
 20
188.1857616135
  0
SEQEND
  0
LINE
  8
0
 62
7
  6
CONTINUOUS
 10
-190.6224620357
 20
175.3105516399
 11
-190.6224620357
 21
172.178184413
  0
POLYLINE
  8
0
 62
7
  6
CONTINUOUS
 66
1
 70
0
  0
VERTEX
  8
0
 62
7
  6
CONTINUOUS
 10
-196.6430816146
 20
190.5201715742
  0
VERTEX
  8
0
 62
7
  6
CONTINUOUS
 10
-196.6665612154
 20
190.4437467745
  0
VERTEX
  8
0
 62
7
  6
CONTINUOUS
 10
-196.6889338395
 20
190.3685506073
  0
VERTEX
  8
0
 62
7
  6
CONTINUOUS
 10
-196.7102223272
 20
190.2946935001
  0
VERTEX
  8
0
 62
7
  6
CONTINUOUS
 10
-196.7304521643
 20
190.2222827656
  0
VERTEX
  8
0
 62
7
  6
CONTINUOUS
 10
-196.7496497604
 20
190.1514277808
  0
VERTEX
  8
0
 62
7
  6
CONTINUOUS
 10
-196.7678421891
 20
190.0822406844
  0
VERTEX
  8
0
 62
7
  6
CONTINUOUS
 10
-196.7850800867
 20
190.0147453219
  0
VERTEX
  8
0
 62
7
  6
CONTINUOUS
 10
-196.8013251114
 20
189.9493245143
  0
VERTEX
  8
0
 62
7
  6
CONTINUOUS
 10
-196.8166691014
 20
189.8858518399
  0
VERTEX
  8
0
 62
7
  6
CONTINUOUS
 10
-196.8308020656
 20
189.8259103608
  0
VERTEX
  8
0
 62
7
  6
CONTINUOUS
 10
-196.8464372181
 20
189.7579599164
  0
SEQEND
  0
POLYLINE
  8
0
 62
7
  6
CONTINUOUS
 66
1
 70
0
  0
VERTEX
  8
0
 62
7
  6
CONTINUOUS
 10
-197.071674234
 20
190.9105960174
  0
VERTEX
  8
0
 62
7
  6
CONTINUOUS
 10
-197.2587999241
 20
190.3601520748
  0
VERTEX
  8
0
 62
7
  6
CONTINUOUS
 10
-197.4291415203
 20
189.7399696537
  0
SEQEND
  0
LINE
  8
0
 62
7
  6
CONTINUOUS
 10
-196.8808518248
 20
191.3889122989
 11
-197.071674234
 21
190.9105960174
  0
POLYLINE
  8
0
 62
7
  6
CONTINUOUS
 66
1
 70
0
  0
VERTEX
  8
0
 62
7
  6
CONTINUOUS
 10
-196.2696945462
 20
191.496133114
  0
VERTEX
  8
0
 62
7
  6
CONTINUOUS
 10
-196.3072109538
 20
191.4127725032
  0
VERTEX
  8
0
 62
7
  6
CONTINUOUS
 10
-196.3436143502
 20
191.3295614464
  0
VERTEX
  8
0
 62
7
  6
CONTINUOUS
 10
-196.3789261019
 20
191.2464317635
  0
VERTEX
  8
0
 62
7
  6
CONTINUOUS
 10
-196.413083139
 20
191.1635269314
  0
VERTEX
  8
0
 62
7
  6
CONTINUOUS
 10
-196.4460479215
 20
191.0809523715
  0
VERTEX
  8
0
 62
7
  6
CONTINUOUS
 10
-196.4778010073
 20
190.9987896849
  0
VERTEX
  8
0
 62
7
  6
CONTINUOUS
 10
-196.5083363378
 20
190.9171379162
  0
VERTEX
  8
0
 62
7
  6
CONTINUOUS
 10
-196.5376606711
 20
190.8360982205
  0
VERTEX
  8
0
 62
7
  6
CONTINUOUS
 10
-196.5657831038
 20
190.7557764298
  0
VERTEX
  8
0
 62
7
  6
CONTINUOUS
 10
-196.5927168478
 20
190.6762765472
  0
VERTEX
  8
0
 62
7
  6
CONTINUOUS
 10
-196.6184750574
 20
190.597712019
  0
VERTEX
  8
0
 62
7
  6
CONTINUOUS
 10
-196.6430816146
 20
190.5201715742
  0
SEQEND
  0
POLYLINE
  8
0
 62
7
  6
CONTINUOUS
 66
1
 70
0
  0
VERTEX
  8
0
 62
7
  6
CONTINUOUS
 10
-196.1208419843
 20
191.8070880432
  0
VERTEX
  8
0
 62
7
  6
CONTINUOUS
 10
-196.1092982734
 20
191.8307476715
  0
VERTEX
  8
0
 62
7
  6
CONTINUOUS
 10
-196.1110993985
 20
191.827175396
  0
VERTEX
  8
0
 62
7
  6
CONTINUOUS
 10
-196.1236534813
 20
191.801925066
  0
VERTEX
  8
0
 62
7
  6
CONTINUOUS
 10
-196.1423242185
 20
191.7641598271
  0
VERTEX
  8
0
 62
7
  6
CONTINUOUS
 10
-196.1651632272
 20
191.7175417172
  0
VERTEX
  8
0
 62
7
  6
CONTINUOUS
 10
-196.1880985002
 20
191.6701664367
  0
VERTEX
  8
0
 62
7
  6
CONTINUOUS
 10
-196.2129615493
 20
191.618096296
  0
VERTEX
  8
0
 62
7
  6
CONTINUOUS
 10
-196.2402740994
 20
191.5599573642
  0
VERTEX
  8
0
 62
7
  6
CONTINUOUS
 10
-196.2696945462
 20
191.496133114
  0
SEQEND
  0
LINE
  8
0
 62
7
  6
CONTINUOUS
 10
-162.4653561436
 20
40.5180293735
 11
-157.5165206289
 21
25.3750531054
  0
LINE
  8
0
 62
7
  6
CONTINUOUS
 10
-157.5165206289
 20
25.3750531054
 11
-152.024033933
 21
8.5197392995
  0
POLYLINE
  8
0
 62
7
  6
CONTINUOUS
 66
1
 70
0
  0
VERTEX
  8
0
 62
7
  6
CONTINUOUS
 10
-152.024033933
 20
8.5197392995
  0
VERTEX
  8
0
 62
7
  6
CONTINUOUS
 10
-150.1737656132
 20
2.8115826439
  0
VERTEX
  8
0
 62
7
  6
CONTINUOUS
 10
-148.3727466627
 20
-2.7571167331
  0
VERTEX
  8
0
 62
7
  6
CONTINUOUS
 10
-146.6404216038
 20
-8.12826293
  0
VERTEX
  8
0
 62
7
  6
CONTINUOUS
 10
-144.9930459652
 20
-13.2503726318
  0
VERTEX
  8
0
 62
7
  6
CONTINUOUS
 10
-143.4398974006
 20
-18.0935140812
  0
VERTEX
  8
0
 62
7
  6
CONTINUOUS
 10
-141.9780342894
 20
-22.6654528197
  0
SEQEND
  0
POLYLINE
  8
0
 62
7
  6
CONTINUOUS
 66
1
 70
0
  0
VERTEX
  8
0
 62
7
  6
CONTINUOUS
 10
-172.8760586647
 20
72.5929677589
  0
VERTEX
  8
0
 62
7
  6
CONTINUOUS
 10
-171.3328662164
 20
67.7913032319
  0
VERTEX
  8
0
 62
7
  6
CONTINUOUS
 10
-169.6653394922
 20
62.6277352549
  0
VERTEX
  8
0
 62
7
  6
CONTINUOUS
 10
-167.9510020706
 20
57.3418564167
  0
VERTEX
  8
0
 62
7
  6
CONTINUOUS
 10
-166.1734809727
 20
51.8789284177
  0
VERTEX
  8
0
 62
7
  6
CONTINUOUS
 10
-164.3078720126
 20
46.1583651983
  0
VERTEX
  8
0
 62
7
  6
CONTINUOUS
 10
-162.4653561436
 20
40.5180293735
  0
SEQEND
  0
POLYLINE
  8
0
 62
7
  6
CONTINUOUS
 66
1
 70
0
  0
VERTEX
  8
0
 62
7
  6
CONTINUOUS
 10
-141.9780342894
 20
-22.6654528197
  0
VERTEX
  8
0
 62
7
  6
CONTINUOUS
 10
-140.3398656826
 20
-27.8067108215
  0
VERTEX
  8
0
 62
7
  6
CONTINUOUS
 10
-138.5826824372
 20
-33.3452417052
  0
VERTEX
  8
0
 62
7
  6
CONTINUOUS
 10
-136.8606861702
 20
-38.796030151
  0
VERTEX
  8
0
 62
7
  6
CONTINUOUS
 10
-135.1411207664
 20
-44.2620551161
  0
VERTEX
  8
0
 62
7
  6
CONTINUOUS
 10
-133.3830136594
 20
-49.8738433586
  0
VERTEX
  8
0
 62
7
  6
CONTINUOUS
 10
-131.7331755612
 20
-55.1601947315
  0
SEQEND
  0
POLYLINE
  8
0
 62
7
  6
CONTINUOUS
 66
1
 70
0
  0
VERTEX
  8
0
 62
7
  6
CONTINUOUS
 10
-177.9795299157
 20
88.7065243847
  0
VERTEX
  8
0
 62
7
  6
CONTINUOUS
 10
-177.2292990299
 20
86.3105293016
  0
VERTEX
  8
0
 62
7
  6
CONTINUOUS
 10
-176.4029367003
 20
83.6832399432
  0
VERTEX
  8
0
 62
7
  6
CONTINUOUS
 10
-175.5507625226
 20
80.9860880924
  0
VERTEX
  8
0
 62
7
  6
CONTINUOUS
 10
-174.6713354329
 20
78.2149020325
  0
VERTEX
  8
0
 62
7
  6
CONTINUOUS
 10
-173.763617235
 20
75.3667249995
  0
VERTEX
  8
0
 62
7
  6
CONTINUOUS
 10
-172.8760586647
 20
72.5929677589
  0
SEQEND
  0
POLYLINE
  8
0
 62
7
  6
CONTINUOUS
 66
1
 70
0
  0
VERTEX
  8
0
 62
7
  6
CONTINUOUS
 10
-131.7331755612
 20
-55.1601947315
  0
VERTEX
  8
0
 62
7
  6
CONTINUOUS
 10
-131.0329590004
 20
-57.4098305424
  0
VERTEX
  8
0
 62
7
  6
CONTINUOUS
 10
-130.2493126444
 20
-59.9318672031
  0
VERTEX
  8
0
 62
7
  6
CONTINUOUS
 10
-129.4233930823
 20
-62.5951810526
  0
VERTEX
  8
0
 62
7
  6
CONTINUOUS
 10
-128.5608306846
 20
-65.3822592896
  0
VERTEX
  8
0
 62
7
  6
CONTINUOUS
 10
-127.6651478628
 20
-68.2824992724
  0
VERTEX
  8
0
 62
7
  6
CONTINUOUS
 10
-126.7733611708
 20
-71.1759608772
  0
SEQEND
  0
POLYLINE
  8
0
 62
7
  6
CONTINUOUS
 66
1
 70
0
  0
VERTEX
  8
0
 62
7
  6
CONTINUOUS
 10
-126.7733611708
 20
-71.1759608772
  0
VERTEX
  8
0
 62
7
  6
CONTINUOUS
 10
-125.9447233554
 20
-73.8690265106
  0
VERTEX
  8
0
 62
7
  6
CONTINUOUS
 10
-125.1066570954
 20
-76.5982230459
  0
VERTEX
  8
0
 62
7
  6
CONTINUOUS
 10
-124.2854274474
 20
-79.276181518
  0
VERTEX
  8
0
 62
7
  6
CONTINUOUS
 10
-123.486284859
 20
-81.8859613149
  0
VERTEX
  8
0
 62
7
  6
CONTINUOUS
 10
-122.7150329631
 20
-84.4091206165
  0
VERTEX
  8
0
 62
7
  6
CONTINUOUS
 10
-121.9938902098
 20
-86.772096565
  0
SEQEND
  0
POLYLINE
  8
0
 62
7
  6
CONTINUOUS
 66
1
 70
0
  0
VERTEX
  8
0
 62
7
  6
CONTINUOUS
 10
-121.9938902098
 20
-86.772096565
  0
VERTEX
  8
0
 62
7
  6
CONTINUOUS
 10
-120.2167893909
 20
-92.6072632736
  0
VERTEX
  8
0
 62
7
  6
CONTINUOUS
 10
-118.4539109583
 20
-98.4139585921
  0
VERTEX
  8
0
 62
7
  6
CONTINUOUS
 10
-116.7591316164
 20
-104.01120028
  0
VERTEX
  8
0
 62
7
  6
CONTINUOUS
 10
-115.1245550656
 20
-109.4221833381
  0
VERTEX
  8
0
 62
7
  6
CONTINUOUS
 10
-113.5443114424
 20
-114.664281441
  0
VERTEX
  8
0
 62
7
  6
CONTINUOUS
 10
-112.0604327721
 20
-119.5968154265
  0
SEQEND
  0
POLYLINE
  8
0
 62
7
  6
CONTINUOUS
 66
1
 70
0
  0
VERTEX
  8
0
 62
7
  6
CONTINUOUS
 10
-112.0604327721
 20
-119.5968154265
  0
VERTEX
  8
0
 62
7
  6
CONTINUOUS
 10
-110.6785314225
 20
-124.1975286147
  0
VERTEX
  8
0
 62
7
  6
CONTINUOUS
 10
-109.1567102164
 20
-129.2706543326
  0
VERTEX
  8
0
 62
7
  6
CONTINUOUS
 10
-107.5737092746
 20
-134.5586537501
  0
VERTEX
  8
0
 62
7
  6
CONTINUOUS
 10
-105.9119137411
 20
-140.1205186244
  0
VERTEX
  8
0
 62
7
  6
CONTINUOUS
 10
-104.1598058584
 20
-145.9935654115
  0
VERTEX
  8
0
 62
7
  6
CONTINUOUS
 10
-102.4152179736
 20
-151.850491992
  0
SEQEND
  0
LINE
  8
0
 62
7
  6
CONTINUOUS
 10
-102.4152179736
 20
-151.850491992
 11
-97.6395918603
 21
-167.9366791303
  0
LINE
  8
0
 62
7
  6
CONTINUOUS
 10
-97.6395918603
 20
-167.9366791303
 11
-92.8057083421
 21
-184.3188686528
  0
POLYLINE
  8
0
 62
7
  6
CONTINUOUS
 66
1
 70
0
  0
VERTEX
  8
0
 62
7
  6
CONTINUOUS
 10
-92.8057083421
 20
-184.3188686528
  0
VERTEX
  8
0
 62
7
  6
CONTINUOUS
 10
-91.4415051092
 20
-188.9650751768
  0
VERTEX
  8
0
 62
7
  6
CONTINUOUS
 10
-89.9612118607
 20
-194.0179838577
  0
VERTEX
  8
0
 62
7
  6
CONTINUOUS
 10
-88.4188220069
 20
-199.2938519441
  0
VERTEX
  8
0
 62
7
  6
CONTINUOUS
 10
-86.8007184487
 20
-204.8431672883
  0
VERTEX
  8
0
 62
7
  6
CONTINUOUS
 10
-85.1017367321
 20
-210.6892956522
  0
VERTEX
  8
0
 62
7
  6
CONTINUOUS
 10
-83.3890723238
 20
-216.607056355
  0
SEQEND
  0
POLYLINE
  8
0
 62
7
  6
CONTINUOUS
 66
1
 70
0
  0
VERTEX
  8
0
 62
7
  6
CONTINUOUS
 10
-83.3890723238
 20
-216.607056355
  0
VERTEX
  8
0
 62
7
  6
CONTINUOUS
 10
-82.7529797551
 20
-218.8129941679
  0
VERTEX
  8
0
 62
7
  6
CONTINUOUS
 10
-82.0297222388
 20
-221.327999457
  0
VERTEX
  8
0
 62
7
  6
CONTINUOUS
 10
-81.2772214276
 20
-223.9528350853
  0
VERTEX
  8
0
 62
7
  6
CONTINUOUS
 10
-80.4903981181
 20
-226.7063222808
  0
VERTEX
  8
0
 62
7
  6
CONTINUOUS
 10
-79.6641634816
 20
-229.607797241
  0
VERTEX
  8
0
 62
7
  6
CONTINUOUS
 10
-78.8598553066
 20
-232.4427158393
  0
SEQEND
  0
POLYLINE
  8
0
 62
7
  6
CONTINUOUS
 66
1
 70
0
  0
VERTEX
  8
0
 62
7
  6
CONTINUOUS
 10
-187.6852590844
 20
121.1934593104
  0
VERTEX
  8
0
 62
7
  6
CONTINUOUS
 10
-186.3262437286
 20
116.4224848972
  0
VERTEX
  8
0
 62
7
  6
CONTINUOUS
 10
-184.8310736613
 20
111.2754745203
  0
VERTEX
  8
0
 62
7
  6
CONTINUOUS
 10
-183.2472483266
 20
105.9254835548
  0
VERTEX
  8
0
 62
7
  6
CONTINUOUS
 10
-181.5705721978
 20
100.3594259218
  0
VERTEX
  8
0
 62
7
  6
CONTINUOUS
 10
-179.7967540072
 20
94.5630039071
  0
VERTEX
  8
0
 62
7
  6
CONTINUOUS
 10
-177.9795299157
 20
88.7065243847
  0
SEQEND
  0
POLYLINE
  8
0
 62
7
  6
CONTINUOUS
 66
1
 70
0
  0
VERTEX
  8
0
 62
7
  6
CONTINUOUS
 10
-78.8598553066
 20
-232.4427158393
  0
VERTEX
  8
0
 62
7
  6
CONTINUOUS
 10
-78.1054443169
 20
-235.1121420248
  0
VERTEX
  8
0
 62
7
  6
CONTINUOUS
 10
-77.3186612493
 20
-237.9071255163
  0
VERTEX
  8
0
 62
7
  6
CONTINUOUS
 10
-76.5466813182
 20
-240.6621079135
  0
VERTEX
  8
0
 62
7
  6
CONTINUOUS
 10
-75.7892424267
 20
-243.3778965816
  0
VERTEX
  8
0
 62
7
  6
CONTINUOUS
 10
-75.0459568835
 20
-246.0556431757
  0
VERTEX
  8
0
 62
7
  6
CONTINUOUS
 10
-74.3589840091
 20
-248.5427693471
  0
SEQEND
  0
POLYLINE
  8
0
 62
7
  6
CONTINUOUS
 66
1
 70
0
  0
VERTEX
  8
0
 62
7
  6
CONTINUOUS
 10
-74.3589840091
 20
-248.5427693471
  0
VERTEX
  8
0
 62
7
  6
CONTINUOUS
 10
-73.6305314384
 20
-251.1942296977
  0
VERTEX
  8
0
 62
7
  6
CONTINUOUS
 10
-72.8690742418
 20
-253.9816436288
  0
VERTEX
  8
0
 62
7
  6
CONTINUOUS
 10
-72.1225057934
 20
-256.7312429586
  0
VERTEX
  8
0
 62
7
  6
CONTINUOUS
 10
-71.3897990921
 20
-259.4468589279
  0
VERTEX
  8
0
 62
7
  6
CONTINUOUS
 10
-70.6692696031
 20
-262.1344287304
  0
VERTEX
  8
0
 62
7
  6
CONTINUOUS
 10
-70.0024388025
 20
-264.637615692
  0
SEQEND
  0
POLYLINE
  8
0
 62
7
  6
CONTINUOUS
 66
1
 70
0
  0
VERTEX
  8
0
 62
7
  6
CONTINUOUS
 10
-70.0024388025
 20
-264.637615692
  0
VERTEX
  8
0
 62
7
  6
CONTINUOUS
 10
-69.5654258401
 20
-266.2873404115
  0
VERTEX
  8
0
 62
7
  6
CONTINUOUS
 10
-69.0932793968
 20
-268.0778625403
  0
VERTEX
  8
0
 62
7
  6
CONTINUOUS
 10
-68.6965872886
 20
-269.5890610271
  0
SEQEND
  0
POLYLINE
  8
0
 62
7
  6
CONTINUOUS
 66
1
 70
0
  0
VERTEX
  8
0
 62
7
  6
CONTINUOUS
 10
-197.6336249566
 20
160.7613014736
  0
VERTEX
  8
0
 62
7
  6
CONTINUOUS
 10
-196.3563398345
 20
154.9684921962
  0
VERTEX
  8
0
 62
7
  6
CONTINUOUS
 10
-194.908849089
 20
148.7595452102
  0
VERTEX
  8
0
 62
7
  6
CONTINUOUS
 10
-193.3168990166
 20
142.2660619799
  0
VERTEX
  8
0
 62
7
  6
CONTINUOUS
 10
-191.5851698324
 20
135.5160419475
  0
VERTEX
  8
0
 62
7
  6
CONTINUOUS
 10
-189.6937839741
 20
128.4388960443
  0
VERTEX
  8
0
 62
7
  6
CONTINUOUS
 10
-187.6852590844
 20
121.1934593104
  0
SEQEND
  0
LINE
  8
0
 62
7
  6
CONTINUOUS
 10
-150.6224620357
 20
172.178184413
 11
-150.6224620357
 21
176.8290185241
  0
POLYLINE
  8
0
 62
7
  6
CONTINUOUS
 66
1
 70
0
  0
VERTEX
  8
0
 62
7
  6
CONTINUOUS
 10
-195.8114379947
 20
193.333245548
  0
VERTEX
  8
0
 62
7
  6
CONTINUOUS
 10
-196.0002331826
 20
193.0658751066
  0
VERTEX
  8
0
 62
7
  6
CONTINUOUS
 10
-196.1752041325
 20
192.7910207289
  0
VERTEX
  8
0
 62
7
  6
CONTINUOUS
 10
-196.3450351176
 20
192.4967556691
  0
VERTEX
  8
0
 62
7
  6
CONTINUOUS
 10
-196.5172698554
 20
192.171351574
  0
VERTEX
  8
0
 62
7
  6
CONTINUOUS
 10
-196.6948136283
 20
191.8060700078
  0
VERTEX
  8
0
 62
7
  6
CONTINUOUS
 10
-196.8808518248
 20
191.3889122989
  0
SEQEND
  0
POLYLINE
  8
0
 62
7
  6
CONTINUOUS
 66
1
 70
0
  0
VERTEX
  8
0
 62
7
  6
CONTINUOUS
 10
-193.8649767029
 20
194.9450757318
  0
VERTEX
  8
0
 62
7
  6
CONTINUOUS
 10
-195.1009822825
 20
193.5346627924
  0
VERTEX
  8
0
 62
7
  6
CONTINUOUS
 10
-195.3731077893
 20
193.1431069154
  0
SEQEND
  0
LINE
  8
0
 62
7
  6
CONTINUOUS
 10
455.5771620802
 20
572.6302794795
 11
455.3334486862
 21
572.5426387218
  0
POLYLINE
  8
0
 62
7
  6
CONTINUOUS
 66
1
 70
0
  0
VERTEX
  8
0
 62
7
  6
CONTINUOUS
 10
457.7981133427
 20
576.0277545442
  0
VERTEX
  8
0
 62
7
  6
CONTINUOUS
 10
458.3869672335
 20
576.2116572097
  0
VERTEX
  8
0
 62
7
  6
CONTINUOUS
 10
458.9440159945
 20
576.3781863747
  0
VERTEX
  8
0
 62
7
  6
CONTINUOUS
 10
459.4682875282
 20
576.5264207877
  0
VERTEX
  8
0
 62
7
  6
CONTINUOUS
 10
459.9626981276
 20
576.6591242031
  0
VERTEX
  8
0
 62
7
  6
CONTINUOUS
 10
460.4291671347
 20
576.778314348
  0
VERTEX
  8
0
 62
7
  6
CONTINUOUS
 10
460.8697133057
 20
576.8853080518
  0
VERTEX
  8
0
 62
7
  6
CONTINUOUS
 10
461.2862969987
 20
576.9817392814
  0
VERTEX
  8
0
 62
7
  6
CONTINUOUS
 10
461.68101275
 20
577.0686743516
  0
VERTEX
  8
0
 62
7
  6
CONTINUOUS
 10
462.0559070765
 20
577.1474419388
  0
VERTEX
  8
0
 62
7
  6
CONTINUOUS
 10
462.4130843943
 20
577.2188889262
  0
VERTEX
  8
0
 62
7
  6
CONTINUOUS
 10
462.7556796151
 20
577.2844663111
  0
VERTEX
  8
0
 62
7
  6
CONTINUOUS
 10
463.0826477683
 20
577.3436904279
  0
SEQEND
  0
POLYLINE
  8
0
 62
7
  6
CONTINUOUS
 66
1
 70
0
  0
VERTEX
  8
0
 62
7
  6
CONTINUOUS
 10
-198.4267975006
 20
177.3183036419
  0
VERTEX
  8
0
 62
7
  6
CONTINUOUS
 10
-198.1434933328
 20
176.7042935971
  0
VERTEX
  8
0
 62
7
  6
CONTINUOUS
 10
-197.7244286428
 20
176.1312887098
  0
VERTEX
  8
0
 62
7
  6
CONTINUOUS
 10
-197.1970584755
 20
175.6366664602
  0
VERTEX
  8
0
 62
7
  6
CONTINUOUS
 10
-196.6046171353
 20
175.2651577784
  0
VERTEX
  8
0
 62
7
  6
CONTINUOUS
 10
-195.9976340577
 20
175.0492138358
  0
VERTEX
  8
0
 62
7
  6
CONTINUOUS
 10
-195.4006276436
 20
175.0003032741
  0
SEQEND
  0
POLYLINE
  8
0
 62
7
  6
CONTINUOUS
 66
1
 70
0
  0
VERTEX
  8
0
 62
7
  6
CONTINUOUS
 10
-194.4077308963
 20
194.9257070603
  0
VERTEX
  8
0
 62
7
  6
CONTINUOUS
 10
-194.7082611751
 20
194.6250774688
  0
VERTEX
  8
0
 62
7
  6
CONTINUOUS
 10
-194.9559335163
 20
194.3565502203
  0
VERTEX
  8
0
 62
7
  6
CONTINUOUS
 10
-195.1760948847
 20
194.1082031975
  0
VERTEX
  8
0
 62
7
  6
CONTINUOUS
 10
-195.3987799267
 20
193.8494430772
  0
VERTEX
  8
0
 62
7
  6
CONTINUOUS
 10
-195.6101313495
 20
193.5933255332
  0
VERTEX
  8
0
 62
7
  6
CONTINUOUS
 10
-195.8114379947
 20
193.333245548
  0
SEQEND
  0
POLYLINE
  8
0
 62
7
  6
CONTINUOUS
 66
1
 70
0
  0
VERTEX
  8
0
 62
7
  6
CONTINUOUS
 10
-193.849201302
 20
195.3940167963
  0
VERTEX
  8
0
 62
7
  6
CONTINUOUS
 10
-194.125751378
 20
195.1707784016
  0
VERTEX
  8
0
 62
7
  6
CONTINUOUS
 10
-194.4077308963
 20
194.9257070603
  0
SEQEND
  0
POLYLINE
  8
0
 62
7
  6
CONTINUOUS
 66
1
 70
0
  0
VERTEX
  8
0
 62
7
  6
CONTINUOUS
 10
-193.0104748499
 20
195.6699826051
  0
VERTEX
  8
0
 62
7
  6
CONTINUOUS
 10
-193.047811253
 20
195.6404217533
  0
VERTEX
  8
0
 62
7
  6
CONTINUOUS
 10
-193.0719258378
 20
195.6211639909
  0
SEQEND
  0
POLYLINE
  8
0
 62
7
  6
CONTINUOUS
 66
1
 70
0
  0
VERTEX
  8
0
 62
7
  6
CONTINUOUS
 10
-192.7164408219
 20
195.8882616197
  0
VERTEX
  8
0
 62
7
  6
CONTINUOUS
 10
-192.7764471443
 20
195.8457943787
  0
VERTEX
  8
0
 62
7
  6
CONTINUOUS
 10
-192.8381710753
 20
195.8010534343
  0
VERTEX
  8
0
 62
7
  6
CONTINUOUS
 10
-192.9014033581
 20
195.7540214524
  0
VERTEX
  8
0
 62
7
  6
CONTINUOUS
 10
-192.9623090562
 20
195.7075422678
  0
VERTEX
  8
0
 62
7
  6
CONTINUOUS
 10
-193.0166954752
 20
195.665080282
  0
VERTEX
  8
0
 62
7
  6
CONTINUOUS
 10
-193.067654595
 20
195.6245824979
  0
SEQEND
  0
POLYLINE
  8
0
 62
7
  6
CONTINUOUS
 66
1
 70
0
  0
VERTEX
  8
0
 62
7
  6
CONTINUOUS
 10
-192.7087487991
 20
195.8936372322
  0
VERTEX
  8
0
 62
7
  6
CONTINUOUS
 10
-192.7625561323
 20
195.855711875
  0
VERTEX
  8
0
 62
7
  6
CONTINUOUS
 10
-192.8154564909
 20
195.8176491394
  0
VERTEX
  8
0
 62
7
  6
CONTINUOUS
 10
-192.8672254043
 20
195.7795967172
  0
VERTEX
  8
0
 62
7
  6
CONTINUOUS
 10
-192.9175740086
 20
195.741794
  0
VERTEX
  8
0
 62
7
  6
CONTINUOUS
 10
-192.9651472139
 20
195.7053483322
  0
SEQEND
  0
LINE
  8
0
 62
7
  6
CONTINUOUS
 10
-192.6557691381
 20
195.9302763084
 11
-192.7164408219
 21
195.8882616197
  0
LINE
  8
0
 62
7
  6
CONTINUOUS
 10
-192.6044652714
 20
195.9651737661
 11
-192.659986009
 21
195.9273836312
  0
LINE
  8
0
 62
7
  6
CONTINUOUS
 10
-192.5586546754
 20
195.9959254556
 11
-192.6078672203
 21
195.9628757
  0
POLYLINE
  8
0
 62
7
  6
CONTINUOUS
 66
1
 70
0
  0
VERTEX
  8
0
 62
7
  6
CONTINUOUS
 10
-192.4986682047
 20
196.0357653978
  0
VERTEX
  8
0
 62
7
  6
CONTINUOUS
 10
-192.5199734084
 20
196.0216537711
  0
VERTEX
  8
0
 62
7
  6
CONTINUOUS
 10
-192.5595355692
 20
195.9953372374
  0
SEQEND
  0
LINE
  8
0
 62
7
  6
CONTINUOUS
 10
-8.1819502476
 20
175.1271068142
 11
-8.1819502476
 21
172.178184413
  0
POLYLINE
  8
0
 62
7
  6
CONTINUOUS
 66
1
 70
0
  0
VERTEX
  8
0
 62
7
  6
CONTINUOUS
 10
-191.46008605
 20
196.6456084293
  0
VERTEX
  8
0
 62
7
  6
CONTINUOUS
 10
-191.5167511808
 20
196.6147651521
  0
VERTEX
  8
0
 62
7
  6
CONTINUOUS
 10
-191.5449188996
 20
196.5993075235
  0
SEQEND
  0
POLYLINE
  8
0
 62
7
  6
CONTINUOUS
 66
1
 70
0
  0
VERTEX
  8
0
 62
7
  6
CONTINUOUS
 10
-191.2939250214
 20
196.7340366784
  0
VERTEX
  8
0
 62
7
  6
CONTINUOUS
 10
-191.3468665173
 20
196.7061944582
  0
VERTEX
  8
0
 62
7
  6
CONTINUOUS
 10
-191.4022624936
 20
196.6767266979
  0
VERTEX
  8
0
 62
7
  6
CONTINUOUS
 10
-191.46008605
 20
196.6456084293
  0
SEQEND
  0
POLYLINE
  8
0
 62
7
  6
CONTINUOUS
 66
1
 70
0
  0
VERTEX
  8
0
 62
7
  6
CONTINUOUS
 10
-191.9902825309
 20
196.5634004119
  0
VERTEX
  8
0
 62
7
  6
CONTINUOUS
 10
-192.3946782357
 20
196.3558351217
  0
VERTEX
  8
0
 62
7
  6
CONTINUOUS
 10
-192.7986878917
 20
196.1240739511
  0
VERTEX
  8
0
 62
7
  6
CONTINUOUS
 10
-193.1758990721
 20
195.8838886311
  0
VERTEX
  8
0
 62
7
  6
CONTINUOUS
 10
-193.5277776836
 20
195.6374417642
  0
VERTEX
  8
0
 62
7
  6
CONTINUOUS
 10
-193.849201302
 20
195.3940167963
  0
SEQEND
  0
POLYLINE
  8
0
 62
7
  6
CONTINUOUS
 66
1
 70
0
  0
VERTEX
  8
0
 62
7
  6
CONTINUOUS
 10
-190.8985462973
 20
196.9320158274
  0
VERTEX
  8
0
 62
7
  6
CONTINUOUS
 10
-190.9387292398
 20
196.9127022948
  0
VERTEX
  8
0
 62
7
  6
CONTINUOUS
 10
-190.9778527408
 20
196.8937170322
  0
VERTEX
  8
0
 62
7
  6
CONTINUOUS
 10
-191.0157621518
 20
196.8751530918
  0
VERTEX
  8
0
 62
7
  6
CONTINUOUS
 10
-191.052414331
 20
196.8570501152
  0
VERTEX
  8
0
 62
7
  6
CONTINUOUS
 10
-191.0868514211
 20
196.8399047688
  0
VERTEX
  8
0
 62
7
  6
CONTINUOUS
 10
-191.1216717879
 20
196.8224364298
  0
VERTEX
  8
0
 62
7
  6
CONTINUOUS
 10
-191.1588053678
 20
196.8036616025
  0
VERTEX
  8
0
 62
7
  6
CONTINUOUS
 10
-191.1991521326
 20
196.7830877862
  0
VERTEX
  8
0
 62
7
  6
CONTINUOUS
 10
-191.2446068383
 20
196.759689015
  0
VERTEX
  8
0
 62
7
  6
CONTINUOUS
 10
-191.2939250214
 20
196.7340366784
  0
SEQEND
  0
LINE
  8
0
 62
7
  6
CONTINUOUS
 10
-190.8571942444
 20
196.9516918846
 11
-190.8985462973
 21
196.9320158274
  0
LINE
  8
0
 62
7
  6
CONTINUOUS
 10
-191.6027844379
 20
196.7416447762
 11
-191.9902825309
 21
196.5634004119
  0
POLYLINE
  8
0
 62
7
  6
CONTINUOUS
 66
1
 70
0
  0
VERTEX
  8
0
 62
7
  6
CONTINUOUS
 10
-190.4526991096
 20
197.1334030506
  0
VERTEX
  8
0
 62
7
  6
CONTINUOUS
 10
-190.4939812152
 20
197.1157280428
  0
VERTEX
  8
0
 62
7
  6
CONTINUOUS
 10
-190.5346442657
 20
197.0981312632
  0
VERTEX
  8
0
 62
7
  6
CONTINUOUS
 10
-190.5748338299
 20
197.0805548418
  0
VERTEX
  8
0
 62
7
  6
CONTINUOUS
 10
-190.6145958688
 20
197.0629824702
  0
VERTEX
  8
0
 62
7
  6
CONTINUOUS
 10
-190.6541921093
 20
197.0452998058
  0
VERTEX
  8
0
 62
7
  6
CONTINUOUS
 10
-190.6937937188
 20
197.027428628
  0
VERTEX
  8
0
 62
7
  6
CONTINUOUS
 10
-190.7337056366
 20
197.0092266078
  0
VERTEX
  8
0
 62
7
  6
CONTINUOUS
 10
-190.7743950118
 20
196.990472178
  0
VERTEX
  8
0
 62
7
  6
CONTINUOUS
 10
-190.8155227124
 20
196.9713126916
  0
VERTEX
  8
0
 62
7
  6
CONTINUOUS
 10
-190.8571942444
 20
196.9516918846
  0
SEQEND
  0
LINE
  8
0
 62
7
  6
CONTINUOUS
 10
6.8180497524
 20
172.178184413
 11
6.8180497524
 21
174.9132254891
  0
POLYLINE
  8
0
 62
7
  6
CONTINUOUS
 66
1
 70
0
  0
VERTEX
  8
0
 62
7
  6
CONTINUOUS
 10
-190.3683604449
 20
197.1689291055
  0
VERTEX
  8
0
 62
7
  6
CONTINUOUS
 10
-190.4108298902
 20
197.1511367683
  0
VERTEX
  8
0
 62
7
  6
CONTINUOUS
 10
-190.4526991096
 20
197.1334030506
  0
SEQEND
  0
LINE
  8
0
 62
7
  6
CONTINUOUS
 10
-191.2619711566
 20
196.8831600795
 11
-191.6027844379
 21
196.7416447762
  0
POLYLINE
  8
0
 62
7
  6
CONTINUOUS
 66
1
 70
0
  0
VERTEX
  8
0
 62
7
  6
CONTINUOUS
 10
-190.8135028407
 20
197.0492692241
  0
VERTEX
  8
0
 62
7
  6
CONTINUOUS
 10
-191.0086579999
 20
196.9796655884
  0
VERTEX
  8
0
 62
7
  6
CONTINUOUS
 10
-191.2619711566
 20
196.8831600795
  0
SEQEND
  0
POLYLINE
  8
0
 62
7
  6
CONTINUOUS
 66
1
 70
0
  0
VERTEX
  8
0
 62
7
  6
CONTINUOUS
 10
-189.6643769427
 20
197.4374362285
  0
VERTEX
  8
0
 62
7
  6
CONTINUOUS
 10
-189.714432356
 20
197.4198704319
  0
VERTEX
  8
0
 62
7
  6
CONTINUOUS
 10
-189.7641357218
 20
197.4022122105
  0
VERTEX
  8
0
 62
7
  6
CONTINUOUS
 10
-189.8134689479
 20
197.384469135
  0
VERTEX
  8
0
 62
7
  6
CONTINUOUS
 10
-189.8624122711
 20
197.3666497761
  0
VERTEX
  8
0
 62
7
  6
CONTINUOUS
 10
-189.9109471494
 20
197.3487626766
  0
VERTEX
  8
0
 62
7
  6
CONTINUOUS
 10
-189.9590533637
 20
197.3308174186
  0
VERTEX
  8
0
 62
7
  6
CONTINUOUS
 10
-190.0067163302
 20
197.3128218897
  0
VERTEX
  8
0
 62
7
  6
CONTINUOUS
 10
-190.0539022126
 20
197.2947917274
  0
VERTEX
  8
0
 62
7
  6
CONTINUOUS
 10
-190.1005868795
 20
197.2767395035
  0
VERTEX
  8
0
 62
7
  6
CONTINUOUS
 10
-190.1467286778
 20
197.2586852718
  0
VERTEX
  8
0
 62
7
  6
CONTINUOUS
 10
-190.1922819674
 20
197.2406515697
  0
VERTEX
  8
0
 62
7
  6
CONTINUOUS
 10
-190.2372370597
 20
197.2226473864
  0
VERTEX
  8
0
 62
7
  6
CONTINUOUS
 10
-190.2815682831
 20
197.2046884912
  0
VERTEX
  8
0
 62
7
  6
CONTINUOUS
 10
-190.3252796667
 20
197.186778976
  0
VERTEX
  8
0
 62
7
  6
CONTINUOUS
 10
-190.3683604449
 20
197.1689291055
  0
SEQEND
  0
POLYLINE
  8
0
 62
7
  6
CONTINUOUS
 66
1
 70
0
  0
VERTEX
  8
0
 62
7
  6
CONTINUOUS
 10
-190.4520820506
 20
197.168217772
  0
VERTEX
  8
0
 62
7
  6
CONTINUOUS
 10
-190.5457222512
 20
197.1385447538
  0
VERTEX
  8
0
 62
7
  6
CONTINUOUS
 10
-190.6621518064
 20
197.1005720372
  0
VERTEX
  8
0
 62
7
  6
CONTINUOUS
 10
-190.8135028407
 20
197.0492692241
  0
SEQEND
  0
POLYLINE
  8
0
 62
7
  6
CONTINUOUS
 66
1
 70
0
  0
VERTEX
  8
0
 62
7
  6
CONTINUOUS
 10
-189.155257209
 20
197.6045405775
  0
VERTEX
  8
0
 62
7
  6
CONTINUOUS
 10
-189.20644891
 20
197.588631861
  0
VERTEX
  8
0
 62
7
  6
CONTINUOUS
 10
-189.2575907219
 20
197.5725494026
  0
VERTEX
  8
0
 62
7
  6
CONTINUOUS
 10
-189.3086241316
 20
197.5563087349
  0
VERTEX
  8
0
 62
7
  6
CONTINUOUS
 10
-189.3596013385
 20
197.5398903864
  0
VERTEX
  8
0
 62
7
  6
CONTINUOUS
 10
-189.4105551614
 20
197.5232804043
  0
VERTEX
  8
0
 62
7
  6
CONTINUOUS
 10
-189.4614830743
 20
197.506476007
  0
VERTEX
  8
0
 62
7
  6
CONTINUOUS
 10
-189.5124338373
 20
197.4894571684
  0
VERTEX
  8
0
 62
7
  6
CONTINUOUS
 10
-189.563285473
 20
197.4722610935
  0
VERTEX
  8
0
 62
7
  6
CONTINUOUS
 10
-189.6139591353
 20
197.4549122069
  0
VERTEX
  8
0
 62
7
  6
CONTINUOUS
 10
-189.6643769427
 20
197.4374362285
  0
SEQEND
  0
LINE
  8
0
 62
7
  6
CONTINUOUS
 10
-190.3763439938
 20
197.1917102477
 11
-190.4520820506
 21
197.168217772
  0
LINE
  8
0
 62
7
  6
CONTINUOUS
 10
-190.3107487932
 20
197.2117359845
 11
-190.3763439938
 21
197.1917102477
  0
POLYLINE
  8
0
 62
7
  6
CONTINUOUS
 66
1
 70
0
  0
VERTEX
  8
0
 62
7
  6
CONTINUOUS
 10
-190.1248042577
 20
197.2672637966
  0
VERTEX
  8
0
 62
7
  6
CONTINUOUS
 10
-190.1362239939
 20
197.263920815
  0
VERTEX
  8
0
 62
7
  6
CONTINUOUS
 10
-190.1978303955
 20
197.2456510759
  0
VERTEX
  8
0
 62
7
  6
CONTINUOUS
 10
-190.2518494585
 20
197.2295025732
  0
VERTEX
  8
0
 62
7
  6
CONTINUOUS
 10
-190.3107487932
 20
197.2117359845
  0
SEQEND
  0
POLYLINE
  8
0
 62
7
  6
CONTINUOUS
 66
1
 70
0
  0
VERTEX
  8
0
 62
7
  6
CONTINUOUS
 10
-90.0627952142
 20
201.0549206734
  0
VERTEX
  8
0
 62
7
  6
CONTINUOUS
 10
-90.075923892
 20
201.0669995793
  0
VERTEX
  8
0
 62
7
  6
CONTINUOUS
 10
-90.0879350214
 20
201.079471631
  0
VERTEX
  8
0
 62
7
  6
CONTINUOUS
 10
-90.0993679654
 20
201.0924537516
  0
VERTEX
  8
0
 62
7
  6
CONTINUOUS
 10
-90.1097038877
 20
201.1052144931
  0
VERTEX
  8
0
 62
7
  6
CONTINUOUS
 10
-90.1185528525
 20
201.1170020534
  0
VERTEX
  8
0
 62
7
  6
CONTINUOUS
 10
-90.1265167296
 20
201.1283943619
  0
VERTEX
  8
0
 62
7
  6
CONTINUOUS
 10
-90.1338241482
 20
201.1396102897
  0
VERTEX
  8
0
 62
7
  6
CONTINUOUS
 10
-90.1406777334
 20
201.1509193545
  0
VERTEX
  8
0
 62
7
  6
CONTINUOUS
 10
-90.1473098777
 20
201.1627797743
  0
VERTEX
  8
0
 62
7
  6
CONTINUOUS
 10
-90.1534078883
 20
201.1747484926
  0
VERTEX
  8
0
 62
7
  6
CONTINUOUS
 10
-90.1588065805
 20
201.1865300714
  0
VERTEX
  8
0
 62
7
  6
CONTINUOUS
 10
-90.1635467135
 20
201.1982149666
  0
VERTEX
  8
0
 62
7
  6
CONTINUOUS
 10
-90.1676169174
 20
201.2097966337
  0
VERTEX
  8
0
 62
7
  6
CONTINUOUS
 10
-90.17100543
 20
201.2212684324
  0
VERTEX
  8
0
 62
7
  6
CONTINUOUS
 10
-90.1736999452
 20
201.2326232416
  0
VERTEX
  8
0
 62
7
  6
CONTINUOUS
 10
-90.1756876439
 20
201.2438534455
  0
VERTEX
  8
0
 62
7
  6
CONTINUOUS
 10
-90.1769552359
 20
201.2549510565
  0
VERTEX
  8
0
 62
7
  6
CONTINUOUS
 10
-90.1774889424
 20
201.2659073275
  0
VERTEX
  8
0
 62
7
  6
CONTINUOUS
 10
-90.1772745822
 20
201.2767132477
  0
VERTEX
  8
0
 62
7
  6
CONTINUOUS
 10
-90.1762976159
 20
201.2873587193
  0
VERTEX
  8
0
 62
7
  6
CONTINUOUS
 10
-90.1745431803
 20
201.2978335532
  0
VERTEX
  8
0
 62
7
  6
CONTINUOUS
 10
-90.1719963565
 20
201.3081260551
  0
VERTEX
  8
0
 62
7
  6
CONTINUOUS
 10
-90.1686419795
 20
201.3182247086
  0
VERTEX
  8
0
 62
7
  6
CONTINUOUS
 10
-90.1644654181
 20
201.328115945
  0
VERTEX
  8
0
 62
7
  6
CONTINUOUS
 10
-90.1594519262
 20
201.337786651
  0
VERTEX
  8
0
 62
7
  6
CONTINUOUS
 10
-90.1535880562
 20
201.3472214801
  0
VERTEX
  8
0
 62
7
  6
CONTINUOUS
 10
-90.1468616141
 20
201.3564042266
  0
VERTEX
  8
0
 62
7
  6
CONTINUOUS
 10
-90.1392578449
 20
201.36532246
  0
VERTEX
  8
0
 62
7
  6
CONTINUOUS
 10
-90.1321924197
 20
201.3725892287
  0
SEQEND
  0
LINE
  8
0
 62
7
  6
CONTINUOUS
 10
456.3470791963
 20
576.2052010837
 11
453.5083268053
 21
572.5426387218
  0
POLYLINE
  8
0
 62
7
  6
CONTINUOUS
 66
1
 70
0
  0
VERTEX
  8
0
 62
7
  6
CONTINUOUS
 10
250.9996350226
 20
185.8409266328
  0
VERTEX
  8
0
 62
7
  6
CONTINUOUS
 10
252.5505122322
 20
186.5767134529
  0
VERTEX
  8
0
 62
7
  6
CONTINUOUS
 10
253.8755388756
 20
187.5442738661
  0
VERTEX
  8
0
 62
7
  6
CONTINUOUS
 10
254.9899593406
 20
188.7670962741
  0
VERTEX
  8
0
 62
7
  6
CONTINUOUS
 10
255.8480404643
 20
190.1747154717
  0
VERTEX
  8
0
 62
7
  6
CONTINUOUS
 10
256.4128965558
 20
191.7232283526
  0
VERTEX
  8
0
 62
7
  6
CONTINUOUS
 10
256.6732295861
 20
193.3564370218
  0
VERTEX
  8
0
 62
7
  6
CONTINUOUS
 10
256.6857944297
 20
193.8553176314
  0
SEQEND
  0
POLYLINE
  8
0
 62
7
  6
CONTINUOUS
 66
1
 70
0
  0
VERTEX
  8
0
 62
7
  6
CONTINUOUS
 10
253.5982463327
 20
196.1065759726
  0
VERTEX
  8
0
 62
7
  6
CONTINUOUS
 10
254.0182324865
 20
196.2945409977
  0
VERTEX
  8
0
 62
7
  6
CONTINUOUS
 10
254.4032616343
 20
196.5445914369
  0
SEQEND
  0
LINE
  8
0
 62
7
  6
CONTINUOUS
 10
250.9996350226
 20
184.6105919715
 11
246.7529461204
 21
183.1207690214
  0
LINE
  8
0
 62
7
  6
CONTINUOUS
 10
246.7529461204
 20
184.3537476578
 11
250.9996350226
 21
185.8409266328
  0
LINE
  8
0
 62
7
  6
CONTINUOUS
 10
253.6003121894
 20
196.1072937786
 11
209.9202818141
 21
180.928803643
  0
POLYLINE
  8
0
 62
7
  6
CONTINUOUS
 66
1
 70
0
  0
VERTEX
  8
0
 62
7
  6
CONTINUOUS
 10
-90.8888338445
 20
201.3570345642
  0
VERTEX
  8
0
 62
7
  6
CONTINUOUS
 10
-90.8890074004
 20
201.3570745689
  0
VERTEX
  8
0
 62
7
  6
CONTINUOUS
 10
-90.8808816563
 20
201.3555177971
  0
VERTEX
  8
0
 62
7
  6
CONTINUOUS
 10
-90.8573199677
 20
201.3508631319
  0
VERTEX
  8
0
 62
7
  6
CONTINUOUS
 10
-90.8278454417
 20
201.3447107311
  0
VERTEX
  8
0
 62
7
  6
CONTINUOUS
 10
-90.799242166
 20
201.3384156684
  0
VERTEX
  8
0
 62
7
  6
CONTINUOUS
 10
-90.7677934365
 20
201.3311543313
  0
VERTEX
  8
0
 62
7
  6
CONTINUOUS
 10
-90.7355352737
 20
201.3233468711
  0
VERTEX
  8
0
 62
7
  6
CONTINUOUS
 10
-90.7022836181
 20
201.3149173522
  0
VERTEX
  8
0
 62
7
  6
CONTINUOUS
 10
-90.6683338566
 20
201.3058982337
  0
VERTEX
  8
0
 62
7
  6
CONTINUOUS
 10
-90.6340582326
 20
201.296342089
  0
VERTEX
  8
0
 62
7
  6
CONTINUOUS
 10
-90.5987556952
 20
201.2860090576
  0
VERTEX
  8
0
 62
7
  6
CONTINUOUS
 10
-90.5620540068
 20
201.2747589525
  0
VERTEX
  8
0
 62
7
  6
CONTINUOUS
 10
-90.5253498388
 20
201.2629984565
  0
VERTEX
  8
0
 62
7
  6
CONTINUOUS
 10
-90.4895650284
 20
201.2510382276
  0
VERTEX
  8
0
 62
7
  6
CONTINUOUS
 10
-90.4548227782
 20
201.2389486681
  0
VERTEX
  8
0
 62
7
  6
CONTINUOUS
 10
-90.4214210403
 20
201.2268662617
  0
VERTEX
  8
0
 62
7
  6
CONTINUOUS
 10
-90.3892138595
 20
201.2147706913
  0
VERTEX
  8
0
 62
7
  6
CONTINUOUS
 10
-90.3580940641
 20
201.2026464867
  0
VERTEX
  8
0
 62
7
  6
CONTINUOUS
 10
-90.3280605677
 20
201.1905137485
  0
VERTEX
  8
0
 62
7
  6
CONTINUOUS
 10
-90.2990221791
 20
201.1783523192
  0
VERTEX
  8
0
 62
7
  6
CONTINUOUS
 10
-90.2710836145
 20
201.1662212176
  0
VERTEX
  8
0
 62
7
  6
CONTINUOUS
 10
-90.244281698
 20
201.1541529606
  0
VERTEX
  8
0
 62
7
  6
CONTINUOUS
 10
-90.2186906961
 20
201.1421982175
  0
VERTEX
  8
0
 62
7
  6
CONTINUOUS
 10
-90.1944868251
 20
201.1304604719
  0
VERTEX
  8
0
 62
7
  6
CONTINUOUS
 10
-90.1713302302
 20
201.1187886967
  0
VERTEX
  8
0
 62
7
  6
CONTINUOUS
 10
-90.1481087734
 20
201.106585502
  0
VERTEX
  8
0
 62
7
  6
CONTINUOUS
 10
-90.1274863621
 20
201.0952552925
  0
VERTEX
  8
0
 62
7
  6
CONTINUOUS
 10
-90.1134487092
 20
201.0872309273
  0
VERTEX
  8
0
 62
7
  6
CONTINUOUS
 10
-90.0996168015
 20
201.0790134899
  0
VERTEX
  8
0
 62
7
  6
CONTINUOUS
 10
-90.0811478701
 20
201.0674989938
  0
VERTEX
  8
0
 62
7
  6
CONTINUOUS
 10
-90.0615150133
 20
201.0538545742
  0
SEQEND
  0
POLYLINE
  8
0
 62
7
  6
CONTINUOUS
 66
1
 70
0
  0
VERTEX
  8
0
 62
7
  6
CONTINUOUS
 10
455.7963171656
 20
572.6303114448
  0
VERTEX
  8
0
 62
7
  6
CONTINUOUS
 10
456.1282893755
 20
573.1985175887
  0
VERTEX
  8
0
 62
7
  6
CONTINUOUS
 10
456.4609307504
 20
573.7659458835
  0
VERTEX
  8
0
 62
7
  6
CONTINUOUS
 10
456.7942459501
 20
574.3326042056
  0
VERTEX
  8
0
 62
7
  6
CONTINUOUS
 10
457.1282209951
 20
574.8984689253
  0
VERTEX
  8
0
 62
7
  6
CONTINUOUS
 10
457.462841906
 20
575.4635164126
  0
VERTEX
  8
0
 62
7
  6
CONTINUOUS
 10
457.7981133427
 20
576.0277545442
  0
SEQEND
  0
POLYLINE
  8
0
 62
7
  6
CONTINUOUS
 66
1
 70
0
  0
VERTEX
  8
0
 62
7
  6
CONTINUOUS
 10
457.5117611287
 20
576.2052023766
  0
VERTEX
  8
0
 62
7
  6
CONTINUOUS
 10
457.1464764573
 20
575.597459902
  0
VERTEX
  8
0
 62
7
  6
CONTINUOUS
 10
456.7820827699
 20
574.9886400687
  0
VERTEX
  8
0
 62
7
  6
CONTINUOUS
 10
456.4185781398
 20
574.3787396533
  0
VERTEX
  8
0
 62
7
  6
CONTINUOUS
 10
456.0559683469
 20
573.7677683258
  0
VERTEX
  8
0
 62
7
  6
CONTINUOUS
 10
455.6942591713
 20
573.1557357564
  0
VERTEX
  8
0
 62
7
  6
CONTINUOUS
 10
455.3334486862
 20
572.5426387218
  0
SEQEND
  0
POLYLINE
  8
0
 62
7
  6
CONTINUOUS
 66
1
 70
0
  0
VERTEX
  8
0
 62
7
  6
CONTINUOUS
 10
254.4032616343
 20
196.5445914369
  0
VERTEX
  8
0
 62
7
  6
CONTINUOUS
 10
254.7375336133
 20
196.8358814696
  0
VERTEX
  8
0
 62
7
  6
CONTINUOUS
 10
255.0189577728
 20
197.1583576282
  0
VERTEX
  8
0
 62
7
  6
CONTINUOUS
 10
255.2452593484
 20
197.505884238
  0
VERTEX
  8
0
 62
7
  6
CONTINUOUS
 10
255.4125082733
 20
197.8712659108
  0
VERTEX
  8
0
 62
7
  6
CONTINUOUS
 10
255.5237904531
 20
198.2471142723
  0
SEQEND
  0
POLYLINE
  8
0
 62
7
  6
CONTINUOUS
 66
1
 70
0
  0
VERTEX
  8
0
 62
7
  6
CONTINUOUS
 10
-191.2040074134
 20
169.1749786611
  0
VERTEX
  8
0
 62
7
  6
CONTINUOUS
 10
-191.5866271239
 20
169.1635999198
  0
VERTEX
  8
0
 62
7
  6
CONTINUOUS
 10
-191.9679455352
 20
169.1427504869
  0
VERTEX
  8
0
 62
7
  6
CONTINUOUS
 10
-192.3480563862
 20
169.1115566264
  0
VERTEX
  8
0
 62
7
  6
CONTINUOUS
 10
-192.7227193654
 20
169.069544529
  0
VERTEX
  8
0
 62
7
  6
CONTINUOUS
 10
-193.0878636428
 20
169.0166075191
  0
VERTEX
  8
0
 62
7
  6
CONTINUOUS
 10
-193.4446514742
 20
168.9520632566
  0
VERTEX
  8
0
 62
7
  6
CONTINUOUS
 10
-193.7929663343
 20
168.8752970542
  0
VERTEX
  8
0
 62
7
  6
CONTINUOUS
 10
-194.1322849884
 20
168.7857264546
  0
VERTEX
  8
0
 62
7
  6
CONTINUOUS
 10
-194.4623269496
 20
168.6826382805
  0
VERTEX
  8
0
 62
7
  6
CONTINUOUS
 10
-194.7819396414
 20
168.5655547108
  0
VERTEX
  8
0
 62
7
  6
CONTINUOUS
 10
-195.0906762144
 20
168.433811438
  0
VERTEX
  8
0
 62
7
  6
CONTINUOUS
 10
-195.3864836026
 20
168.2875403189
  0
VERTEX
  8
0
 62
7
  6
CONTINUOUS
 10
-195.6679203045
 20
168.1269150782
  0
VERTEX
  8
0
 62
7
  6
CONTINUOUS
 10
-195.9339444603
 20
167.9521623971
  0
VERTEX
  8
0
 62
7
  6
CONTINUOUS
 10
-196.1836754012
 20
167.7636653997
  0
VERTEX
  8
0
 62
7
  6
CONTINUOUS
 10
-196.4163162745
 20
167.562047002
  0
VERTEX
  8
0
 62
7
  6
CONTINUOUS
 10
-196.6311013286
 20
167.3482971617
  0
VERTEX
  8
0
 62
7
  6
CONTINUOUS
 10
-196.8283185151
 20
167.122719138
  0
VERTEX
  8
0
 62
7
  6
CONTINUOUS
 10
-197.0078892863
 20
166.8862113485
  0
VERTEX
  8
0
 62
7
  6
CONTINUOUS
 10
-197.1707144194
 20
166.6384378049
  0
VERTEX
  8
0
 62
7
  6
CONTINUOUS
 10
-197.3173634207
 20
166.3791962396
  0
VERTEX
  8
0
 62
7
  6
CONTINUOUS
 10
-197.4481535839
 20
166.1085003952
  0
VERTEX
  8
0
 62
7
  6
CONTINUOUS
 10
-197.5634338218
 20
165.8261214351
  0
VERTEX
  8
0
 62
7
  6
CONTINUOUS
 10
-197.6633026817
 20
165.5322870528
  0
VERTEX
  8
0
 62
7
  6
CONTINUOUS
 10
-197.7479584142
 20
165.2269277696
  0
VERTEX
  8
0
 62
7
  6
CONTINUOUS
 10
-197.8174276983
 20
164.9106819813
  0
VERTEX
  8
0
 62
7
  6
CONTINUOUS
 10
-197.8718655824
 20
164.5840367224
  0
VERTEX
  8
0
 62
7
  6
CONTINUOUS
 10
-197.9114640706
 20
164.2476775342
  0
VERTEX
  8
0
 62
7
  6
CONTINUOUS
 10
-197.9364907722
 20
163.9023748598
  0
VERTEX
  8
0
 62
7
  6
CONTINUOUS
 10
-197.9472945799
 20
163.5487053482
  0
VERTEX
  8
0
 62
7
  6
CONTINUOUS
 10
-197.9442648421
 20
163.1874049115
  0
VERTEX
  8
0
 62
7
  6
CONTINUOUS
 10
-197.9278296437
 20
162.8189915079
  0
VERTEX
  8
0
 62
7
  6
CONTINUOUS
 10
-197.8984393246
 20
162.4441130814
  0
VERTEX
  8
0
 62
7
  6
CONTINUOUS
 10
-197.8565386018
 20
162.0631851575
  0
VERTEX
  8
0
 62
7
  6
CONTINUOUS
 10
-197.8025743133
 20
161.6766296017
  0
VERTEX
  8
0
 62
7
  6
CONTINUOUS
 10
-197.7370343291
 20
161.2850805589
  0
VERTEX
  8
0
 62
7
  6
CONTINUOUS
 10
-197.6604254124
 20
160.8891463058
  0
VERTEX
  8
0
 62
7
  6
CONTINUOUS
 10
-197.6336684256
 20
160.7616686669
  0
SEQEND
  0
POLYLINE
  8
0
 62
7
  6
CONTINUOUS
 66
1
 70
0
  0
VERTEX
  8
0
 62
7
  6
CONTINUOUS
 10
-150.622261124
 20
176.8174082734
  0
VERTEX
  8
0
 62
7
  6
CONTINUOUS
 10
-148.4471825756
 20
176.8550473293
  0
VERTEX
  8
0
 62
7
  6
CONTINUOUS
 10
-138.5947399296
 20
176.9083597698
  0
SEQEND
  0
LINE
  8
0
 62
7
  6
CONTINUOUS
 10
-191.0549384422
 20
169.1770652546
 11
-191.2040074134
 21
169.1749786611
  0
POLYLINE
  8
0
 62
7
  6
CONTINUOUS
 66
1
 70
0
  0
VERTEX
  8
0
 62
7
  6
CONTINUOUS
 10
-191.0380546969
 20
169.1773309783
  0
VERTEX
  8
0
 62
7
  6
CONTINUOUS
 10
-191.0882418401
 20
169.176761632
  0
VERTEX
  8
0
 62
7
  6
CONTINUOUS
 10
-191.1350308966
 20
169.1761225109
  0
VERTEX
  8
0
 62
7
  6
CONTINUOUS
 10
-191.219133875
 20
169.1746979086
  0
SEQEND
  0
LINE
  8
0
 62
7
  6
CONTINUOUS
 10
-190.9862494551
 20
169.1777973435
 11
-191.0380546969
 21
169.1773309783
  0
LINE
  8
0
 62
7
  6
CONTINUOUS
 10
-190.9333964303
 20
169.1781514145
 11
-190.9862494551
 21
169.1777973435
  0
LINE
  8
0
 62
7
  6
CONTINUOUS
 10
-190.8803281347
 20
169.1783891015
 11
-190.9333964303
 21
169.1781514145
  0
LINE
  8
0
 62
7
  6
CONTINUOUS
 10
-190.8154199592
 20
169.1785293029
 11
-190.8803281347
 21
169.1783891015
  0
POLYLINE
  8
0
 62
7
  6
CONTINUOUS
 66
1
 70
0
  0
VERTEX
  8
0
 62
7
  6
CONTINUOUS
 10
-190.7932433466
 20
169.1783063595
  0
VERTEX
  8
0
 62
7
  6
CONTINUOUS
 10
-190.9102277033
 20
169.1780748868
  0
VERTEX
  8
0
 62
7
  6
CONTINUOUS
 10
-191.0549384422
 20
169.1770652546
  0
SEQEND
  0
LINE
  8
0
 62
7
  6
CONTINUOUS
 10
-190.2393575476
 20
169.1784724702
 11
-190.4029703113
 21
169.178184413
  0
LINE
  8
0
 62
7
  6
CONTINUOUS
 10
-190.325001304
 20
169.1782520776
 11
-190.5529446915
 21
169.1780200238
  0
LINE
  8
0
 62
7
  6
CONTINUOUS
 10
-190.5538938352
 20
169.178184413
 11
-190.7955070016
 21
169.178184413
  0
LINE
  8
0
 62
7
  6
CONTINUOUS
 10
-189.6830709634
 20
169.178184413
 11
416.9453608457
 21
169.178184413
  0
LINE
  8
0
 62
7
  6
CONTINUOUS
 10
-190.1120296367
 20
169.1785410757
 11
-190.2393575476
 21
169.1784724702
  0
LINE
  8
0
 62
7
  6
CONTINUOUS
 10
411.2766206711
 20
181.660949068
 11
549.9713121723
 21
181.660949068
  0
POLYLINE
  8
0
 62
7
  6
CONTINUOUS
 66
1
 70
0
  0
VERTEX
  8
0
 62
7
  6
CONTINUOUS
 10
-189.6844793612
 20
169.1781066044
  0
VERTEX
  8
0
 62
7
  6
CONTINUOUS
 10
-189.8933731098
 20
169.1782129806
  0
VERTEX
  8
0
 62
7
  6
CONTINUOUS
 10
-190.1218077317
 20
169.1783154909
  0
VERTEX
  8
0
 62
7
  6
CONTINUOUS
 10
-190.325001304
 20
169.1782520776
  0
SEQEND
  0
LINE
  8
0
 62
7
  6
CONTINUOUS
 10
159.2089999341
 20
172.7403202658
 11
-127.2305183403
 21
176.8245976489
  0
POLYLINE
  8
0
 62
7
  6
CONTINUOUS
 66
1
 70
0
  0
VERTEX
  8
0
 62
7
  6
CONTINUOUS
 10
-52.9604487237
 20
201.91954438
  0
VERTEX
  8
0
 62
7
  6
CONTINUOUS
 10
-53.4831783724
 20
201.9429256601
  0
VERTEX
  8
0
 62
7
  6
CONTINUOUS
 10
-54.2379171069
 20
201.9790426718
  0
VERTEX
  8
0
 62
7
  6
CONTINUOUS
 10
-55.1510152497
 20
202.0233824736
  0
VERTEX
  8
0
 62
7
  6
CONTINUOUS
 10
-56.3429363353
 20
202.0781079895
  0
VERTEX
  8
0
 62
7
  6
CONTINUOUS
 10
-57.6500173562
 20
202.1297945818
  0
VERTEX
  8
0
 62
7
  6
CONTINUOUS
 10
-58.9051783942
 20
202.1721953077
  0
VERTEX
  8
0
 62
7
  6
CONTINUOUS
 10
-60.1963536405
 20
202.2107647344
  0
VERTEX
  8
0
 62
7
  6
CONTINUOUS
 10
-61.5860802817
 20
202.2464083309
  0
VERTEX
  8
0
 62
7
  6
CONTINUOUS
 10
-63.0287366598
 20
202.2780088547
  0
VERTEX
  8
0
 62
7
  6
CONTINUOUS
 10
-64.4902566943
 20
202.3058562137
  0
VERTEX
  8
0
 62
7
  6
CONTINUOUS
 10
-66.0278738006
 20
202.3292026822
  0
VERTEX
  8
0
 62
7
  6
CONTINUOUS
 10
-67.7237001291
 20
202.3447043234
  0
VERTEX
  8
0
 62
7
  6
CONTINUOUS
 10
-69.4689265571
 20
202.346942263
  0
VERTEX
  8
0
 62
7
  6
CONTINUOUS
 10
-71.1834547236
 20
202.3335778404
  0
VERTEX
  8
0
 62
7
  6
CONTINUOUS
 10
-72.8421063775
 20
202.3075968426
  0
VERTEX
  8
0
 62
7
  6
CONTINUOUS
 10
-74.3059129919
 20
202.2808054126
  0
VERTEX
  8
0
 62
7
  6
CONTINUOUS
 10
-75.789055191
 20
202.2564251259
  0
VERTEX
  8
0
 62
7
  6
CONTINUOUS
 10
-77.4658032806
 20
202.2313214115
  0
VERTEX
  8
0
 62
7
  6
CONTINUOUS
 10
-79.2442344218
 20
202.2046938356
  0
VERTEX
  8
0
 62
7
  6
CONTINUOUS
 10
-81.0997365796
 20
202.1743424457
  0
VERTEX
  8
0
 62
7
  6
CONTINUOUS
 10
-83.1206108115
 20
202.1352049624
  0
VERTEX
  8
0
 62
7
  6
CONTINUOUS
 10
-85.4625782906
 20
202.0804947224
  0
VERTEX
  8
0
 62
7
  6
CONTINUOUS
 10
-87.9577382896
 20
202.0152806474
  0
VERTEX
  8
0
 62
7
  6
CONTINUOUS
 10
-88.6074979395
 20
201.9988500727
  0
SEQEND
  0
LINE
  8
0
 62
7
  6
CONTINUOUS
 10
-90.878505142
 20
201.3554497111
 11
-90.8888338445
 21
201.3570345642
  0
POLYLINE
  8
0
 62
7
  6
CONTINUOUS
 66
1
 70
0
  0
VERTEX
  8
0
 62
7
  6
CONTINUOUS
 10
256.6857923023
 20
192.6392313316
  0
VERTEX
  8
0
 62
7
  6
CONTINUOUS
 10
256.6731947287
 20
192.1388748958
  0
VERTEX
  8
0
 62
7
  6
CONTINUOUS
 10
256.412635166
 20
190.5024498243
  0
VERTEX
  8
0
 62
7
  6
CONTINUOUS
 10
255.8475090881
 20
188.950979932
  0
VERTEX
  8
0
 62
7
  6
CONTINUOUS
 10
254.9891485716
 20
187.5409152183
  0
VERTEX
  8
0
 62
7
  6
CONTINUOUS
 10
253.8746250115
 20
186.3161434413
  0
VERTEX
  8
0
 62
7
  6
CONTINUOUS
 10
252.5498932561
 20
185.3472070788
  0
VERTEX
  8
0
 62
7
  6
CONTINUOUS
 10
250.9996350226
 20
184.6105919715
  0
SEQEND
  0
POLYLINE
  8
0
 62
7
  6
CONTINUOUS
 66
1
 70
0
  0
VERTEX
  8
0
 62
7
  6
CONTINUOUS
 10
255.5237904531
 20
198.2471142723
  0
VERTEX
  8
0
 62
7
  6
CONTINUOUS
 10
255.585072739
 20
198.625352521
  0
VERTEX
  8
0
 62
7
  6
CONTINUOUS
 10
255.6009289068
 20
198.9998078611
  0
VERTEX
  8
0
 62
7
  6
CONTINUOUS
 10
255.5745980497
 20
199.3629512576
  0
VERTEX
  8
0
 62
7
  6
CONTINUOUS
 10
255.5083395253
 20
199.7094380599
  0
VERTEX
  8
0
 62
7
  6
CONTINUOUS
 10
255.4408383061
 20
199.9332173405
  0
SEQEND
  0
POLYLINE
  8
0
 62
7
  6
CONTINUOUS
 66
1
 70
0
  0
VERTEX
  8
0
 62
7
  6
CONTINUOUS
 10
238.2630430981
 20
225.0230855052
  0
VERTEX
  8
0
 62
7
  6
CONTINUOUS
 10
235.7493331475
 20
224.6899701276
  0
VERTEX
  8
0
 62
7
  6
CONTINUOUS
 10
234.8935237088
 20
224.4349458839
  0
SEQEND
  0
LINE
  8
0
 62
7
  6
CONTINUOUS
 10
-194.575931676
 20
175.0556201827
 11
-194.7602248311
 21
175.0432750033
  0
LINE
  8
0
 62
7
  6
CONTINUOUS
 10
-194.5747733839
 20
175.0557017412
 11
-193.6740060932
 21
175.1140278581
  0
POLYLINE
  8
0
 62
7
  6
CONTINUOUS
 66
1
 70
0
  0
VERTEX
  8
0
 62
7
  6
CONTINUOUS
 10
-193.6740060932
 20
175.1140278581
  0
VERTEX
  8
0
 62
7
  6
CONTINUOUS
 10
-191.4122364528
 20
175.2544966973
  0
VERTEX
  8
0
 62
7
  6
CONTINUOUS
 10
-187.6295383413
 20
175.4781711495
  0
VERTEX
  8
0
 62
7
  6
CONTINUOUS
 10
-182.3846692084
 20
175.7655767467
  0
VERTEX
  8
0
 62
7
  6
CONTINUOUS
 10
-175.9284031338
 20
176.0787364377
  0
VERTEX
  8
0
 62
7
  6
CONTINUOUS
 10
-168.0613626816
 20
176.3944058897
  0
VERTEX
  8
0
 62
7
  6
CONTINUOUS
 10
-158.8172842863
 20
176.6702479076
  0
VERTEX
  8
0
 62
7
  6
CONTINUOUS
 10
-148.9792282196
 20
176.848874985
  0
VERTEX
  8
0
 62
7
  6
CONTINUOUS
 10
-138.6678345144
 20
176.9091188185
  0
VERTEX
  8
0
 62
7
  6
CONTINUOUS
 10
-127.2305183403
 20
176.8245976489
  0
SEQEND
  0
POLYLINE
  8
0
 62
7
  6
CONTINUOUS
 66
1
 70
0
  0
VERTEX
  8
0
 62
7
  6
CONTINUOUS
 10
-154.0853270233
 20
201.2706186593
  0
VERTEX
  8
0
 62
7
  6
CONTINUOUS
 10
-160.5485144485
 20
200.9542289289
  0
VERTEX
  8
0
 62
7
  6
CONTINUOUS
 10
-167.1138136174
 20
200.5187706299
  0
VERTEX
  8
0
 62
7
  6
CONTINUOUS
 10
-173.1766745214
 20
199.9873001827
  0
SEQEND
  0
POLYLINE
  8
0
 62
7
  6
CONTINUOUS
 66
1
 70
0
  0
VERTEX
  8
0
 62
7
  6
CONTINUOUS
 10
115.7686437685
 20
200.0511162552
  0
VERTEX
  8
0
 62
7
  6
CONTINUOUS
 10
114.2401246419
 20
199.9773396378
  0
VERTEX
  8
0
 62
7
  6
CONTINUOUS
 10
111.2131832389
 20
199.856815743
  0
VERTEX
  8
0
 62
7
  6
CONTINUOUS
 10
108.0048985442
 20
199.7663371391
  0
VERTEX
  8
0
 62
7
  6
CONTINUOUS
 10
104.6541226036
 20
199.6950913315
  0
VERTEX
  8
0
 62
7
  6
CONTINUOUS
 10
101.2024436458
 20
199.6437608983
  0
VERTEX
  8
0
 62
7
  6
CONTINUOUS
 10
97.6317812311
 20
199.6135654768
  0
VERTEX
  8
0
 62
7
  6
CONTINUOUS
 10
93.9530791865
 20
199.6065913692
  0
VERTEX
  8
0
 62
7
  6
CONTINUOUS
 10
90.1446409316
 20
199.622349594
  0
VERTEX
  8
0
 62
7
  6
CONTINUOUS
 10
86.2180564947
 20
199.6595688277
  0
VERTEX
  8
0
 62
7
  6
CONTINUOUS
 10
82.1381265741
 20
199.7176935143
  0
VERTEX
  8
0
 62
7
  6
CONTINUOUS
 10
77.9034539718
 20
199.7960894487
  0
VERTEX
  8
0
 62
7
  6
CONTINUOUS
 10
73.4909207738
 20
199.8938648799
  0
VERTEX
  8
0
 62
7
  6
CONTINUOUS
 10
68.8282069519
 20
200.0082989843
  0
VERTEX
  8
0
 62
7
  6
CONTINUOUS
 10
65.4364617435
 20
200.0998283565
  0
SEQEND
  0
POLYLINE
  8
0
 62
7
  6
CONTINUOUS
 66
1
 70
0
  0
VERTEX
  8
0
 62
7
  6
CONTINUOUS
 10
-146.4724810488
 20
201.5656803432
  0
VERTEX
  8
0
 62
7
  6
CONTINUOUS
 10
-154.8187146683
 20
201.242193732
  0
VERTEX
  8
0
 62
7
  6
CONTINUOUS
 10
-162.0529018823
 20
200.8544297906
  0
VERTEX
  8
0
 62
7
  6
CONTINUOUS
 10
-168.2432298716
 20
200.4159070718
  0
VERTEX
  8
0
 62
7
  6
CONTINUOUS
 10
-173.6806391743
 20
199.9233218573
  0
VERTEX
  8
0
 62
7
  6
CONTINUOUS
 10
-177.710688704
 20
199.4675138175
  0
SEQEND
  0
POLYLINE
  8
0
 62
7
  6
CONTINUOUS
 66
1
 70
0
  0
VERTEX
  8
0
 62
7
  6
CONTINUOUS
 10
115.7376266167
 20
200.0632449328
  0
VERTEX
  8
0
 62
7
  6
CONTINUOUS
 10
109.6729051149
 20
199.8327350775
  0
VERTEX
  8
0
 62
7
  6
CONTINUOUS
 10
101.6513905317
 20
199.6770116572
  0
VERTEX
  8
0
 62
7
  6
CONTINUOUS
 10
93.2208330714
 20
199.6368435704
  0
VERTEX
  8
0
 62
7
  6
CONTINUOUS
 10
84.0708950557
 20
199.7047024433
  0
VERTEX
  8
0
 62
7
  6
CONTINUOUS
 10
74.4719448278
 20
199.8721267885
  0
SEQEND
  0
LINE
  8
0
 62
7
  6
CONTINUOUS
 10
-138.4388688274
 20
201.7861715782
 11
-146.4724810488
 21
201.5656803432
  0
POLYLINE
  8
0
 62
7
  6
CONTINUOUS
 66
1
 70
0
  0
VERTEX
  8
0
 62
7
  6
CONTINUOUS
 10
-94.280097252
 20
201.955039257
  0
VERTEX
  8
0
 62
7
  6
CONTINUOUS
 10
-94.7493824511
 20
201.9502812294
  0
VERTEX
  8
0
 62
7
  6
CONTINUOUS
 10
-95.2139691002
 20
201.9456543508
  0
VERTEX
  8
0
 62
7
  6
CONTINUOUS
 10
-95.6757479682
 20
201.9411911961
  0
VERTEX
  8
0
 62
7
  6
CONTINUOUS
 10
-96.1339928496
 20
201.936945016
  0
VERTEX
  8
0
 62
7
  6
CONTINUOUS
 10
-96.5887044779
 20
201.932957296
  0
VERTEX
  8
0
 62
7
  6
CONTINUOUS
 10
-97.0395012251
 20
201.9292679522
  0
VERTEX
  8
0
 62
7
  6
CONTINUOUS
 10
-97.4860212502
 20
201.9259108066
  0
VERTEX
  8
0
 62
7
  6
CONTINUOUS
 10
-97.9281213923
 20
201.9229079257
  0
VERTEX
  8
0
 62
7
  6
CONTINUOUS
 10
-98.3657020229
 20
201.9202674925
  0
VERTEX
  8
0
 62
7
  6
CONTINUOUS
 10
-98.7982675705
 20
201.9179950346
  0
VERTEX
  8
0
 62
7
  6
CONTINUOUS
 10
-99.2253816879
 20
201.9160913921
  0
VERTEX
  8
0
 62
7
  6
CONTINUOUS
 10
-99.6466670785
 20
201.9145531956
  0
VERTEX
  8
0
 62
7
  6
CONTINUOUS
 10
-100.0615243837
 20
201.913374095
  0
VERTEX
  8
0
 62
7
  6
CONTINUOUS
 10
-100.4700897122
 20
201.9125421121
  0
VERTEX
  8
0
 62
7
  6
CONTINUOUS
 10
-100.8722433134
 20
201.9120367768
  0
VERTEX
  8
0
 62
7
  6
CONTINUOUS
 10
-101.2682353243
 20
201.9118319327
  0
VERTEX
  8
0
 62
7
  6
CONTINUOUS
 10
-101.6582273559
 20
201.9119034229
  0
VERTEX
  8
0
 62
7
  6
CONTINUOUS
 10
-102.0423200208
 20
201.9122288395
  0
VERTEX
  8
0
 62
7
  6
CONTINUOUS
 10
-102.4205748789
 20
201.9127872487
  0
VERTEX
  8
0
 62
7
  6
CONTINUOUS
 10
-102.7932286206
 20
201.9135594796
  0
VERTEX
  8
0
 62
7
  6
CONTINUOUS
 10
-103.1605210801
 20
201.9145280166
  0
VERTEX
  8
0
 62
7
  6
CONTINUOUS
 10
-103.5224950213
 20
201.9156762269
  0
VERTEX
  8
0
 62
7
  6
CONTINUOUS
 10
-103.8792058566
 20
201.9169893068
  0
VERTEX
  8
0
 62
7
  6
CONTINUOUS
 10
-104.2307994486
 20
201.9184543681
  0
VERTEX
  8
0
 62
7
  6
CONTINUOUS
 10
-104.5773494592
 20
201.9200593421
  0
VERTEX
  8
0
 62
7
  6
CONTINUOUS
 10
-104.9190893699
 20
201.9217962499
  0
VERTEX
  8
0
 62
7
  6
CONTINUOUS
 10
-105.2562745031
 20
201.9236594711
  0
VERTEX
  8
0
 62
7
  6
CONTINUOUS
 10
-105.5888738508
 20
201.9256425331
  0
VERTEX
  8
0
 62
7
  6
CONTINUOUS
 10
-105.9168455637
 20
201.9277392858
  0
VERTEX
  8
0
 62
7
  6
CONTINUOUS
 10
-106.240490116
 20
201.9299463652
  0
VERTEX
  8
0
 62
7
  6
CONTINUOUS
 10
-106.5602823778
 20
201.9322626677
  0
VERTEX
  8
0
 62
7
  6
CONTINUOUS
 10
-106.875696983
 20
201.9346804688
  0
VERTEX
  8
0
 62
7
  6
CONTINUOUS
 10
-107.1877826983
 20
201.9372047417
  0
VERTEX
  8
0
 62
7
  6
CONTINUOUS
 10
-107.492120129
 20
201.9397971468
  0
VERTEX
  8
0
 62
7
  6
CONTINUOUS
 10
-107.7852712315
 20
201.9424244582
  0
VERTEX
  8
0
 62
7
  6
CONTINUOUS
 10
-108.0648656422
 20
201.9450590874
  0
VERTEX
  8
0
 62
7
  6
CONTINUOUS
 10
-108.3258759722
 20
201.947643349
  0
VERTEX
  8
0
 62
7
  6
CONTINUOUS
 10
-108.5727715029
 20
201.9502122462
  0
VERTEX
  8
0
 62
7
  6
CONTINUOUS
 10
-108.8025932604
 20
201.9527282912
  0
VERTEX
  8
0
 62
7
  6
CONTINUOUS
 10
-109.0331503629
 20
201.9553741627
  0
VERTEX
  8
0
 62
7
  6
CONTINUOUS
 10
-109.2879757903
 20
201.9583874365
  0
SEQEND
  0
POLYLINE
  8
0
 62
7
  6
CONTINUOUS
 66
1
 70
0
  0
VERTEX
  8
0
 62
7
  6
CONTINUOUS
 10
-91.8058974757
 20
201.9790272807
  0
VERTEX
  8
0
 62
7
  6
CONTINUOUS
 10
-92.3245418576
 20
201.9744172417
  0
VERTEX
  8
0
 62
7
  6
CONTINUOUS
 10
-92.8294772942
 20
201.9696323522
  0
VERTEX
  8
0
 62
7
  6
CONTINUOUS
 10
-93.322578917
 20
201.9647608981
  0
VERTEX
  8
0
 62
7
  6
CONTINUOUS
 10
-93.8053580484
 20
201.9598787881
  0
VERTEX
  8
0
 62
7
  6
CONTINUOUS
 10
-94.280097252
 20
201.955039257
  0
SEQEND
  0
POLYLINE
  8
0
 62
7
  6
CONTINUOUS
 66
1
 70
0
  0
VERTEX
  8
0
 62
7
  6
CONTINUOUS
 10
-90.7247473942
 20
201.9874497503
  0
VERTEX
  8
0
 62
7
  6
CONTINUOUS
 10
-91.2726574094
 20
201.9833892056
  0
VERTEX
  8
0
 62
7
  6
CONTINUOUS
 10
-91.8058974757
 20
201.9790272807
  0
SEQEND
  0
POLYLINE
  8
0
 62
7
  6
CONTINUOUS
 66
1
 70
0
  0
VERTEX
  8
0
 62
7
  6
CONTINUOUS
 10
-84.2950618939
 20
202.0036028976
  0
VERTEX
  8
0
 62
7
  6
CONTINUOUS
 10
-84.9985870276
 20
202.0040711707
  0
VERTEX
  8
0
 62
7
  6
CONTINUOUS
 10
-85.6884087174
 20
202.0042076562
  0
VERTEX
  8
0
 62
7
  6
CONTINUOUS
 10
-86.3665983424
 20
202.0039222704
  0
VERTEX
  8
0
 62
7
  6
CONTINUOUS
 10
-87.0349318578
 20
202.0031393776
  0
VERTEX
  8
0
 62
7
  6
CONTINUOUS
 10
-87.6913479996
 20
202.0018068609
  0
VERTEX
  8
0
 62
7
  6
CONTINUOUS
 10
-88.3345412684
 20
201.9999101273
  0
VERTEX
  8
0
 62
7
  6
CONTINUOUS
 10
-88.961803966
 20
201.9974740899
  0
VERTEX
  8
0
 62
7
  6
CONTINUOUS
 10
-89.5700197833
 20
201.9945468718
  0
VERTEX
  8
0
 62
7
  6
CONTINUOUS
 10
-90.1586497132
 20
201.9911800034
  0
VERTEX
  8
0
 62
7
  6
CONTINUOUS
 10
-90.7247473942
 20
201.9874497503
  0
SEQEND
  0
POLYLINE
  8
0
 62
7
  6
CONTINUOUS
 66
1
 70
0
  0
VERTEX
  8
0
 62
7
  6
CONTINUOUS
 10
-52.6863909582
 20
201.917314706
  0
VERTEX
  8
0
 62
7
  6
CONTINUOUS
 10
-54.5331659788
 20
201.9323396634
  0
VERTEX
  8
0
 62
7
  6
CONTINUOUS
 10
-56.2808628837
 20
201.9474169549
  0
VERTEX
  8
0
 62
7
  6
CONTINUOUS
 10
-57.9535003596
 20
201.9624591386
  0
VERTEX
  8
0
 62
7
  6
CONTINUOUS
 10
-59.5940510944
 20
201.9768385999
  0
VERTEX
  8
0
 62
7
  6
CONTINUOUS
 10
-61.1698708333
 20
201.9886229605
  0
VERTEX
  8
0
 62
7
  6
CONTINUOUS
 10
-62.697331474
 20
201.9971459727
  0
VERTEX
  8
0
 62
7
  6
CONTINUOUS
 10
-64.1377472938
 20
202.0036778273
  0
VERTEX
  8
0
 62
7
  6
CONTINUOUS
 10
-65.5060391713
 20
202.0088361887
  0
VERTEX
  8
0
 62
7
  6
CONTINUOUS
 10
-66.80342543
 20
202.0120099095
  0
VERTEX
  8
0
 62
7
  6
CONTINUOUS
 10
-67.9819501386
 20
202.0139904868
  0
VERTEX
  8
0
 62
7
  6
CONTINUOUS
 10
-69.0926461286
 20
202.016336846
  0
VERTEX
  8
0
 62
7
  6
CONTINUOUS
 10
-70.1529165313
 20
202.019498524
  0
VERTEX
  8
0
 62
7
  6
CONTINUOUS
 10
-71.1812038208
 20
202.0230144227
  0
VERTEX
  8
0
 62
7
  6
CONTINUOUS
 10
-72.1951411467
 20
202.0265057284
  0
VERTEX
  8
0
 62
7
  6
CONTINUOUS
 10
-73.2025770494
 20
202.0293505462
  0
VERTEX
  8
0
 62
7
  6
CONTINUOUS
 10
-74.2118904888
 20
202.0306658724
  0
VERTEX
  8
0
 62
7
  6
CONTINUOUS
 10
-75.2085171958
 20
202.0296377375
  0
VERTEX
  8
0
 62
7
  6
CONTINUOUS
 10
-76.1827748693
 20
202.025956218
  0
VERTEX
  8
0
 62
7
  6
CONTINUOUS
 10
-77.1370056442
 20
202.0205199006
  0
VERTEX
  8
0
 62
7
  6
CONTINUOUS
 10
-78.0674460555
 20
202.0144689056
  0
VERTEX
  8
0
 62
7
  6
CONTINUOUS
 10
-78.9526383272
 20
202.0091512221
  0
VERTEX
  8
0
 62
7
  6
CONTINUOUS
 10
-79.7905237894
 20
202.0052376393
  0
VERTEX
  8
0
 62
7
  6
CONTINUOUS
 10
-80.5870471804
 20
202.002738316
  0
VERTEX
  8
0
 62
7
  6
CONTINUOUS
 10
-81.3601074472
 20
202.0015774922
  0
VERTEX
  8
0
 62
7
  6
CONTINUOUS
 10
-82.1122051252
 20
202.0015244262
  0
VERTEX
  8
0
 62
7
  6
CONTINUOUS
 10
-82.8504433166
 20
202.0021279817
  0
VERTEX
  8
0
 62
7
  6
CONTINUOUS
 10
-83.5798072925
 20
202.0029131593
  0
VERTEX
  8
0
 62
7
  6
CONTINUOUS
 10
-84.2950618939
 20
202.0036028976
  0
SEQEND
  0
POLYLINE
  8
0
 62
7
  6
CONTINUOUS
 66
1
 70
0
  0
VERTEX
  8
0
 62
7
  6
CONTINUOUS
 10
-109.2879757903
 20
201.9583874365
  0
VERTEX
  8
0
 62
7
  6
CONTINUOUS
 10
-109.8023117475
 20
201.9646272725
  0
VERTEX
  8
0
 62
7
  6
CONTINUOUS
 10
-110.0510108196
 20
201.9676861951
  0
VERTEX
  8
0
 62
7
  6
CONTINUOUS
 10
-110.2901187795
 20
201.9706391826
  0
VERTEX
  8
0
 62
7
  6
CONTINUOUS
 10
-110.5227228315
 20
201.973516325
  0
VERTEX
  8
0
 62
7
  6
CONTINUOUS
 10
-110.7505523171
 20
201.9763333315
  0
VERTEX
  8
0
 62
7
  6
CONTINUOUS
 10
-110.9736069875
 20
201.9790858932
  0
VERTEX
  8
0
 62
7
  6
CONTINUOUS
 10
-112.2388247887
 20
201.9944602523
  0
SEQEND
  0
LINE
  8
0
 62
7
  6
CONTINUOUS
 10
-112.2388247887
 20
201.9944602523
 11
-112.9969263461
 21
202.0035977723
  0
LINE
  8
0
 62
7
  6
CONTINUOUS
 10
-112.9969263461
 20
202.0035977723
 11
-113.1978564977
 21
202.0061114168
  0
LINE
  8
0
 62
7
  6
CONTINUOUS
 10
-113.2044727681
 20
202.0061969152
 11
-113.1691433469
 21
202.0057146475
  0
POLYLINE
  8
0
 62
7
  6
CONTINUOUS
 66
1
 70
0
  0
VERTEX
  8
0
 62
7
  6
CONTINUOUS
 10
-113.0535438127
 20
202.0026870974
  0
VERTEX
  8
0
 62
7
  6
CONTINUOUS
 10
-114.2722335689
 20
202.0194449785
  0
VERTEX
  8
0
 62
7
  6
CONTINUOUS
 10
-115.4618097371
 20
202.033093987
  0
VERTEX
  8
0
 62
7
  6
CONTINUOUS
 10
-116.6252366762
 20
202.0436204776
  0
VERTEX
  8
0
 62
7
  6
CONTINUOUS
 10
-117.760052914
 20
202.0510551287
  0
VERTEX
  8
0
 62
7
  6
CONTINUOUS
 10
-118.8673648654
 20
202.0556252772
  0
VERTEX
  8
0
 62
7
  6
CONTINUOUS
 10
-119.9489510983
 20
202.0575536891
  0
VERTEX
  8
0
 62
7
  6
CONTINUOUS
 10
-121.0067765074
 20
202.057039921
  0
VERTEX
  8
0
 62
7
  6
CONTINUOUS
 10
-122.0425575424
 20
202.0542939798
  0
VERTEX
  8
0
 62
7
  6
CONTINUOUS
 10
-123.0592745865
 20
202.0495091381
  0
VERTEX
  8
0
 62
7
  6
CONTINUOUS
 10
-124.0559372937
 20
202.0428723974
  0
VERTEX
  8
0
 62
7
  6
CONTINUOUS
 10
-125.0327452281
 20
202.0345585652
  0
VERTEX
  8
0
 62
7
  6
CONTINUOUS
 10
-125.9895518652
 20
202.0247494995
  0
VERTEX
  8
0
 62
7
  6
CONTINUOUS
 10
-126.9249924467
 20
202.0136367771
  0
VERTEX
  8
0
 62
7
  6
CONTINUOUS
 10
-127.8432807107
 20
202.0013295264
  0
VERTEX
  8
0
 62
7
  6
CONTINUOUS
 10
-128.7473204859
 20
201.9879254685
  0
VERTEX
  8
0
 62
7
  6
CONTINUOUS
 10
-129.6363434872
 20
201.9735906698
  0
VERTEX
  8
0
 62
7
  6
CONTINUOUS
 10
-130.5088397476
 20
201.9585022658
  0
VERTEX
  8
0
 62
7
  6
CONTINUOUS
 10
-131.3625197446
 20
201.942831766
  0
VERTEX
  8
0
 62
7
  6
CONTINUOUS
 10
-132.1955690407
 20
201.9267279827
  0
VERTEX
  8
0
 62
7
  6
CONTINUOUS
 10
-133.0059727155
 20
201.9103386881
  0
VERTEX
  8
0
 62
7
  6
CONTINUOUS
 10
-133.7891143329
 20
201.893875269
  0
VERTEX
  8
0
 62
7
  6
CONTINUOUS
 10
-134.5474878447
 20
201.8773909004
  0
VERTEX
  8
0
 62
7
  6
CONTINUOUS
 10
-135.3031704089
 20
201.8604731834
  0
VERTEX
  8
0
 62
7
  6
CONTINUOUS
 10
-135.9883251007
 20
201.8447401401
  0
VERTEX
  8
0
 62
7
  6
CONTINUOUS
 10
-136.507462746
 20
201.8325911276
  0
VERTEX
  8
0
 62
7
  6
CONTINUOUS
 10
-137.0179810901
 20
201.8204755901
  0
VERTEX
  8
0
 62
7
  6
CONTINUOUS
 10
-137.5818341304
 20
201.8069346213
  0
VERTEX
  8
0
 62
7
  6
CONTINUOUS
 10
-138.2553112434
 20
201.7906231149
  0
VERTEX
  8
0
 62
7
  6
CONTINUOUS
 10
-138.4388688274
 20
201.7861715782
  0
SEQEND
  0
LINE
  8
0
 62
7
  6
CONTINUOUS
 10
-111.6835432718
 20
201.980804857
 11
-113.0535438127
 21
202.0026870974
  0
POLYLINE
  8
0
 62
7
  6
CONTINUOUS
 66
1
 70
0
  0
VERTEX
  8
0
 62
7
  6
CONTINUOUS
 10
-86.1436029758
 20
201.2538134404
  0
VERTEX
  8
0
 62
7
  6
CONTINUOUS
 10
-78.9354440931
 20
201.1309581922
  0
VERTEX
  8
0
 62
7
  6
CONTINUOUS
 10
-52.3919461104
 20
201.7207379921
  0
SEQEND
  0
POLYLINE
  8
0
 62
7
  6
CONTINUOUS
 66
1
 70
0
  0
VERTEX
  8
0
 62
7
  6
CONTINUOUS
 10
-111.4012035833
 20
201.9784921996
  0
VERTEX
  8
0
 62
7
  6
CONTINUOUS
 10
-108.9941761354
 20
201.933529138
  0
VERTEX
  8
0
 62
7
  6
CONTINUOUS
 10
-98.7681143772
 20
201.6655888803
  0
VERTEX
  8
0
 62
7
  6
CONTINUOUS
 10
-92.4344936211
 20
201.4582930896
  0
VERTEX
  8
0
 62
7
  6
CONTINUOUS
 10
-92.4784205461
 20
201.4696452089
  0
VERTEX
  8
0
 62
7
  6
CONTINUOUS
 10
-92.697832941
 20
201.4789935845
  0
SEQEND
  0
POLYLINE
  8
0
 62
7
  6
CONTINUOUS
 66
1
 70
0
  0
VERTEX
  8
0
 62
7
  6
CONTINUOUS
 10
65.4415989125
 20
200.1000808108
  0
VERTEX
  8
0
 62
7
  6
CONTINUOUS
 10
48.0871287716
 20
200.5373766525
  0
VERTEX
  8
0
 62
7
  6
CONTINUOUS
 10
30.7232692068
 20
200.9304484465
  0
VERTEX
  8
0
 62
7
  6
CONTINUOUS
 10
19.3807726519
 20
201.1689507832
  0
VERTEX
  8
0
 62
7
  6
CONTINUOUS
 10
9.3716437729
 20
201.3473220235
  0
VERTEX
  8
0
 62
7
  6
CONTINUOUS
 10
1.6787198276
 20
201.4561761541
  0
VERTEX
  8
0
 62
7
  6
CONTINUOUS
 10
-4.1011756537
 20
201.5197597682
  0
VERTEX
  8
0
 62
7
  6
CONTINUOUS
 10
-9.6019926294
 20
201.5695640946
  0
VERTEX
  8
0
 62
7
  6
CONTINUOUS
 10
-14.5513421576
 20
201.605476323
  0
VERTEX
  8
0
 62
7
  6
CONTINUOUS
 10
-19.0405172396
 20
201.6332500952
  0
VERTEX
  8
0
 62
7
  6
CONTINUOUS
 10
-23.0533394064
 20
201.6562101954
  0
VERTEX
  8
0
 62
7
  6
CONTINUOUS
 10
-26.7471069634
 20
201.6793652411
  0
VERTEX
  8
0
 62
7
  6
CONTINUOUS
 10
-30.1748242185
 20
201.7068383395
  0
VERTEX
  8
0
 62
7
  6
CONTINUOUS
 10
-33.3493995539
 20
201.7347290949
  0
VERTEX
  8
0
 62
7
  6
CONTINUOUS
 10
-36.3041693496
 20
201.7586604585
  0
VERTEX
  8
0
 62
7
  6
CONTINUOUS
 10
-39.0786152099
 20
201.7815968034
  0
VERTEX
  8
0
 62
7
  6
CONTINUOUS
 10
-41.6859336534
 20
201.8070750151
  0
VERTEX
  8
0
 62
7
  6
CONTINUOUS
 10
-44.1451734934
 20
201.8343992726
  0
VERTEX
  8
0
 62
7
  6
CONTINUOUS
 10
-46.4692210904
 20
201.8602466049
  0
VERTEX
  8
0
 62
7
  6
CONTINUOUS
 10
-48.6584817578
 20
201.8825403479
  0
VERTEX
  8
0
 62
7
  6
CONTINUOUS
 10
-50.7324900273
 20
201.9012660681
  0
VERTEX
  8
0
 62
7
  6
CONTINUOUS
 10
-52.6863909582
 20
201.917314706
  0
SEQEND
  0
POLYLINE
  8
0
 62
7
  6
CONTINUOUS
 66
1
 70
0
  0
VERTEX
  8
0
 62
7
  6
CONTINUOUS
 10
240.3805135897
 20
187.4156809623
  0
VERTEX
  8
0
 62
7
  6
CONTINUOUS
 10
240.805645697
 20
186.5131354008
  0
VERTEX
  8
0
 62
7
  6
CONTINUOUS
 10
241.3726073422
 20
185.7373587092
  0
VERTEX
  8
0
 62
7
  6
CONTINUOUS
 10
242.0962364208
 20
185.077206406
  0
VERTEX
  8
0
 62
7
  6
CONTINUOUS
 10
242.9320192465
 20
184.5661119357
  0
VERTEX
  8
0
 62
7
  6
CONTINUOUS
 10
243.8534191589
 20
184.2328857604
  0
VERTEX
  8
0
 62
7
  6
CONTINUOUS
 10
244.8213429763
 20
184.0802523459
  0
VERTEX
  8
0
 62
7
  6
CONTINUOUS
 10
245.7818596215
 20
184.1220806391
  0
VERTEX
  8
0
 62
7
  6
CONTINUOUS
 10
246.7529461204
 20
184.3537476578
  0
SEQEND
  0
POLYLINE
  8
0
 62
7
  6
CONTINUOUS
 66
1
 70
0
  0
VERTEX
  8
0
 62
7
  6
CONTINUOUS
 10
240.3805135897
 20
186.1881459716
  0
VERTEX
  8
0
 62
7
  6
CONTINUOUS
 10
240.8059603972
 20
185.2835737238
  0
VERTEX
  8
0
 62
7
  6
CONTINUOUS
 10
241.3731735243
 20
184.5062065813
  0
VERTEX
  8
0
 62
7
  6
CONTINUOUS
 10
242.0970165457
 20
183.8449214826
  0
VERTEX
  8
0
 62
7
  6
CONTINUOUS
 10
242.9328987376
 20
183.3330876121
  0
VERTEX
  8
0
 62
7
  6
CONTINUOUS
 10
243.854176083
 20
182.9994772086
  0
VERTEX
  8
0
 62
7
  6
CONTINUOUS
 10
244.8218720371
 20
182.846758048
  0
VERTEX
  8
0
 62
7
  6
CONTINUOUS
 10
245.7821464808
 20
182.8887209675
  0
VERTEX
  8
0
 62
7
  6
CONTINUOUS
 10
246.7529461204
 20
183.1207690214
  0
SEQEND
  0
LINE
  8
0
 62
7
  6
CONTINUOUS
 10
239.0991241583
 20
191.0682373129
 11
240.3805135897
 21
187.4156809623
  0
LINE
  8
0
 62
7
  6
CONTINUOUS
 10
240.3805135897
 20
186.1881459716
 11
238.7179092169
 21
190.9357679172
  0
POLYLINE
  8
0
 62
7
  6
CONTINUOUS
 66
1
 70
0
  0
VERTEX
  8
0
 62
7
  6
CONTINUOUS
 10
256.6857944297
 20
193.8553176314
  0
VERTEX
  8
0
 62
7
  6
CONTINUOUS
 10
256.6024971382
 20
194.9946551825
  0
VERTEX
  8
0
 62
7
  6
CONTINUOUS
 10
256.2095466843
 20
196.6644449335
  0
SEQEND
  0
LINE
  8
0
 62
7
  6
CONTINUOUS
 10
447.217035392
 20
570.3867913426
 11
445.7748879463
 21
566.4245238002
  0
POLYLINE
  8
0
 62
7
  6
CONTINUOUS
 66
1
 70
0
  0
VERTEX
  8
0
 62
7
  6
CONTINUOUS
 10
-184.1921706407
 20
198.6134951622
  0
VERTEX
  8
0
 62
7
  6
CONTINUOUS
 10
-184.2963267387
 20
198.5980594036
  0
VERTEX
  8
0
 62
7
  6
CONTINUOUS
 10
-184.3983643822
 20
198.5828299333
  0
VERTEX
  8
0
 62
7
  6
CONTINUOUS
 10
-184.4983603432
 20
198.5677974154
  0
VERTEX
  8
0
 62
7
  6
CONTINUOUS
 10
-184.5963904019
 20
198.5529525463
  0
VERTEX
  8
0
 62
7
  6
CONTINUOUS
 10
-184.6925274001
 20
198.5382863442
  0
VERTEX
  8
0
 62
7
  6
CONTINUOUS
 10
-184.7868471076
 20
198.5237892477
  0
VERTEX
  8
0
 62
7
  6
CONTINUOUS
 10
-184.879424172
 20
198.50945168
  0
VERTEX
  8
0
 62
7
  6
CONTINUOUS
 10
-184.9703263117
 20
198.4952648461
  0
VERTEX
  8
0
 62
7
  6
CONTINUOUS
 10
-185.0596241066
 20
198.4812193275
  0
VERTEX
  8
0
 62
7
  6
CONTINUOUS
 10
-185.1473760276
 20
198.4673074714
  0
VERTEX
  8
0
 62
7
  6
CONTINUOUS
 10
-185.2336416317
 20
198.4535213367
  0
VERTEX
  8
0
 62
7
  6
CONTINUOUS
 10
-185.3184808607
 20
198.4398527885
  0
VERTEX
  8
0
 62
7
  6
CONTINUOUS
 10
-185.4019517494
 20
198.4262938571
  0
VERTEX
  8
0
 62
7
  6
CONTINUOUS
 10
-185.4841125505
 20
198.4128363893
  0
VERTEX
  8
0
 62
7
  6
CONTINUOUS
 10
-185.5650226607
 20
198.3994718807
  0
VERTEX
  8
0
 62
7
  6
CONTINUOUS
 10
-185.6447300168
 20
198.3861935634
  0
VERTEX
  8
0
 62
7
  6
CONTINUOUS
 10
-185.7232878535
 20
198.3729936491
  0
VERTEX
  8
0
 62
7
  6
CONTINUOUS
 10
-185.8007342117
 20
198.3598667672
  0
VERTEX
  8
0
 62
7
  6
CONTINUOUS
 10
-185.8771100211
 20
198.3468069628
  0
VERTEX
  8
0
 62
7
  6
CONTINUOUS
 10
-185.9524557604
 20
198.3338082454
  0
VERTEX
  8
0
 62
7
  6
CONTINUOUS
 10
-186.0268108792
 20
198.3208646847
  0
VERTEX
  8
0
 62
7
  6
CONTINUOUS
 10
-186.1002155268
 20
198.3079701057
  0
VERTEX
  8
0
 62
7
  6
CONTINUOUS
 10
-186.1727084949
 20
198.2951184405
  0
VERTEX
  8
0
 62
7
  6
CONTINUOUS
 10
-186.2443295758
 20
198.2823033068
  0
VERTEX
  8
0
 62
7
  6
CONTINUOUS
 10
-186.3151171347
 20
198.2695184313
  0
VERTEX
  8
0
 62
7
  6
CONTINUOUS
 10
-186.3851106488
 20
198.2567571863
  0
VERTEX
  8
0
 62
7
  6
CONTINUOUS
 10
-186.4543490695
 20
198.2440128736
  0
VERTEX
  8
0
 62
7
  6
CONTINUOUS
 10
-186.5228688787
 20
198.2312790848
  0
VERTEX
  8
0
 62
7
  6
CONTINUOUS
 10
-186.5907070763
 20
198.2185491507
  0
VERTEX
  8
0
 62
7
  6
CONTINUOUS
 10
-186.6578979211
 20
198.2058167484
  0
VERTEX
  8
0
 62
7
  6
CONTINUOUS
 10
-186.7244843706
 20
198.1930737174
  0
VERTEX
  8
0
 62
7
  6
CONTINUOUS
 10
-186.7904745197
 20
198.1803184292
  0
VERTEX
  8
0
 62
7
  6
CONTINUOUS
 10
-186.8558826654
 20
198.1675480295
  0
VERTEX
  8
0
 62
7
  6
CONTINUOUS
 10
-186.9207301809
 20
198.1547581582
  0
VERTEX
  8
0
 62
7
  6
CONTINUOUS
 10
-186.9850297161
 20
198.1419460956
  0
VERTEX
  8
0
 62
7
  6
CONTINUOUS
 10
-187.0488189061
 20
198.1291040369
  0
VERTEX
  8
0
 62
7
  6
CONTINUOUS
 10
-187.1121282022
 20
198.1162254034
  0
VERTEX
  8
0
 62
7
  6
CONTINUOUS
 10
-187.1749892116
 20
198.1033031848
  0
VERTEX
  8
0
 62
7
  6
CONTINUOUS
 10
-187.2374331382
 20
198.090330243
  0
VERTEX
  8
0
 62
7
  6
CONTINUOUS
 10
-187.2994891115
 20
198.0772996592
  0
VERTEX
  8
0
 62
7
  6
CONTINUOUS
 10
-187.3612019198
 20
198.0642009633
  0
VERTEX
  8
0
 62
7
  6
CONTINUOUS
 10
-187.4225534955
 20
198.0510368795
  0
SEQEND
  0
POLYLINE
  8
0
 62
7
  6
CONTINUOUS
 66
1
 70
0
  0
VERTEX
  8
0
 62
7
  6
CONTINUOUS
 10
-178.3855960118
 20
199.3875365273
  0
VERTEX
  8
0
 62
7
  6
CONTINUOUS
 10
-178.8605188384
 20
199.3262015181
  0
VERTEX
  8
0
 62
7
  6
CONTINUOUS
 10
-179.3179864366
 20
199.2661367502
  0
SEQEND
  0
LINE
  8
0
 62
7
  6
CONTINUOUS
 10
-177.837766624
 20
199.4578702885
 11
-178.3855960118
 21
199.3875365273
  0
POLYLINE
  8
0
 62
7
  6
CONTINUOUS
 66
1
 70
0
  0
VERTEX
  8
0
 62
7
  6
CONTINUOUS
 10
-177.710688704
 20
199.4675138175
  0
VERTEX
  8
0
 62
7
  6
CONTINUOUS
 10
-177.9014813331
 20
199.4435597221
  0
VERTEX
  8
0
 62
7
  6
CONTINUOUS
 10
-178.236055274
 20
199.4017434095
  0
VERTEX
  8
0
 62
7
  6
CONTINUOUS
 10
-178.5627353357
 20
199.3609961101
  0
SEQEND
  0
POLYLINE
  8
0
 62
7
  6
CONTINUOUS
 66
1
 70
0
  0
VERTEX
  8
0
 62
7
  6
CONTINUOUS
 10
-178.5627353357
 20
199.3609961101
  0
VERTEX
  8
0
 62
7
  6
CONTINUOUS
 10
-178.8774511416
 20
199.3215884593
  0
VERTEX
  8
0
 62
7
  6
CONTINUOUS
 10
-179.1803137912
 20
199.2834522889
  0
VERTEX
  8
0
 62
7
  6
CONTINUOUS
 10
-179.4692096668
 20
199.2469035924
  0
VERTEX
  8
0
 62
7
  6
CONTINUOUS
 10
-179.7458354424
 20
199.2117753896
  0
VERTEX
  8
0
 62
7
  6
CONTINUOUS
 10
-180.011992858
 20
199.1778629986
  0
VERTEX
  8
0
 62
7
  6
CONTINUOUS
 10
-180.2652237165
 20
199.1454812899
  0
VERTEX
  8
0
 62
7
  6
CONTINUOUS
 10
-180.5037050157
 20
199.114868681
  0
VERTEX
  8
0
 62
7
  6
CONTINUOUS
 10
-180.7277401947
 20
199.0859950775
  0
VERTEX
  8
0
 62
7
  6
CONTINUOUS
 10
-180.9359037678
 20
199.0590562298
  0
VERTEX
  8
0
 62
7
  6
CONTINUOUS
 10
-181.1315232813
 20
199.0336340104
  0
VERTEX
  8
0
 62
7
  6
CONTINUOUS
 10
-181.3165335656
 20
199.0094868081
  0
VERTEX
  8
0
 62
7
  6
CONTINUOUS
 10
-181.4931112488
 20
198.9863381963
  0
VERTEX
  8
0
 62
7
  6
CONTINUOUS
 10
-181.6636376643
 20
198.9638809418
  0
VERTEX
  8
0
 62
7
  6
CONTINUOUS
 10
-181.8289423656
 20
198.9420093856
  0
VERTEX
  8
0
 62
7
  6
CONTINUOUS
 10
-181.9907142254
 20
198.9205019236
  0
VERTEX
  8
0
 62
7
  6
CONTINUOUS
 10
-182.1484964781
 20
198.8994202914
  0
VERTEX
  8
0
 62
7
  6
CONTINUOUS
 10
-182.3024039682
 20
198.8787507939
  0
VERTEX
  8
0
 62
7
  6
CONTINUOUS
 10
-182.4523975317
 20
198.8585005951
  0
VERTEX
  8
0
 62
7
  6
CONTINUOUS
 10
-182.5984608651
 20
198.8386742049
  0
VERTEX
  8
0
 62
7
  6
CONTINUOUS
 10
-182.7406438922
 20
198.8192674777
  0
VERTEX
  8
0
 62
7
  6
CONTINUOUS
 10
-182.878916727
 20
198.8002874703
  0
VERTEX
  8
0
 62
7
  6
CONTINUOUS
 10
-183.0134993746
 20
198.7817071096
  0
VERTEX
  8
0
 62
7
  6
CONTINUOUS
 10
-183.1445269728
 20
198.7635108043
  0
VERTEX
  8
0
 62
7
  6
CONTINUOUS
 10
-183.2721973299
 20
198.7456740895
  0
VERTEX
  8
0
 62
7
  6
CONTINUOUS
 10
-183.3966849045
 20
198.7281754686
  0
VERTEX
  8
0
 62
7
  6
CONTINUOUS
 10
-183.5181640976
 20
198.7109931749
  0
VERTEX
  8
0
 62
7
  6
CONTINUOUS
 10
-183.6368104934
 20
198.6941049585
  0
VERTEX
  8
0
 62
7
  6
CONTINUOUS
 10
-183.7527664992
 20
198.6774929878
  0
VERTEX
  8
0
 62
7
  6
CONTINUOUS
 10
-183.866201847
 20
198.6611352209
  0
VERTEX
  8
0
 62
7
  6
CONTINUOUS
 10
-183.9771865729
 20
198.6450237478
  0
VERTEX
  8
0
 62
7
  6
CONTINUOUS
 10
-184.0858170652
 20
198.6291467699
  0
VERTEX
  8
0
 62
7
  6
CONTINUOUS
 10
-184.1921706407
 20
198.6134951622
  0
SEQEND
  0
LINE
  8
0
 62
7
  6
CONTINUOUS
 10
-173.1766745214
 20
199.9873001827
 11
-177.837766624
 21
199.4578702885
  0
POLYLINE
  8
0
 62
7
  6
CONTINUOUS
 66
1
 70
0
  0
VERTEX
  8
0
 62
7
  6
CONTINUOUS
 10
245.9460547265
 20
222.1144440008
  0
VERTEX
  8
0
 62
7
  6
CONTINUOUS
 10
244.757435018
 20
223.040814525
  0
VERTEX
  8
0
 62
7
  6
CONTINUOUS
 10
243.1196411862
 20
223.9782788647
  0
VERTEX
  8
0
 62
7
  6
CONTINUOUS
 10
240.8593929344
 20
224.7534546674
  0
VERTEX
  8
0
 62
7
  6
CONTINUOUS
 10
238.2630430981
 20
225.0230855052
  0
SEQEND
  0
POLYLINE
  8
0
 62
7
  6
CONTINUOUS
 66
1
 70
0
  0
VERTEX
  8
0
 62
7
  6
CONTINUOUS
 10
245.9551358634
 20
222.1064555185
  0
VERTEX
  8
0
 62
7
  6
CONTINUOUS
 10
244.7826523346
 20
223.0234893211
  0
VERTEX
  8
0
 62
7
  6
CONTINUOUS
 10
243.1653238143
 20
223.9567900082
  0
VERTEX
  8
0
 62
7
  6
CONTINUOUS
 10
240.9237751125
 20
224.7386897003
  0
VERTEX
  8
0
 62
7
  6
CONTINUOUS
 10
238.3469778031
 20
225.0240769738
  0
VERTEX
  8
0
 62
7
  6
CONTINUOUS
 10
235.8522326119
 20
224.7155374343
  0
VERTEX
  8
0
 62
7
  6
CONTINUOUS
 10
234.8935832179
 20
224.4349660604
  0
SEQEND
  0
LINE
  8
0
 62
7
  6
CONTINUOUS
 10
246.7719839285
 20
221.3273736087
 11
245.9460547265
 21
222.1144440008
  0
LINE
  8
0
 62
7
  6
CONTINUOUS
 10
247.2191286836
 20
220.8507532769
 11
246.7719839285
 21
221.3273736087
  0
LINE
  8
0
 62
7
  6
CONTINUOUS
 10
247.2106728846
 20
220.8438680054
 11
247.1772414754
 21
220.8807013122
  0
LINE
  8
0
 62
7
  6
CONTINUOUS
 10
247.9751425021
 20
219.8955994697
 11
247.1772414754
 21
220.8807013122
  0
LINE
  8
0
 62
7
  6
CONTINUOUS
 10
249.3456269672
 20
217.2743773235
 11
248.7698460133
 21
218.5948402399
  0
POLYLINE
  8
0
 62
7
  6
CONTINUOUS
 66
1
 70
0
  0
VERTEX
  8
0
 62
7
  6
CONTINUOUS
 10
249.345643164
 20
217.2743689808
  0
VERTEX
  8
0
 62
7
  6
CONTINUOUS
 10
248.7949996562
 20
218.5536691206
  0
VERTEX
  8
0
 62
7
  6
CONTINUOUS
 10
247.9751425021
 20
219.8955994697
  0
SEQEND
  0
LINE
  8
0
 62
7
  6
CONTINUOUS
 10
255.441032483
 20
199.9328563123
 11
249.3459204295
 21
217.2737557152
  0
LINE
  8
0
 62
7
  6
CONTINUOUS
 10
256.2095466843
 20
196.6644449335
 11
255.5650266822
 21
198.5016269561
  0
POLYLINE
  8
0
 62
7
  6
CONTINUOUS
 66
1
 70
0
  0
VERTEX
  8
0
 62
7
  6
CONTINUOUS
 10
-187.4225534955
 20
198.0510368795
  0
VERTEX
  8
0
 62
7
  6
CONTINUOUS
 10
-187.4835567932
 20
198.037803581
  0
VERTEX
  8
0
 62
7
  6
CONTINUOUS
 10
-187.5441646877
 20
198.0245104172
  0
VERTEX
  8
0
 62
7
  6
CONTINUOUS
 10
-187.6043482314
 20
198.0111631986
  0
VERTEX
  8
0
 62
7
  6
CONTINUOUS
 10
-187.6640698245
 20
197.997770042
  0
VERTEX
  8
0
 62
7
  6
CONTINUOUS
 10
-187.7232977558
 20
197.9843381781
  0
VERTEX
  8
0
 62
7
  6
CONTINUOUS
 10
-187.7819891554
 20
197.9708778232
  0
VERTEX
  8
0
 62
7
  6
CONTINUOUS
 10
-187.8401069319
 20
197.9573983907
  0
VERTEX
  8
0
 62
7
  6
CONTINUOUS
 10
-187.8976054233
 20
197.9439118239
  0
VERTEX
  8
0
 62
7
  6
CONTINUOUS
 10
-187.9544412363
 20
197.9304301242
  0
VERTEX
  8
0
 62
7
  6
CONTINUOUS
 10
-188.0105735037
 20
197.9169652666
  0
VERTEX
  8
0
 62
7
  6
CONTINUOUS
 10
-188.0659216101
 20
197.9035394859
  0
VERTEX
  8
0
 62
7
  6
CONTINUOUS
 10
-188.1205636747
 20
197.8901368681
  0
VERTEX
  8
0
 62
7
  6
CONTINUOUS
 10
-188.1744995079
 20
197.8767603032
  0
VERTEX
  8
0
 62
7
  6
CONTINUOUS
 10
-188.2278783084
 20
197.8633751357
  0
VERTEX
  8
0
 62
7
  6
CONTINUOUS
 10
-188.2808204823
 20
197.849952507
  0
VERTEX
  8
0
 62
7
  6
CONTINUOUS
 10
-188.3334014874
 20
197.8364738856
  0
VERTEX
  8
0
 62
7
  6
CONTINUOUS
 10
-188.3857331913
 20
197.8229104674
  0
VERTEX
  8
0
 62
7
  6
CONTINUOUS
 10
-188.4378189214
 20
197.8092608195
  0
VERTEX
  8
0
 62
7
  6
CONTINUOUS
 10
-188.4896910971
 20
197.7955157588
  0
VERTEX
  8
0
 62
7
  6
CONTINUOUS
 10
-188.5413712868
 20
197.7816686797
  0
VERTEX
  8
0
 62
7
  6
CONTINUOUS
 10
-188.5928831945
 20
197.7677121667
  0
VERTEX
  8
0
 62
7
  6
CONTINUOUS
 10
-188.6442503559
 20
197.7536385879
  0
VERTEX
  8
0
 62
7
  6
CONTINUOUS
 10
-188.6954950115
 20
197.7394404038
  0
VERTEX
  8
0
 62
7
  6
CONTINUOUS
 10
-188.7466423174
 20
197.7251089895
  0
VERTEX
  8
0
 62
7
  6
CONTINUOUS
 10
-188.7977155094
 20
197.7106359528
  0
VERTEX
  8
0
 62
7
  6
CONTINUOUS
 10
-188.8487401593
 20
197.6960119269
  0
VERTEX
  8
0
 62
7
  6
CONTINUOUS
 10
-188.8997401366
 20
197.6812276963
  0
VERTEX
  8
0
 62
7
  6
CONTINUOUS
 10
-188.9507413383
 20
197.6662731117
  0
VERTEX
  8
0
 62
7
  6
CONTINUOUS
 10
-189.0017681578
 20
197.6511380942
  0
VERTEX
  8
0
 62
7
  6
CONTINUOUS
 10
-189.0528464889
 20
197.6358117391
  0
VERTEX
  8
0
 62
7
  6
CONTINUOUS
 10
-189.1040375122
 20
197.6202719565
  0
VERTEX
  8
0
 62
7
  6
CONTINUOUS
 10
-189.155257209
 20
197.6045405775
  0
SEQEND
  0
LINE
  8
0
 62
7
  6
CONTINUOUS
 10
392.2278553393
 20
513.5047386847
 11
392.5650148096
 21
552.6115340448
  0
LINE
  8
0
 62
7
  6
CONTINUOUS
 10
404.2784459176
 20
188.820793115
 11
405.3232287413
 21
234.5627079308
  0
LINE
  8
0
 62
7
  6
CONTINUOUS
 10
404.0293042126
 20
337.8779825255
 11
396.2063912488
 21
501.1265755087
  0
LINE
  8
0
 62
7
  6
CONTINUOUS
 10
421.254076837
 20
176.660949068
 11
421.254076837
 21
174.178184413
  0
LINE
  8
0
 62
7
  6
CONTINUOUS
 10
453.5083268053
 20
572.5426387218
 11
447.8933199796
 21
571.0094557115
  0
LINE
  8
0
 62
7
  6
CONTINUOUS
 10
554.9713121723
 20
553.8591771438
 11
554.9713121723
 21
513.4616327568
  0
LINE
  8
0
 62
7
  6
CONTINUOUS
 10
554.9713121723
 20
503.4616327568
 11
554.9713121723
 21
186.660949068
  0
LINE
  8
0
 62
7
  6
CONTINUOUS
 10
554.9713121723
 20
176.660949068
 11
554.9713121723
 21
-268.321815587
  0
POLYLINE
  8
0
 62
7
  6
CONTINUOUS
 66
1
 70
0
  0
VERTEX
  8
0
 62
7
  6
CONTINUOUS
 10
462.7286784793
 20
577.4968588069
  0
VERTEX
  8
0
 62
7
  6
CONTINUOUS
 10
462.3904871571
 20
577.4355969209
  0
VERTEX
  8
0
 62
7
  6
CONTINUOUS
 10
462.0414289214
 20
577.3688446666
  0
VERTEX
  8
0
 62
7
  6
CONTINUOUS
 10
461.6829121358
 20
577.2971002857
  0
VERTEX
  8
0
 62
7
  6
CONTINUOUS
 10
461.3107117094
 20
577.2188690535
  0
VERTEX
  8
0
 62
7
  6
CONTINUOUS
 10
460.9219696597
 20
577.1332863815
  0
VERTEX
  8
0
 62
7
  6
CONTINUOUS
 10
460.5139930241
 20
577.0389601029
  0
VERTEX
  8
0
 62
7
  6
CONTINUOUS
 10
460.084013517
 20
576.9347921851
  0
VERTEX
  8
0
 62
7
  6
CONTINUOUS
 10
459.6293991243
 20
576.819035637
  0
VERTEX
  8
0
 62
7
  6
CONTINUOUS
 10
459.1474531351
 20
576.6903073156
  0
VERTEX
  8
0
 62
7
  6
CONTINUOUS
 10
458.635601355
 20
576.5464176439
  0
VERTEX
  8
0
 62
7
  6
CONTINUOUS
 10
458.089936549
 20
576.3843846695
  0
VERTEX
  8
0
 62
7
  6
CONTINUOUS
 10
457.5117611287
 20
576.2052023766
  0
SEQEND
  0
POLYLINE
  8
0
 62
7
  6
CONTINUOUS
 66
1
 70
0
  0
VERTEX
  8
0
 62
7
  6
CONTINUOUS
 10
463.0826477683
 20
577.3436904279
  0
VERTEX
  8
0
 62
7
  6
CONTINUOUS
 10
463.3018745865
 20
577.3817668768
  0
VERTEX
  8
0
 62
7
  6
CONTINUOUS
 10
463.5388028953
 20
577.4205682161
  0
VERTEX
  8
0
 62
7
  6
CONTINUOUS
 10
463.7907653304
 20
577.4602538586
  0
VERTEX
  8
0
 62
7
  6
CONTINUOUS
 10
464.0558343968
 20
577.5003455663
  0
VERTEX
  8
0
 62
7
  6
CONTINUOUS
 10
464.3318779534
 20
577.5405243943
  0
VERTEX
  8
0
 62
7
  6
CONTINUOUS
 10
464.6167358842
 20
577.5804718768
  0
VERTEX
  8
0
 62
7
  6
CONTINUOUS
 10
464.9084353182
 20
577.6197101355
  0
VERTEX
  8
0
 62
7
  6
CONTINUOUS
 10
465.2039681119
 20
577.658398463
  0
SEQEND
  0
LINE
  8
0
 62
7
  6
CONTINUOUS
 10
401.0575614812
 20
508.4616326408
 11
401.5392289678
 21
508.461632915
  0
LINE
  8
0
 62
7
  6
CONTINUOUS
 10
397.2276695237
 20
508.4616327568
 11
549.9713121723
 21
508.4616327568
  0
POLYLINE
  8
0
 62
7
  6
CONTINUOUS
 66
1
 70
0
  0
VERTEX
  8
0
 62
7
  6
CONTINUOUS
 10
465.2041656759
 20
577.8632526638
  0
VERTEX
  8
0
 62
7
  6
CONTINUOUS
 10
464.8593065664
 20
577.8182267303
  0
VERTEX
  8
0
 62
7
  6
CONTINUOUS
 10
464.5188691575
 20
577.7725493696
  0
VERTEX
  8
0
 62
7
  6
CONTINUOUS
 10
464.1863559237
 20
577.7260330413
  0
VERTEX
  8
0
 62
7
  6
CONTINUOUS
 10
463.8641152672
 20
577.6792403663
  0
VERTEX
  8
0
 62
7
  6
CONTINUOUS
 10
463.5546784872
 20
577.6325433069
  0
VERTEX
  8
0
 62
7
  6
CONTINUOUS
 10
463.2606216545
 20
577.586326299
  0
VERTEX
  8
0
 62
7
  6
CONTINUOUS
 10
462.984270694
 20
577.5411613189
  0
VERTEX
  8
0
 62
7
  6
CONTINUOUS
 10
462.7286785142
 20
577.4968577078
  0
SEQEND
  0
LINE
  8
0
 62
7
  6
CONTINUOUS
 10
496.4342975393
 20
572.5426387218
 11
494.6091756583
 21
572.5426387218
  0
LINE
  8
0
 62
7
  6
CONTINUOUS
 10
455.3334486862
 20
572.5426387218
 11
453.5083268053
 21
572.5426387218
  0
LINE
  8
0
 62
7
  6
CONTINUOUS
 10
494.3654622643
 20
572.6302794795
 11
455.5771620802
 21
572.6302794795
  0
LINE
  8
0
 62
7
  6
CONTINUOUS
 10
457.7982316018
 20
576.0277873325
 11
492.1444074927
 21
576.0277873325
  0
LINE
  8
0
 62
7
  6
CONTINUOUS
 10
456.3470791963
 20
576.2052010837
 11
457.5117600469
 21
576.2052010837
  0
LINE
  8
0
 62
7
  6
CONTINUOUS
 10
492.4308642977
 20
576.2052010837
 11
493.5955451483
 21
576.2052010837
  0
LINE
  8
0
 62
7
  6
CONTINUOUS
 10
502.7255889526
 20
570.3867913426
 11
503.798916955
 21
567.4378468924
  0
LINE
  8
0
 62
7
  6
CONTINUOUS
 10
485.083438261
 20
577.8182142079
 11
484.7386562327
 21
577.863236214
  0
POLYLINE
  8
0
 62
7
  6
CONTINUOUS
 66
1
 70
0
  0
VERTEX
  8
0
 62
7
  6
CONTINUOUS
 10
484.7386562327
 20
577.658398463
  0
VERTEX
  8
0
 62
7
  6
CONTINUOUS
 10
485.0341886006
 20
577.619710182
  0
VERTEX
  8
0
 62
7
  6
CONTINUOUS
 10
485.3258886942
 20
577.5804718284
  0
VERTEX
  8
0
 62
7
  6
CONTINUOUS
 10
485.6107489839
 20
577.5405240138
  0
VERTEX
  8
0
 62
7
  6
CONTINUOUS
 10
485.8867944318
 20
577.5003449032
  0
VERTEX
  8
0
 62
7
  6
CONTINUOUS
 10
486.1518626362
 20
577.4602533111
  0
VERTEX
  8
0
 62
7
  6
CONTINUOUS
 10
486.4038235062
 20
577.4205679005
  0
VERTEX
  8
0
 62
7
  6
CONTINUOUS
 10
486.6407507231
 20
577.381766723
  0
VERTEX
  8
0
 62
7
  6
CONTINUOUS
 10
486.8599765763
 20
577.3436904279
  0
SEQEND
  0
POLYLINE
  8
0
 62
7
  6
CONTINUOUS
 66
1
 70
0
  0
VERTEX
  8
0
 62
7
  6
CONTINUOUS
 10
487.2135299669
 20
577.4969278831
  0
VERTEX
  8
0
 62
7
  6
CONTINUOUS
 10
486.9577326581
 20
577.5412652093
  0
VERTEX
  8
0
 62
7
  6
CONTINUOUS
 10
486.6813028528
 20
577.5864385723
  0
VERTEX
  8
0
 62
7
  6
CONTINUOUS
 10
486.3873683817
 20
577.6326318882
  0
VERTEX
  8
0
 62
7
  6
CONTINUOUS
 10
486.0781505535
 20
577.679293409
  0
VERTEX
  8
0
 62
7
  6
CONTINUOUS
 10
485.7560969633
 20
577.7260570963
  0
VERTEX
  8
0
 62
7
  6
CONTINUOUS
 10
485.4237531933
 20
577.7725497384
  0
VERTEX
  8
0
 62
7
  6
CONTINUOUS
 10
485.083438261
 20
577.8182142079
  0
SEQEND
  0
POLYLINE
  8
0
 62
7
  6
CONTINUOUS
 66
1
 70
0
  0
VERTEX
  8
0
 62
7
  6
CONTINUOUS
 10
486.8599765763
 20
577.3436904279
  0
VERTEX
  8
0
 62
7
  6
CONTINUOUS
 10
487.1942425812
 20
577.2830658697
  0
VERTEX
  8
0
 62
7
  6
CONTINUOUS
 10
487.5410564029
 20
577.2166373441
  0
VERTEX
  8
0
 62
7
  6
CONTINUOUS
 10
487.8990095423
 20
577.1449289148
  0
VERTEX
  8
0
 62
7
  6
CONTINUOUS
 10
488.2723274972
 20
577.0663683902
  0
VERTEX
  8
0
 62
7
  6
CONTINUOUS
 10
488.6638439529
 20
576.9800522192
  0
VERTEX
  8
0
 62
7
  6
CONTINUOUS
 10
489.076325848
 20
576.8844985438
  0
VERTEX
  8
0
 62
7
  6
CONTINUOUS
 10
489.5125938299
 20
576.7785431333
  0
VERTEX
  8
0
 62
7
  6
CONTINUOUS
 10
489.9753204577
 20
576.6603295556
  0
VERTEX
  8
0
 62
7
  6
CONTINUOUS
 10
490.4672549157
 20
576.5283887237
  0
VERTEX
  8
0
 62
7
  6
CONTINUOUS
 10
490.9909879767
 20
576.3803943721
  0
VERTEX
  8
0
 62
7
  6
CONTINUOUS
 10
491.5504652043
 20
576.2131785442
  0
VERTEX
  8
0
 62
7
  6
CONTINUOUS
 10
492.1443714108
 20
576.0277972255
  0
SEQEND
  0
LINE
  8
0
 62
7
  6
CONTINUOUS
 10
496.4342975393
 20
572.5426387218
 11
502.049304365
 21
571.0094557115
  0
POLYLINE
  8
0
 62
7
  6
CONTINUOUS
 66
1
 70
0
  0
VERTEX
  8
0
 62
7
  6
CONTINUOUS
 10
492.4308635187
 20
576.2052018718
  0
VERTEX
  8
0
 62
7
  6
CONTINUOUS
 10
491.8506867437
 20
576.3850020037
  0
VERTEX
  8
0
 62
7
  6
CONTINUOUS
 10
491.3023472827
 20
576.5477639876
  0
VERTEX
  8
0
 62
7
  6
CONTINUOUS
 10
490.7869369314
 20
576.6925529501
  0
VERTEX
  8
0
 62
7
  6
CONTINUOUS
 10
490.3011803023
 20
576.8221735111
  0
VERTEX
  8
0
 62
7
  6
CONTINUOUS
 10
489.8429235741
 20
576.9386771633
  0
VERTEX
  8
0
 62
7
  6
CONTINUOUS
 10
489.409893844
 20
577.0433884145
  0
VERTEX
  8
0
 62
7
  6
CONTINUOUS
 10
488.9998809568
 20
577.1379610593
  0
VERTEX
  8
0
 62
7
  6
CONTINUOUS
 10
488.6105428492
 20
577.2234587303
  0
VERTEX
  8
0
 62
7
  6
CONTINUOUS
 10
488.2395845929
 20
577.3012172569
  0
VERTEX
  8
0
 62
7
  6
CONTINUOUS
 10
487.8846546282
 20
577.3720738431
  0
VERTEX
  8
0
 62
7
  6
CONTINUOUS
 10
487.5422468526
 20
577.4374712791
  0
VERTEX
  8
0
 62
7
  6
CONTINUOUS
 10
487.2135299669
 20
577.4969286349
  0
SEQEND
  0
POLYLINE
  8
0
 62
7
  6
CONTINUOUS
 66
1
 70
0
  0
VERTEX
  8
0
 62
7
  6
CONTINUOUS
 10
492.1443714108
 20
576.0277972255
  0
VERTEX
  8
0
 62
7
  6
CONTINUOUS
 10
492.4797711559
 20
575.4635808916
  0
VERTEX
  8
0
 62
7
  6
CONTINUOUS
 10
492.81446923
 20
574.8985466557
  0
VERTEX
  8
0
 62
7
  6
CONTINUOUS
 10
493.1484617354
 20
574.3327011613
  0
VERTEX
  8
0
 62
7
  6
CONTINUOUS
 10
493.4817603651
 20
573.7660244781
  0
VERTEX
  8
0
 62
7
  6
CONTINUOUS
 10
493.8143768122
 20
573.1984966759
  0
VERTEX
  8
0
 62
7
  6
CONTINUOUS
 10
494.146307179
 20
572.630124398
  0
SEQEND
  0
POLYLINE
  8
0
 62
7
  6
CONTINUOUS
 66
1
 70
0
  0
VERTEX
  8
0
 62
7
  6
CONTINUOUS
 10
494.6091756583
 20
572.5426387218
  0
VERTEX
  8
0
 62
7
  6
CONTINUOUS
 10
494.2483651733
 20
573.1557357564
  0
VERTEX
  8
0
 62
7
  6
CONTINUOUS
 10
493.8866559977
 20
573.7677683258
  0
VERTEX
  8
0
 62
7
  6
CONTINUOUS
 10
493.5240461859
 20
574.3787396848
  0
VERTEX
  8
0
 62
7
  6
CONTINUOUS
 10
493.1605415747
 20
574.9886400687
  0
VERTEX
  8
0
 62
7
  6
CONTINUOUS
 10
492.7961480008
 20
575.5974597127
  0
VERTEX
  8
0
 62
7
  6
CONTINUOUS
 10
492.4308635187
 20
576.2052018718
  0
SEQEND
  0
LINE
  8
0
 62
7
  6
CONTINUOUS
 10
494.6091756583
 20
572.5426387218
 11
494.3654622643
 21
572.6302794795
  0
LINE
  8
0
 62
7
  6
CONTINUOUS
 10
493.5955451483
 20
576.2052010837
 11
496.4342975393
 21
572.5426387218
  0
ARC
  8
0
 62
7
  6
CONTINUOUS
 10
496.6981869063
 20
-685.3594498385
 40
1252.8226951405
 50
88.8293616323
 51
93.6360094573
  0
ARC
  8
0
 62
7
  6
CONTINUOUS
 10
-1055.6112114092
 20
267.931647899
 40
1461.3154774286
 50
358.6915449474
 51
2.7435291793
  0
ARC
  8
0
 62
7
  6
CONTINUOUS
 10
496.6981869063
 20
-685.3594498385
 40
1252.8226951405
 50
88.8293619739
 51
89.6761872376
  0
ARC
  8
0
 62
7
  6
CONTINUOUS
 10
496.6981869063
 20
-685.3594498385
 40
1252.8226951405
 50
92.3294344476
 51
93.6360084399
  0
ARC
  8
0
 62
7
  6
CONTINUOUS
 10
-139.0838776448
 20
-654.7309316121
 40
831.6400000001
 50
89.1830888768
 51
93.8259638616
  0
ARC
  8
0
 62
7
  6
CONTINUOUS
 10
-139.0838776448
 20
-654.7309316121
 40
831.6400000001
 50
93.8386896398
 51
93.8825292001
  0
ARC
  8
0
 62
7
  6
CONTINUOUS
 10
-63.8598081904
 20
-268.321815587
 40
5.0
 50
194.6799715069
 51
270.0
  0
ARC
  8
0
 62
7
  6
CONTINUOUS
 10
549.9713121723
 20
-268.321815587
 40
5.0
 50
270.0
 51
360.0
  0
ARC
  8
0
 62
7
  6
CONTINUOUS
 10
161.3199858356
 20
320.7887228853
 40
148.06345187
 50
269.1830888768
 51
289.1619643398
  0
ARC
  8
0
 62
7
  6
CONTINUOUS
 10
-5.1819502476
 20
172.178184413
 40
3.0
 50
180.0000000011
 51
270.0
  0
ARC
  8
0
 62
7
  6
CONTINUOUS
 10
3.8180497524
 20
172.178184413
 40
3.0
 50
270.0
 51
360.0
  0
ARC
  8
0
 62
7
  6
CONTINUOUS
 10
-187.6224620357
 20
172.178184413
 40
3.0
 50
180.0
 51
270.0
  0
ARC
  8
0
 62
7
  6
CONTINUOUS
 10
-153.6224620357
 20
172.178184413
 40
3.0
 50
270.0
 51
360.0
  0
ARC
  8
0
 62
7
  6
CONTINUOUS
 10
411.2766206711
 20
188.660949068
 40
7.0
 50
178.6915449474
 51
270.0
  0
ARC
  8
0
 62
7
  6
CONTINUOUS
 10
549.9713121723
 20
186.660949068
 40
5.0
 50
270.0
 51
360.0
  0
ARC
  8
0
 62
7
  6
CONTINUOUS
 10
549.9713121723
 20
176.660949068
 40
5.0
 50
0.0
 51
90.0
  0
ARC
  8
0
 62
7
  6
CONTINUOUS
 10
426.254076837
 20
176.6609374068
 40
4.9999963779
 50
90.0
 51
179.9998663721
  0
ARC
  8
0
 62
7
  6
CONTINUOUS
 10
416.2540815622
 20
174.178184413
 40
4.9999945102
 50
269.999945853
 51
360.0
  0
ARC
  8
0
 62
7
  6
CONTINUOUS
 10
520.1910374482
 20
464.2706013655
 40
102.9526291561
 50
74.5385867786
 51
88.8298889892
  0
ARC
  8
0
 62
7
  6
CONTINUOUS
 10
423.1046575608
 20
472.7540678285
 40
92.3732445564
 50
93.6356901607
 51
104.4392296405
  0
ARC
  8
0
 62
7
  6
CONTINUOUS
 10
474.9713121723
 20
501.2202286601
 40
77.2632392753
 50
98.8744770456
 51
103.9484663514
  0
ARC
  8
0
 62
7
  6
CONTINUOUS
 10
474.9713121723
 20
501.2202286601
 40
77.2632392753
 50
76.0515336486
 51
81.1255229544
  0
ARC
  8
0
 62
7
  6
CONTINUOUS
 10
474.9713121723
 20
501.2202286601
 40
77.2628656098
 50
82.7374268789
 51
97.2624485759
  0
ARC
  8
0
 62
7
  6
CONTINUOUS
 10
474.9713121723
 20
501.2202286601
 40
77.0596834461
 50
82.7181508037
 51
97.2818491963
  0
ARC
  8
0
 62
7
  6
CONTINUOUS
 10
402.5646431784
 20
552.5253221873
 40
10.0
 50
104.4391835835
 51
179.5060363326
  0
ARC
  8
0
 62
7
  6
CONTINUOUS
 10
544.9713121723
 20
553.8591771391
 40
10.0
 50
0.0
 51
74.538621201
  0
ARC
  8
0
 62
7
  6
CONTINUOUS
 10
403.1983678392
 20
501.4616327568
 40
7.0
 50
90.0
 51
182.7435291793
  0
ARC
  8
0
 62
7
  6
CONTINUOUS
 10
397.2276695237
 20
513.4616327568
 40
5.0
 50
179.5060363326
 51
270.0
  0
ARC
  8
0
 62
7
  6
CONTINUOUS
 10
549.9713123132
 20
513.4616327568
 40
5.0
 50
269.9999983856
 51
360.0
  0
ARC
  8
0
 62
7
  6
CONTINUOUS
 10
549.9713121723
 20
503.4616327568
 40
5.0
 50
0.0
 51
90.0
  0
ARC
  8
0
 62
7
  6
CONTINUOUS
 10
448.1567280128
 20
570.0447711993
 40
1.0
 50
105.2723793093
 51
160.0
  0
ARC
  8
0
 62
7
  6
CONTINUOUS
 10
501.7858963318
 20
570.0447711993
 40
1.0
 50
20.0
 51
74.7276206907
  0
ENDSEC
  0
EOF
