999
DXF file: K:\Client\125_Heirloom\001\00\Final_Data\Drawings\TOILETS\sentinel-374124_3.dxf
999
Pro/ENGINEER 2017110 by Parametric Technology Corporation
  0
SECTION
  2
HEADER
  9
$EXTMAX
 10
420.0
 20
297.0
 30
0.0
  9
$EXTMIN
 10
0.0
 20
0.0
 30
0.0
  9
$LIMMIN
 10
0.0
 20
0.0
  9
$LIMMAX
 10
420.0
 20
297.0
  9
$VIEWCTR
 10
210.0
 20
148.5
  9
$VIEWSIZE
 40
297.0
  9
$CLAYER
  8
0
  9
$LTSCALE
 40
23.1
  9
$CELTYPE
  6
BYLAYER
  9
$DIMSCALE
 40
1.0
  9
$DIMASZ
 40
3.0
  9
$DIMEXO
 40
1.0
  9
$DIMDLI
 40
15.96
  9
$DIMEXE
 40
1.0
  9
$DIMCEN
 40
3.78
  9
$DIMLFAC
 40
1.0
  9
$DIMBLK
  1
_FILLED
  9
$DIMALT
 70
0
  9
$DIMALTF
 40
0.0393700787
  9
$DIMTXT
 40
3.0
  9
$AUNITS
 70
0
  9
$PDMODE
 70
3
  9
$PDSIZE
 40
5.0
  9
$TILEMODE
 70
1
  0
ENDSEC
  0
SECTION
  2
TABLES
  0
TABLE
  2
LTYPE
 70
6
  0
LTYPE
  2
BYBLOCK
 70
0
  3

 72
65
 73
0
 40
0.0
  0
LTYPE
  2
BYLAYER
 70
0
  3

 72
65
 73
0
 40
0.0
  0
LTYPE
  2
CONTINUOUS
 70
64
  3
Solid line
 72
65
 73
0
 40
0.0
  0
LTYPE
  2
CENTER
 70
64
  3
____ _ ____ _ ____ _ ____ _ ____ _ ____ _ ____
 72
65
 73
4
 40
0.6
 49
0.375
 49
-0.075
 49
0.075
 49
-0.075
  0
LTYPE
  2
HIDDEN
 70
64
  3
- - - - - - - - - - - - - - - - - - - -
 72
65
 73
2
 40
0.2
 49
0.1
 49
-0.1
  0
LTYPE
  2
PHANTOM
 70
64
  3
_____ _ _ _____ _ _ _____ _ _ _____
 72
65
 73
6
 40
0.8
 49
0.45
 49
-0.05
 49
0.1
 49
-0.05
 49
0.1
 49
-0.05
  0
LTYPE
  2
DOT
 70
64
  3
. . . . . . . . . . . . . . . . . . . .
 72
65
 73
2
 40
0.2
 49
0.1
 49
-0.1
  0
LTYPE
  2
DASHED
 70
64
  3
- - - - - - - - - - - - - - - - - - - -
 72
65
 73
2
 40
0.2
 49
0.1
 49
-0.1
  0
ENDTAB
  0
TABLE
  2
LAYER
 70
36
  0
LAYER
  2
0
 70
0
 62
7
  6
CONTINUOUS
  0
LAYER
  2
DEFAULT_1
 70
0
 62
7
  6
CENTER
  0
LAYER
  2
DEFAULT_2
 70
0
 62
8
  6
HIDDEN
  0
LAYER
  2
DEFAULT_3
 70
0
 62
7
  6
PHANTOM
  0
LAYER
  2
0000_BOM
 70
0
 62
7
  6
CONTINUOUS
  0
LAYER
  2
0000_REV_TABLE
 70
0
 62
7
  6
CONTINUOUS
  0
LAYER
  2
0000_STEVENS_NOTE
 70
0
 62
7
  6
CONTINUOUS
  0
LAYER
  2
01_DATUM_PLANES
 70
0
 62
7
  6
CONTINUOUS
  0
LAYER
  2
01_DEF_PLANES
 70
0
 62
7
  6
CONTINUOUS
  0
LAYER
  2
02_DATUM_COS
 70
0
 62
7
  6
CONTINUOUS
  0
LAYER
  2
90_IMP_FEAT
 70
0
 62
7
  6
CONTINUOUS
  0
LAYER
  2
95_STL
 70
0
 62
7
  6
CONTINUOUS
  0
LAYER
  2
99_SOLID
 70
0
 62
7
  6
CONTINUOUS
  0
LAYER
  2
CAD-MASTER_ZINC-PL
 70
0
 62
7
  6
CONTINUOUS
  0
LAYER
  2
CURVE
 70
0
 62
7
  6
CONTINUOUS
  0
LAYER
  2
SHELL
 70
0
 62
7
  6
CONTINUOUS
  0
LAYER
  2
SKEL
 70
0
 62
7
  6
CONTINUOUS
  0
LAYER
  2
SKETCH
 70
0
 62
7
  6
CONTINUOUS
  0
LAYER
  2
SURFACE
 70
0
 62
7
  6
CONTINUOUS
  0
ENDTAB
  0
TABLE
  2
STYLE
 70
1
  0
STYLE
  2
STANDARD
 70
0
 40
0.0
 41
0.75
 50
0.0
 71
0
 42
0.2
  3
txt
  4

  0
STYLE
  2
TEXTSTYLE_1
 70
0
 40
0.0
 41
0.8
 50
0.0
 71
0
 42
0.2
  3
gdt
  4

  0
ENDTAB
  0
ENDSEC
  0
SECTION
  2
BLOCKS
  0
BLOCK
  8
0
 62
1
  6
CONTINUOUS
  2
PLUMBING_BL1
 70
64
 10
186.0327043823
 20
253.4764659119
  0
CIRCLE
  8
0
 62
1
  6
CONTINUOUS
 10
186.0327043823
 20
253.4764659119
 40
12.5
  0
LINE
  8
0
 62
1
  6
CONTINUOUS
 10
198.5327043823
 20
265.9764659119
 11
173.5327043823
 21
240.9764659119
  0
LINE
  8
0
 62
1
  6
CONTINUOUS
 10
186.0327043823
 20
253.4764659119
 11
173.5327043823
 21
265.9764659119
  0
LINE
  8
0
 62
1
  6
CONTINUOUS
 10
186.0327043823
 20
253.4764659119
 11
198.5327043823
 21
240.9764659119
  0
ENDBLK
  8
0
  6
BYBLOCK
 62
0
  0
BLOCK
  8
0
 62
5
  6
CONTINUOUS
  2
PLUMBING_BL0
 70
64
 10
186.0327043823
 20
528.4764659119
  0
CIRCLE
  8
0
 62
5
  6
CONTINUOUS
 10
186.0327043823
 20
528.4764659119
 40
12.5
  0
LINE
  8
0
 62
5
  6
CONTINUOUS
 10
198.5327043823
 20
540.9764659119
 11
173.5327043823
 21
515.9764659119
  0
LINE
  8
0
 62
5
  6
CONTINUOUS
 10
186.0327043823
 20
528.4764659119
 11
173.5327043823
 21
540.9764659119
  0
LINE
  8
0
 62
5
  6
CONTINUOUS
 10
186.0327043823
 20
528.4764659119
 11
198.5327043823
 21
515.9764659119
  0
ENDBLK
  8
0
  6
BYBLOCK
 62
0
  0
ENDSEC
  0
SECTION
  2
ENTITIES
  0
INSERT
  8
0
 62
5
  6
CONTINUOUS
  2
PLUMBING_BL0
 10
186.0327043823
 20
528.4764659119
  0
INSERT
  8
0
 62
1
  6
CONTINUOUS
  2
PLUMBING_BL1
 10
186.0327043823
 20
253.4764659119
  0
POLYLINE
  8
0
 62
7
  6
CONTINUOUS
 66
1
 70
0
  0
VERTEX
  8
0
 62
7
  6
CONTINUOUS
 10
9.7259990731
 20
-81.1123601915
  0
VERTEX
  8
0
 62
7
  6
CONTINUOUS
 10
10.2730645817
 20
-83.631180804
  0
VERTEX
  8
0
 62
7
  6
CONTINUOUS
 10
10.8569901975
 20
-86.1417731997
  0
VERTEX
  8
0
 62
7
  6
CONTINUOUS
 10
11.4782984457
 20
-88.6469281809
  0
VERTEX
  8
0
 62
7
  6
CONTINUOUS
 10
12.1359177272
 20
-91.1427808811
  0
VERTEX
  8
0
 62
7
  6
CONTINUOUS
 10
12.8303913219
 20
-93.6318308212
  0
VERTEX
  8
0
 62
7
  6
CONTINUOUS
 10
13.5606427792
 20
-96.1106246412
  0
VERTEX
  8
0
 62
7
  6
CONTINUOUS
 10
14.3271591513
 20
-98.5812045979
  0
VERTEX
  8
0
 62
7
  6
CONTINUOUS
 10
15.1289126481
 20
-101.0405741577
  0
VERTEX
  8
0
 62
7
  6
CONTINUOUS
 10
15.9663227755
 20
-103.4903117675
  0
VERTEX
  8
0
 62
7
  6
CONTINUOUS
 10
16.8384602573
 20
-105.9279023876
  0
VERTEX
  8
0
 62
7
  6
CONTINUOUS
 10
17.7456445224
 20
-108.3544248841
  0
VERTEX
  8
0
 62
7
  6
CONTINUOUS
 10
18.6870748666
 20
-110.7678671318
  0
VERTEX
  8
0
 62
7
  6
CONTINUOUS
 10
19.66292608
 20
-113.1687994099
  0
VERTEX
  8
0
 62
7
  6
CONTINUOUS
 10
20.6725598198
 20
-115.5557224024
  0
VERTEX
  8
0
 62
7
  6
CONTINUOUS
 10
21.7159714168
 20
-117.928691816
  0
VERTEX
  8
0
 62
7
  6
CONTINUOUS
 10
22.792718461
 20
-120.2867222115
  0
VERTEX
  8
0
 62
7
  6
CONTINUOUS
 10
23.9025839746
 20
-122.6293583232
  0
VERTEX
  8
0
 62
7
  6
CONTINUOUS
 10
25.0453493124
 20
-124.956122783
  0
VERTEX
  8
0
 62
7
  6
CONTINUOUS
 10
26.2205534957
 20
-127.2660614499
  0
VERTEX
  8
0
 62
7
  6
CONTINUOUS
 10
27.4282316092
 20
-129.5591891892
  0
VERTEX
  8
0
 62
7
  6
CONTINUOUS
 10
28.6676560215
 20
-131.8340700086
  0
VERTEX
  8
0
 62
7
  6
CONTINUOUS
 10
29.9391397627
 20
-134.0911887158
  0
VERTEX
  8
0
 62
7
  6
CONTINUOUS
 10
31.2416674283
 20
-136.3286533554
  0
VERTEX
  8
0
 62
7
  6
CONTINUOUS
 10
32.5758481758
 20
-138.5473886543
  0
VERTEX
  8
0
 62
7
  6
CONTINUOUS
 10
33.9403642469
 20
-140.7450785009
  0
VERTEX
  8
0
 62
7
  6
CONTINUOUS
 10
35.3361428642
 20
-142.9230482411
  0
VERTEX
  8
0
 62
7
  6
CONTINUOUS
 10
36.7615603886
 20
-145.0785941204
  0
VERTEX
  8
0
 62
7
  6
CONTINUOUS
 10
38.2178563022
 20
-147.2133944854
  0
VERTEX
  8
0
 62
7
  6
CONTINUOUS
 10
39.7030877226
 20
-149.3244112813
  0
VERTEX
  8
0
 62
7
  6
CONTINUOUS
 10
41.2188096742
 20
-151.4136629963
  0
VERTEX
  8
0
 62
7
  6
CONTINUOUS
 10
42.7627601651
 20
-153.4778467257
  0
VERTEX
  8
0
 62
7
  6
CONTINUOUS
 10
44.3367325463
 20
-155.519156008
  0
SEQEND
  0
POLYLINE
  8
0
 62
7
  6
CONTINUOUS
 66
1
 70
0
  0
VERTEX
  8
0
 62
7
  6
CONTINUOUS
 10
12.8287969334
 20
-90.3639915466
  0
VERTEX
  8
0
 62
7
  6
CONTINUOUS
 10
12.249346856
 20
-87.5097639753
  0
VERTEX
  8
0
 62
7
  6
CONTINUOUS
 10
11.7491946305
 20
-84.9399067303
  0
VERTEX
  8
0
 62
7
  6
CONTINUOUS
 10
11.3199301902
 20
-82.6462498495
  0
VERTEX
  8
0
 62
7
  6
CONTINUOUS
 10
10.9564505142
 20
-80.6334533989
  0
VERTEX
  8
0
 62
7
  6
CONTINUOUS
 10
10.6473722712
 20
-78.8659039396
  0
VERTEX
  8
0
 62
7
  6
CONTINUOUS
 10
10.3702919974
 20
-77.2336782814
  0
VERTEX
  8
0
 62
7
  6
CONTINUOUS
 10
10.116984128
 20
-75.6988179169
  0
VERTEX
  8
0
 62
7
  6
CONTINUOUS
 10
9.8554268832
 20
-74.0677060565
  0
VERTEX
  8
0
 62
7
  6
CONTINUOUS
 10
9.573393025
 20
-72.2516752772
  0
VERTEX
  8
0
 62
7
  6
CONTINUOUS
 10
9.2887590811
 20
-70.3530727287
  0
VERTEX
  8
0
 62
7
  6
CONTINUOUS
 10
9.0048224524
 20
-68.3864884139
  0
VERTEX
  8
0
 62
7
  6
CONTINUOUS
 10
8.7181569544
 20
-66.31938629
  0
VERTEX
  8
0
 62
7
  6
CONTINUOUS
 10
8.4300453988
 20
-64.1495136242
  0
VERTEX
  8
0
 62
7
  6
CONTINUOUS
 10
8.1375239199
 20
-61.8398005606
  0
VERTEX
  8
0
 62
7
  6
CONTINUOUS
 10
7.8667865802
 20
-59.5935526665
  0
VERTEX
  8
0
 62
7
  6
CONTINUOUS
 10
7.596456218
 20
-57.2318976396
  0
VERTEX
  8
0
 62
7
  6
CONTINUOUS
 10
7.3347596823
 20
-54.8159383575
  0
VERTEX
  8
0
 62
7
  6
CONTINUOUS
 10
7.1041549072
 20
-52.565222579
  0
VERTEX
  8
0
 62
7
  6
CONTINUOUS
 10
6.8811001997
 20
-50.2628807993
  0
VERTEX
  8
0
 62
7
  6
CONTINUOUS
 10
6.6624155422
 20
-47.867081871
  0
VERTEX
  8
0
 62
7
  6
CONTINUOUS
 10
6.4528822186
 20
-45.421258617
  0
VERTEX
  8
0
 62
7
  6
CONTINUOUS
 10
6.2806442935
 20
-43.2820173614
  0
VERTEX
  8
0
 62
7
  6
CONTINUOUS
 10
6.1385063265
 20
-41.4152132997
  0
VERTEX
  8
0
 62
7
  6
CONTINUOUS
 10
6.0192130573
 20
-39.7676016395
  0
VERTEX
  8
0
 62
7
  6
CONTINUOUS
 10
5.9175062828
 20
-38.2972095809
  0
VERTEX
  8
0
 62
7
  6
CONTINUOUS
 10
5.8263329348
 20
-36.9217408603
  0
VERTEX
  8
0
 62
7
  6
CONTINUOUS
 10
5.7275375401
 20
-35.3629583871
  0
VERTEX
  8
0
 62
7
  6
CONTINUOUS
 10
5.6241802439
 20
-33.6465932434
  0
VERTEX
  8
0
 62
7
  6
CONTINUOUS
 10
5.5188629346
 20
-31.7948259158
  0
VERTEX
  8
0
 62
7
  6
CONTINUOUS
 10
5.426142705
 20
-30.0656520466
  0
VERTEX
  8
0
 62
7
  6
CONTINUOUS
 10
5.3480140754
 20
-28.5259932617
  0
VERTEX
  8
0
 62
7
  6
CONTINUOUS
 10
5.2826999624
 20
-27.172957963
  0
VERTEX
  8
0
 62
7
  6
CONTINUOUS
 10
5.2275348355
 20
-25.9776944191
  0
VERTEX
  8
0
 62
7
  6
CONTINUOUS
 10
5.1798693415
 20
-24.901981125
  0
VERTEX
  8
0
 62
7
  6
CONTINUOUS
 10
5.1383678927
 20
-23.9297408019
  0
VERTEX
  8
0
 62
7
  6
CONTINUOUS
 10
5.1020619227
 20
-23.049585061
  0
VERTEX
  8
0
 62
7
  6
CONTINUOUS
 10
5.070093091
 20
-22.2497809981
  0
VERTEX
  8
0
 62
7
  6
CONTINUOUS
 10
5.0423373891
 20
-21.5350657386
  0
VERTEX
  8
0
 62
7
  6
CONTINUOUS
 10
5.0174450221
 20
-20.8769618001
  0
VERTEX
  8
0
 62
7
  6
CONTINUOUS
 10
4.9910029342
 20
-20.1590406375
  0
VERTEX
  8
0
 62
7
  6
CONTINUOUS
 10
4.9622049093
 20
-19.353465968
  0
VERTEX
  8
0
 62
7
  6
CONTINUOUS
 10
4.930189855
 20
-18.4265518609
  0
VERTEX
  8
0
 62
7
  6
CONTINUOUS
 10
4.8974693941
 20
-17.442077367
  0
VERTEX
  8
0
 62
7
  6
CONTINUOUS
 10
4.8661732654
 20
-16.4619068255
  0
VERTEX
  8
0
 62
7
  6
CONTINUOUS
 10
4.83631803
 20
-15.488215178
  0
VERTEX
  8
0
 62
7
  6
CONTINUOUS
 10
4.8066544076
 20
-14.4795902019
  0
VERTEX
  8
0
 62
7
  6
CONTINUOUS
 10
4.7763750969
 20
-13.4031580626
  0
VERTEX
  8
0
 62
7
  6
CONTINUOUS
 10
4.7446801264
 20
-12.2197872454
  0
VERTEX
  8
0
 62
7
  6
CONTINUOUS
 10
4.7119926392
 20
-10.9309078106
  0
VERTEX
  8
0
 62
7
  6
CONTINUOUS
 10
4.6768476789
 20
-9.4562971244
  0
VERTEX
  8
0
 62
7
  6
CONTINUOUS
 10
4.6431686834
 20
-7.9428817298
  0
VERTEX
  8
0
 62
7
  6
CONTINUOUS
 10
4.6152364155
 20
-6.6009022889
  0
VERTEX
  8
0
 62
7
  6
CONTINUOUS
 10
4.5919421332
 20
-5.4121864592
  0
VERTEX
  8
0
 62
7
  6
CONTINUOUS
 10
4.5698152194
 20
-4.2160206174
  0
VERTEX
  8
0
 62
7
  6
CONTINUOUS
 10
4.5497692613
 20
-3.0682794182
  0
VERTEX
  8
0
 62
7
  6
CONTINUOUS
 10
4.5299855199
 20
-1.867585563
  0
VERTEX
  8
0
 62
7
  6
CONTINUOUS
 10
4.509774755
 20
-0.5613932127
  0
VERTEX
  8
0
 62
7
  6
CONTINUOUS
 10
4.489636066
 20
0.8323418874
  0
VERTEX
  8
0
 62
7
  6
CONTINUOUS
 10
4.4710124177
 20
2.216154068
  0
VERTEX
  8
0
 62
7
  6
CONTINUOUS
 10
4.452184513
 20
3.7230176449
  0
VERTEX
  8
0
 62
7
  6
CONTINUOUS
 10
4.4323796155
 20
5.4454172207
  0
VERTEX
  8
0
 62
7
  6
CONTINUOUS
 10
4.414371491
 20
7.1555855632
  0
VERTEX
  8
0
 62
7
  6
CONTINUOUS
 10
4.3995324457
 20
8.6852706181
  0
VERTEX
  8
0
 62
7
  6
CONTINUOUS
 10
4.3872787423
 20
10.0421156573
  0
VERTEX
  8
0
 62
7
  6
CONTINUOUS
 10
4.3766698023
 20
11.2928313476
  0
VERTEX
  8
0
 62
7
  6
CONTINUOUS
 10
4.3677634868
 20
12.4019873276
  0
VERTEX
  8
0
 62
7
  6
CONTINUOUS
 10
4.3603712209
 20
13.3661057908
  0
VERTEX
  8
0
 62
7
  6
CONTINUOUS
 10
4.3541974969
 20
14.2027975142
  0
VERTEX
  8
0
 62
7
  6
CONTINUOUS
 10
4.3488251721
 20
14.9547963062
  0
VERTEX
  8
0
 62
7
  6
CONTINUOUS
 10
4.3434204246
 20
15.7340415265
  0
VERTEX
  8
0
 62
7
  6
CONTINUOUS
 10
4.337531705
 20
16.6090159099
  0
VERTEX
  8
0
 62
7
  6
CONTINUOUS
 10
4.3322569628
 20
17.4155347048
  0
VERTEX
  8
0
 62
7
  6
CONTINUOUS
 10
4.3277645884
 20
18.118591848
  0
VERTEX
  8
0
 62
7
  6
CONTINUOUS
 10
4.3239084723
 20
18.7336838971
  0
VERTEX
  8
0
 62
7
  6
CONTINUOUS
 10
4.3205691328
 20
19.2746274485
  0
VERTEX
  8
0
 62
7
  6
CONTINUOUS
 10
4.3170224208
 20
19.8570202746
  0
VERTEX
  8
0
 62
7
  6
CONTINUOUS
 10
4.3134891958
 20
20.4448069954
  0
VERTEX
  8
0
 62
7
  6
CONTINUOUS
 10
4.3099839241
 20
21.035420887
  0
VERTEX
  8
0
 62
7
  6
CONTINUOUS
 10
4.3060500397
 20
21.706881564
  0
VERTEX
  8
0
 62
7
  6
CONTINUOUS
 10
4.3016167739
 20
22.4738518762
  0
VERTEX
  8
0
 62
7
  6
CONTINUOUS
 10
4.2969303901
 20
23.2960522227
  0
VERTEX
  8
0
 62
7
  6
CONTINUOUS
 10
4.2918536778
 20
24.1988448782
  0
VERTEX
  8
0
 62
7
  6
CONTINUOUS
 10
4.2861281605
 20
25.2307404465
  0
VERTEX
  8
0
 62
7
  6
CONTINUOUS
 10
4.2798449985
 20
26.3777203005
  0
VERTEX
  8
0
 62
7
  6
CONTINUOUS
 10
4.2732998961
 20
27.5857782947
  0
VERTEX
  8
0
 62
7
  6
CONTINUOUS
 10
4.2658998021
 20
28.9637832603
  0
VERTEX
  8
0
 62
7
  6
CONTINUOUS
 10
4.2575342567
 20
30.5308986508
  0
VERTEX
  8
0
 62
7
  6
CONTINUOUS
 10
4.2496064456
 20
32.0187357185
  0
VERTEX
  8
0
 62
7
  6
CONTINUOUS
 10
4.2363977994
 20
34.4871638241
  0
SEQEND
  0
POLYLINE
  8
0
 62
7
  6
CONTINUOUS
 66
1
 70
0
  0
VERTEX
  8
0
 62
7
  6
CONTINUOUS
 10
3.5954037834
 20
104.8311051876
  0
VERTEX
  8
0
 62
7
  6
CONTINUOUS
 10
3.5830448389
 20
105.8546401424
  0
VERTEX
  8
0
 62
7
  6
CONTINUOUS
 10
3.5689759518
 20
107.0210779396
  0
VERTEX
  8
0
 62
7
  6
CONTINUOUS
 10
3.5531605153
 20
108.3347979755
  0
VERTEX
  8
0
 62
7
  6
CONTINUOUS
 10
3.5359532677
 20
109.7684942634
  0
VERTEX
  8
0
 62
7
  6
CONTINUOUS
 10
3.5167683962
 20
111.3741742497
  0
VERTEX
  8
0
 62
7
  6
CONTINUOUS
 10
3.4986038374
 20
112.903203403
  0
VERTEX
  8
0
 62
7
  6
CONTINUOUS
 10
3.4826520374
 20
114.2543888413
  0
VERTEX
  8
0
 62
7
  6
CONTINUOUS
 10
3.4664359953
 20
115.6376601047
  0
VERTEX
  8
0
 62
7
  6
CONTINUOUS
 10
3.4502744323
 20
117.0276072485
  0
VERTEX
  8
0
 62
7
  6
CONTINUOUS
 10
3.4340260339
 20
118.4378727413
  0
VERTEX
  8
0
 62
7
  6
CONTINUOUS
 10
3.4171180219
 20
119.9209362237
  0
VERTEX
  8
0
 62
7
  6
CONTINUOUS
 10
3.4018210498
 20
121.2783128632
  0
VERTEX
  8
0
 62
7
  6
CONTINUOUS
 10
3.3886212445
 20
122.4630679378
  0
VERTEX
  8
0
 62
7
  6
CONTINUOUS
 10
3.3769533952
 20
123.521715342
  0
VERTEX
  8
0
 62
7
  6
CONTINUOUS
 10
3.3660738654
 20
124.5191768295
  0
VERTEX
  8
0
 62
7
  6
CONTINUOUS
 10
3.355795218
 20
125.4715107761
  0
VERTEX
  8
0
 62
7
  6
CONTINUOUS
 10
3.3456923955
 20
126.4177462961
  0
VERTEX
  8
0
 62
7
  6
CONTINUOUS
 10
3.3357180139
 20
127.3625813828
  0
VERTEX
  8
0
 62
7
  6
CONTINUOUS
 10
3.3248456514
 20
128.4054532007
  0
VERTEX
  8
0
 62
7
  6
CONTINUOUS
 10
3.3146518526
 20
129.396563414
  0
VERTEX
  8
0
 62
7
  6
CONTINUOUS
 10
3.3057738157
 20
130.2711051426
  0
VERTEX
  8
0
 62
7
  6
CONTINUOUS
 10
3.29737325
 20
131.1090619922
  0
VERTEX
  8
0
 62
7
  6
CONTINUOUS
 10
3.2878763436
 20
132.0694923237
  0
VERTEX
  8
0
 62
7
  6
CONTINUOUS
 10
3.277134196
 20
133.1738266238
  0
VERTEX
  8
0
 62
7
  6
CONTINUOUS
 10
3.2652459633
 20
134.4199678378
  0
VERTEX
  8
0
 62
7
  6
CONTINUOUS
 10
3.2542929029
 20
135.5926517903
  0
VERTEX
  8
0
 62
7
  6
CONTINUOUS
 10
3.244660071
 20
136.6456121904
  0
VERTEX
  8
0
 62
7
  6
CONTINUOUS
 10
3.2362043292
 20
137.5880801796
  0
VERTEX
  8
0
 62
7
  6
CONTINUOUS
 10
3.2288629646
 20
138.4212157118
  0
VERTEX
  8
0
 62
7
  6
CONTINUOUS
 10
3.2223301354
 20
139.1750866218
  0
VERTEX
  8
0
 62
7
  6
CONTINUOUS
 10
3.2155031522
 20
139.9763583286
  0
VERTEX
  8
0
 62
7
  6
CONTINUOUS
 10
3.2078286805
 20
140.8946119165
  0
VERTEX
  8
0
 62
7
  6
CONTINUOUS
 10
3.2004230391
 20
141.7997082272
  0
VERTEX
  8
0
 62
7
  6
CONTINUOUS
 10
3.1938587532
 20
142.6189606899
  0
VERTEX
  8
0
 62
7
  6
CONTINUOUS
 10
3.1875289986
 20
143.4252780373
  0
VERTEX
  8
0
 62
7
  6
CONTINUOUS
 10
3.1807758496
 20
144.3046009157
  0
VERTEX
  8
0
 62
7
  6
CONTINUOUS
 10
3.1732549694
 20
145.3091064735
  0
VERTEX
  8
0
 62
7
  6
CONTINUOUS
 10
3.1648662654
 20
146.4641859918
  0
VERTEX
  8
0
 62
7
  6
CONTINUOUS
 10
3.1561906574
 20
147.7019233843
  0
VERTEX
  8
0
 62
7
  6
CONTINUOUS
 10
3.1485659649
 20
148.8306035916
  0
SEQEND
  0
POLYLINE
  8
0
 62
7
  6
CONTINUOUS
 66
1
 70
0
  0
VERTEX
  8
0
 62
7
  6
CONTINUOUS
 10
3.6670151829
 20
98.8963888256
  0
VERTEX
  8
0
 62
7
  6
CONTINUOUS
 10
3.6547554418
 20
99.9153385665
  0
VERTEX
  8
0
 62
7
  6
CONTINUOUS
 10
3.6413956411
 20
101.0236563944
  0
VERTEX
  8
0
 62
7
  6
CONTINUOUS
 10
3.6291906829
 20
102.0347562637
  0
VERTEX
  8
0
 62
7
  6
CONTINUOUS
 10
3.5954037834
 20
104.8311051876
  0
SEQEND
  0
POLYLINE
  8
0
 62
7
  6
CONTINUOUS
 66
1
 70
0
  0
VERTEX
  8
0
 62
7
  6
CONTINUOUS
 10
3.7198519724
 20
94.4730979952
  0
VERTEX
  8
0
 62
7
  6
CONTINUOUS
 10
3.7110731828
 20
95.2127398063
  0
VERTEX
  8
0
 62
7
  6
CONTINUOUS
 10
3.7033012297
 20
95.8657234179
  0
VERTEX
  8
0
 62
7
  6
CONTINUOUS
 10
3.6957734798
 20
96.4967196634
  0
VERTEX
  8
0
 62
7
  6
CONTINUOUS
 10
3.6872609701
 20
97.2086911522
  0
VERTEX
  8
0
 62
7
  6
CONTINUOUS
 10
3.6670151829
 20
98.8963888256
  0
SEQEND
  0
POLYLINE
  8
0
 62
7
  6
CONTINUOUS
 66
1
 70
0
  0
VERTEX
  8
0
 62
7
  6
CONTINUOUS
 10
3.7496551126
 20
91.944239683
  0
VERTEX
  8
0
 62
7
  6
CONTINUOUS
 10
3.7403236004
 20
92.7391943525
  0
VERTEX
  8
0
 62
7
  6
CONTINUOUS
 10
3.7198519724
 20
94.4730979952
  0
SEQEND
  0
POLYLINE
  8
0
 62
7
  6
CONTINUOUS
 66
1
 70
0
  0
VERTEX
  8
0
 62
7
  6
CONTINUOUS
 10
3.1485659649
 20
148.8306035916
  0
VERTEX
  8
0
 62
7
  6
CONTINUOUS
 10
3.1420546146
 20
149.8286171298
  0
VERTEX
  8
0
 62
7
  6
CONTINUOUS
 10
3.1361426385
 20
150.7653122329
  0
VERTEX
  8
0
 62
7
  6
CONTINUOUS
 10
3.1306307554
 20
151.6678257474
  0
VERTEX
  8
0
 62
7
  6
CONTINUOUS
 10
3.1252539708
 20
152.5785327658
  0
VERTEX
  8
0
 62
7
  6
CONTINUOUS
 10
3.1196681002
 20
153.5602513236
  0
VERTEX
  8
0
 62
7
  6
CONTINUOUS
 10
3.1139814411
 20
154.6016574261
  0
VERTEX
  8
0
 62
7
  6
CONTINUOUS
 10
3.1083031332
 20
155.689808599
  0
VERTEX
  8
0
 62
7
  6
CONTINUOUS
 10
3.1025628099
 20
156.8468891046
  0
VERTEX
  8
0
 62
7
  6
CONTINUOUS
 10
3.0971921027
 20
157.9907597298
  0
VERTEX
  8
0
 62
7
  6
CONTINUOUS
 10
3.0915246609
 20
159.2749992844
  0
VERTEX
  8
0
 62
7
  6
CONTINUOUS
 10
3.0858233102
 20
160.6647690055
  0
VERTEX
  8
0
 62
7
  6
CONTINUOUS
 10
3.0808059228
 20
161.9894701701
  0
VERTEX
  8
0
 62
7
  6
CONTINUOUS
 10
3.0764745593
 20
163.2306553316
  0
VERTEX
  8
0
 62
7
  6
CONTINUOUS
 10
3.0723416187
 20
164.5242002497
  0
VERTEX
  8
0
 62
7
  6
CONTINUOUS
 10
3.0684337012
 20
165.8771816642
  0
VERTEX
  8
0
 62
7
  6
CONTINUOUS
 10
3.0650881435
 20
167.1717218846
  0
VERTEX
  8
0
 62
7
  6
CONTINUOUS
 10
3.0624600214
 20
168.3105163717
  0
VERTEX
  8
0
 62
7
  6
CONTINUOUS
 10
3.0603769535
 20
169.3187038995
  0
VERTEX
  8
0
 62
7
  6
CONTINUOUS
 10
3.0586575136
 20
170.2478981105
  0
VERTEX
  8
0
 62
7
  6
CONTINUOUS
 10
3.0571321816
 20
171.1744914757
  0
VERTEX
  8
0
 62
7
  6
CONTINUOUS
 10
3.0557249109
 20
172.1536763382
  0
VERTEX
  8
0
 62
7
  6
CONTINUOUS
 10
3.0544727094
 20
173.1805477417
  0
VERTEX
  8
0
 62
7
  6
CONTINUOUS
 10
3.053547812
 20
174.0932256733
  0
VERTEX
  8
0
 62
7
  6
CONTINUOUS
 10
3.0527768969
 20
175.0340249875
  0
VERTEX
  8
0
 62
7
  6
CONTINUOUS
 10
3.0521201659
 20
176.1069753735
  0
VERTEX
  8
0
 62
7
  6
CONTINUOUS
 10
3.0516909822
 20
177.1952306629
  0
VERTEX
  8
0
 62
7
  6
CONTINUOUS
 10
3.0515043964
 20
178.1756727997
  0
VERTEX
  8
0
 62
7
  6
CONTINUOUS
 10
3.0514957017
 20
179.0503629223
  0
VERTEX
  8
0
 62
7
  6
CONTINUOUS
 10
3.0516074345
 20
179.8198724389
  0
VERTEX
  8
0
 62
7
  6
CONTINUOUS
 10
3.0517955728
 20
180.4970708881
  0
VERTEX
  8
0
 62
7
  6
CONTINUOUS
 10
3.0520533459
 20
181.1460034151
  0
VERTEX
  8
0
 62
7
  6
CONTINUOUS
 10
3.0524275333
 20
181.8676219291
  0
VERTEX
  8
0
 62
7
  6
CONTINUOUS
 10
3.0529617318
 20
182.6873638404
  0
VERTEX
  8
0
 62
7
  6
CONTINUOUS
 10
3.0537058328
 20
183.6195742122
  0
VERTEX
  8
0
 62
7
  6
CONTINUOUS
 10
3.054584781
 20
184.5461882079
  0
VERTEX
  8
0
 62
7
  6
CONTINUOUS
 10
3.0554743738
 20
185.3663447086
  0
VERTEX
  8
0
 62
7
  6
CONTINUOUS
 10
3.0563471211
 20
186.0935608153
  0
VERTEX
  8
0
 62
7
  6
CONTINUOUS
 10
3.057297695
 20
186.8220789676
  0
VERTEX
  8
0
 62
7
  6
CONTINUOUS
 10
3.0584766106
 20
187.6561753546
  0
VERTEX
  8
0
 62
7
  6
CONTINUOUS
 10
3.0598666884
 20
188.5648807672
  0
VERTEX
  8
0
 62
7
  6
CONTINUOUS
 10
3.0614176821
 20
189.5079341747
  0
VERTEX
  8
0
 62
7
  6
CONTINUOUS
 10
3.0630354643
 20
190.4307171142
  0
VERTEX
  8
0
 62
7
  6
CONTINUOUS
 10
3.0649870546
 20
191.4801696787
  0
VERTEX
  8
0
 62
7
  6
CONTINUOUS
 10
3.0671933376
 20
192.6016079345
  0
VERTEX
  8
0
 62
7
  6
CONTINUOUS
 10
3.0692649993
 20
193.6064731492
  0
VERTEX
  8
0
 62
7
  6
CONTINUOUS
 10
3.0711780309
 20
194.5021245228
  0
VERTEX
  8
0
 62
7
  6
CONTINUOUS
 10
3.0730544181
 20
195.3564922559
  0
VERTEX
  8
0
 62
7
  6
CONTINUOUS
 10
3.0752380964
 20
196.3268189551
  0
SEQEND
  0
POLYLINE
  8
0
 62
7
  6
CONTINUOUS
 66
1
 70
0
  0
VERTEX
  8
0
 62
7
  6
CONTINUOUS
 10
4.2363977994
 20
34.4871638241
  0
VERTEX
  8
0
 62
7
  6
CONTINUOUS
 10
4.2296953368
 20
35.7280808015
  0
VERTEX
  8
0
 62
7
  6
CONTINUOUS
 10
4.2231945901
 20
36.9206414513
  0
VERTEX
  8
0
 62
7
  6
CONTINUOUS
 10
4.2169653204
 20
38.0513027661
  0
VERTEX
  8
0
 62
7
  6
CONTINUOUS
 10
4.21108079
 20
39.1070475416
  0
VERTEX
  8
0
 62
7
  6
CONTINUOUS
 10
4.2054084003
 20
40.1124921128
  0
VERTEX
  8
0
 62
7
  6
CONTINUOUS
 10
4.1989146688
 20
41.2476716753
  0
VERTEX
  8
0
 62
7
  6
CONTINUOUS
 10
4.1915055593
 20
42.5212608167
  0
VERTEX
  8
0
 62
7
  6
CONTINUOUS
 10
4.1828618646
 20
43.9769731137
  0
VERTEX
  8
0
 62
7
  6
CONTINUOUS
 10
4.1736853272
 20
45.4862781921
  0
VERTEX
  8
0
 62
7
  6
CONTINUOUS
 10
4.1639845688
 20
47.0412782115
  0
VERTEX
  8
0
 62
7
  6
CONTINUOUS
 10
4.1544044687
 20
48.5366222335
  0
VERTEX
  8
0
 62
7
  6
CONTINUOUS
 10
4.1457934593
 20
49.8473539958
  0
VERTEX
  8
0
 62
7
  6
CONTINUOUS
 10
4.1379906735
 20
51.0086239084
  0
VERTEX
  8
0
 62
7
  6
CONTINUOUS
 10
4.1309553979
 20
52.0348301681
  0
VERTEX
  8
0
 62
7
  6
CONTINUOUS
 10
4.1246078892
 20
52.9443002712
  0
VERTEX
  8
0
 62
7
  6
CONTINUOUS
 10
4.118927861
 20
53.7453468954
  0
VERTEX
  8
0
 62
7
  6
CONTINUOUS
 10
4.1138483363
 20
54.4517783703
  0
VERTEX
  8
0
 62
7
  6
CONTINUOUS
 10
4.1086979115
 20
55.1587710391
  0
VERTEX
  8
0
 62
7
  6
CONTINUOUS
 10
4.1028198111
 20
55.9545446889
  0
VERTEX
  8
0
 62
7
  6
CONTINUOUS
 10
4.0960467924
 20
56.8572864088
  0
VERTEX
  8
0
 62
7
  6
CONTINUOUS
 10
4.0883060742
 20
57.8711186274
  0
VERTEX
  8
0
 62
7
  6
CONTINUOUS
 10
4.0793907201
 20
59.0162059341
  0
VERTEX
  8
0
 62
7
  6
CONTINUOUS
 10
4.0689694085
 20
60.3257157327
  0
VERTEX
  8
0
 62
7
  6
CONTINUOUS
 10
4.0567286369
 20
61.8263266939
  0
VERTEX
  8
0
 62
7
  6
CONTINUOUS
 10
4.0426075489
 20
63.5107201615
  0
VERTEX
  8
0
 62
7
  6
CONTINUOUS
 10
4.0284491151
 20
65.1532628436
  0
VERTEX
  8
0
 62
7
  6
CONTINUOUS
 10
4.0153974662
 20
66.6295824625
  0
VERTEX
  8
0
 62
7
  6
CONTINUOUS
 10
4.0034724255
 20
67.9491931388
  0
VERTEX
  8
0
 62
7
  6
CONTINUOUS
 10
3.99262148
 20
69.127265177
  0
VERTEX
  8
0
 62
7
  6
CONTINUOUS
 10
3.9828400177
 20
70.1719054707
  0
VERTEX
  8
0
 62
7
  6
CONTINUOUS
 10
3.9724808946
 20
71.261364315
  0
VERTEX
  8
0
 62
7
  6
CONTINUOUS
 10
3.961516344
 20
72.3966468002
  0
VERTEX
  8
0
 62
7
  6
CONTINUOUS
 10
3.9510744533
 20
73.461589354
  0
VERTEX
  8
0
 62
7
  6
CONTINUOUS
 10
3.9415669151
 20
74.4183913866
  0
VERTEX
  8
0
 62
7
  6
CONTINUOUS
 10
3.931938855
 20
75.375981448
  0
VERTEX
  8
0
 62
7
  6
CONTINUOUS
 10
3.9226372958
 20
76.2906306464
  0
VERTEX
  8
0
 62
7
  6
CONTINUOUS
 10
3.9135828033
 20
77.1713660849
  0
VERTEX
  8
0
 62
7
  6
CONTINUOUS
 10
3.9050840966
 20
77.9897823543
  0
VERTEX
  8
0
 62
7
  6
CONTINUOUS
 10
3.8972801107
 20
78.734643607
  0
VERTEX
  8
0
 62
7
  6
CONTINUOUS
 10
3.8895129997
 20
79.4700092661
  0
VERTEX
  8
0
 62
7
  6
CONTINUOUS
 10
3.8806229373
 20
80.3047658061
  0
VERTEX
  8
0
 62
7
  6
CONTINUOUS
 10
3.8705085587
 20
81.2457970703
  0
VERTEX
  8
0
 62
7
  6
CONTINUOUS
 10
3.8588915055
 20
82.3159426369
  0
VERTEX
  8
0
 62
7
  6
CONTINUOUS
 10
3.84619382
 20
83.473477587
  0
VERTEX
  8
0
 62
7
  6
CONTINUOUS
 10
3.8347638143
 20
84.5052458473
  0
VERTEX
  8
0
 62
7
  6
CONTINUOUS
 10
3.8245637873
 20
85.4183043341
  0
VERTEX
  8
0
 62
7
  6
CONTINUOUS
 10
3.8155013401
 20
86.223845384
  0
VERTEX
  8
0
 62
7
  6
CONTINUOUS
 10
3.8063193302
 20
87.0349900343
  0
VERTEX
  8
0
 62
7
  6
CONTINUOUS
 10
3.7966655285
 20
87.8827779369
  0
VERTEX
  8
0
 62
7
  6
CONTINUOUS
 10
3.7861410384
 20
88.8013204029
  0
VERTEX
  8
0
 62
7
  6
CONTINUOUS
 10
3.7756494062
 20
89.7113304814
  0
VERTEX
  8
0
 62
7
  6
CONTINUOUS
 10
3.766247791
 20
90.5223194448
  0
VERTEX
  8
0
 62
7
  6
CONTINUOUS
 10
3.7496551126
 20
91.944239683
  0
SEQEND
  0
POLYLINE
  8
0
 62
7
  6
CONTINUOUS
 66
1
 70
0
  0
VERTEX
  8
0
 62
7
  6
CONTINUOUS
 10
3.0752380964
 20
196.3268189551
  0
VERTEX
  8
0
 62
7
  6
CONTINUOUS
 10
3.0798794001
 20
198.330051212
  0
VERTEX
  8
0
 62
7
  6
CONTINUOUS
 10
3.0819010335
 20
199.1868755524
  0
VERTEX
  8
0
 62
7
  6
CONTINUOUS
 10
3.084083845
 20
200.10687079
  0
VERTEX
  8
0
 62
7
  6
CONTINUOUS
 10
3.0865592092
 20
201.1488911649
  0
VERTEX
  8
0
 62
7
  6
CONTINUOUS
 10
3.0893406442
 20
202.3259106231
  0
VERTEX
  8
0
 62
7
  6
CONTINUOUS
 10
3.0921847561
 20
203.5459585615
  0
VERTEX
  8
0
 62
7
  6
CONTINUOUS
 10
3.095310715
 20
204.9206749476
  0
VERTEX
  8
0
 62
7
  6
CONTINUOUS
 10
3.0987284258
 20
206.4892996206
  0
VERTEX
  8
0
 62
7
  6
CONTINUOUS
 10
3.1019726991
 20
208.0794211215
  0
VERTEX
  8
0
 62
7
  6
CONTINUOUS
 10
3.1046351585
 20
209.5021640607
  0
VERTEX
  8
0
 62
7
  6
CONTINUOUS
 10
3.1068306932
 20
210.8042718136
  0
VERTEX
  8
0
 62
7
  6
CONTINUOUS
 10
3.1085745046
 20
211.9743319551
  0
VERTEX
  8
0
 62
7
  6
CONTINUOUS
 10
3.1099268148
 20
213.0214038803
  0
VERTEX
  8
0
 62
7
  6
CONTINUOUS
 10
3.1109581081
 20
213.9642280152
  0
VERTEX
  8
0
 62
7
  6
CONTINUOUS
 10
3.1117267707
 20
214.8190469303
  0
VERTEX
  8
0
 62
7
  6
CONTINUOUS
 10
3.1122765173
 20
215.5941450306
  0
VERTEX
  8
0
 62
7
  6
CONTINUOUS
 10
3.112641871
 20
216.287436349
  0
VERTEX
  8
0
 62
7
  6
CONTINUOUS
 10
3.1128839531
 20
216.9930900029
  0
VERTEX
  8
0
 62
7
  6
CONTINUOUS
 10
3.1129910899
 20
217.8001949602
  0
VERTEX
  8
0
 62
7
  6
CONTINUOUS
 10
3.112890271
 20
218.6764394641
  0
VERTEX
  8
0
 62
7
  6
CONTINUOUS
 10
3.1125916899
 20
219.4712032348
  0
VERTEX
  8
0
 62
7
  6
CONTINUOUS
 10
3.1121525851
 20
220.1763371913
  0
VERTEX
  8
0
 62
7
  6
CONTINUOUS
 10
3.1116119542
 20
220.8097250419
  0
VERTEX
  8
0
 62
7
  6
CONTINUOUS
 10
3.1110064142
 20
221.3771150611
  0
VERTEX
  8
0
 62
7
  6
CONTINUOUS
 10
3.110359718
 20
221.8904307394
  0
VERTEX
  8
0
 62
7
  6
CONTINUOUS
 10
3.1096060163
 20
222.4126349831
  0
VERTEX
  8
0
 62
7
  6
CONTINUOUS
 10
3.1086470497
 20
222.9978373899
  0
VERTEX
  8
0
 62
7
  6
CONTINUOUS
 10
3.1074009381
 20
223.6681660369
  0
VERTEX
  8
0
 62
7
  6
CONTINUOUS
 10
3.1057904885
 20
224.432042913
  0
VERTEX
  8
0
 62
7
  6
CONTINUOUS
 10
3.1037308849
 20
225.2942934754
  0
VERTEX
  8
0
 62
7
  6
CONTINUOUS
 10
3.1010740117
 20
226.2769185609
  0
VERTEX
  8
0
 62
7
  6
CONTINUOUS
 10
3.0978522757
 20
227.3336575852
  0
VERTEX
  8
0
 62
7
  6
CONTINUOUS
 10
3.0939506417
 20
228.4758103775
  0
VERTEX
  8
0
 62
7
  6
CONTINUOUS
 10
3.0889860276
 20
229.7759077258
  0
VERTEX
  8
0
 62
7
  6
CONTINUOUS
 10
3.0834085666
 20
231.0902408916
  0
VERTEX
  8
0
 62
7
  6
CONTINUOUS
 10
3.0780328837
 20
232.2489053818
  0
VERTEX
  8
0
 62
7
  6
CONTINUOUS
 10
3.0728733341
 20
233.283701797
  0
VERTEX
  8
0
 62
7
  6
CONTINUOUS
 10
3.0674813706
 20
234.2999326947
  0
VERTEX
  8
0
 62
7
  6
CONTINUOUS
 10
3.0619248443
 20
235.2896600515
  0
VERTEX
  8
0
 62
7
  6
CONTINUOUS
 10
3.0567966641
 20
236.1592460419
  0
VERTEX
  8
0
 62
7
  6
CONTINUOUS
 10
3.0520581071
 20
236.9303740842
  0
VERTEX
  8
0
 62
7
  6
CONTINUOUS
 10
3.0477561206
 20
237.6066827608
  0
VERTEX
  8
0
 62
7
  6
CONTINUOUS
 10
3.0435732945
 20
238.2447910252
  0
VERTEX
  8
0
 62
7
  6
CONTINUOUS
 10
3.0388128444
 20
238.9498781202
  0
VERTEX
  8
0
 62
7
  6
CONTINUOUS
 10
3.0332490848
 20
239.748237057
  0
VERTEX
  8
0
 62
7
  6
CONTINUOUS
 10
3.0267223621
 20
240.6531186965
  0
VERTEX
  8
0
 62
7
  6
CONTINUOUS
 10
3.0191426469
 20
241.6657521393
  0
VERTEX
  8
0
 62
7
  6
CONTINUOUS
 10
3.0116967086
 20
242.6250027466
  0
VERTEX
  8
0
 62
7
  6
CONTINUOUS
 10
3.0047338275
 20
243.4936846118
  0
VERTEX
  8
0
 62
7
  6
CONTINUOUS
 10
2.9974265992
 20
244.378865589
  0
VERTEX
  8
0
 62
7
  6
CONTINUOUS
 10
2.9895393822
 20
245.306836759
  0
VERTEX
  8
0
 62
7
  6
CONTINUOUS
 10
2.9802616529
 20
246.3655487789
  0
VERTEX
  8
0
 62
7
  6
CONTINUOUS
 10
2.9706859089
 20
247.4247652385
  0
VERTEX
  8
0
 62
7
  6
CONTINUOUS
 10
2.9607955275
 20
248.4866511314
  0
VERTEX
  8
0
 62
7
  6
CONTINUOUS
 10
2.9490980113
 20
249.7046762009
  0
VERTEX
  8
0
 62
7
  6
CONTINUOUS
 10
2.9353964136
 20
251.0847607486
  0
VERTEX
  8
0
 62
7
  6
CONTINUOUS
 10
2.9192513484
 20
252.6540367552
  0
VERTEX
  8
0
 62
7
  6
CONTINUOUS
 10
2.9010557739
 20
254.3580994841
  0
VERTEX
  8
0
 62
7
  6
CONTINUOUS
 10
2.8829811286
 20
255.9916028916
  0
VERTEX
  8
0
 62
7
  6
CONTINUOUS
 10
2.865535788
 20
257.5189273211
  0
VERTEX
  8
0
 62
7
  6
CONTINUOUS
 10
2.8497342531
 20
258.865093455
  0
VERTEX
  8
0
 62
7
  6
CONTINUOUS
 10
2.8352147291
 20
260.0737570038
  0
VERTEX
  8
0
 62
7
  6
CONTINUOUS
 10
2.8218630836
 20
261.1632510307
  0
VERTEX
  8
0
 62
7
  6
CONTINUOUS
 10
2.8069125006
 20
262.3601867279
  0
VERTEX
  8
0
 62
7
  6
CONTINUOUS
 10
2.789585013
 20
263.7193848966
  0
VERTEX
  8
0
 62
7
  6
CONTINUOUS
 10
2.7693008959
 20
265.2755731827
  0
VERTEX
  8
0
 62
7
  6
CONTINUOUS
 10
2.7488325748
 20
266.8111011564
  0
VERTEX
  8
0
 62
7
  6
CONTINUOUS
 10
2.7305766829
 20
268.1537747066
  0
VERTEX
  8
0
 62
7
  6
CONTINUOUS
 10
2.7140863306
 20
269.3466160577
  0
VERTEX
  8
0
 62
7
  6
CONTINUOUS
 10
2.6993704162
 20
270.396207756
  0
VERTEX
  8
0
 62
7
  6
CONTINUOUS
 10
2.6860882587
 20
271.3320997888
  0
VERTEX
  8
0
 62
7
  6
CONTINUOUS
 10
2.6741713824
 20
272.1630235295
  0
VERTEX
  8
0
 62
7
  6
CONTINUOUS
 10
2.6626294282
 20
272.9602977198
  0
VERTEX
  8
0
 62
7
  6
CONTINUOUS
 10
2.6505327159
 20
273.7883276257
  0
VERTEX
  8
0
 62
7
  6
CONTINUOUS
 10
2.6364798542
 20
274.7410215502
  0
VERTEX
  8
0
 62
7
  6
CONTINUOUS
 10
2.6206885797
 20
275.8003864805
  0
VERTEX
  8
0
 62
7
  6
CONTINUOUS
 10
2.6033236646
 20
276.952489704
  0
VERTEX
  8
0
 62
7
  6
CONTINUOUS
 10
2.5850762559
 20
278.1494264915
  0
VERTEX
  8
0
 62
7
  6
CONTINUOUS
 10
2.5661550361
 20
279.3765147768
  0
VERTEX
  8
0
 62
7
  6
CONTINUOUS
 10
2.5464092757
 20
280.6428304279
  0
VERTEX
  8
0
 62
7
  6
CONTINUOUS
 10
2.5241660443
 20
282.0530865364
  0
VERTEX
  8
0
 62
7
  6
CONTINUOUS
 10
2.4983369119
 20
283.670775999
  0
VERTEX
  8
0
 62
7
  6
CONTINUOUS
 10
2.4685491576
 20
285.5120218436
  0
VERTEX
  8
0
 62
7
  6
CONTINUOUS
 10
2.4386764205
 20
287.3345430397
  0
VERTEX
  8
0
 62
7
  6
CONTINUOUS
 10
2.4104142258
 20
289.0386490686
  0
VERTEX
  8
0
 62
7
  6
CONTINUOUS
 10
2.3815749042
 20
290.7591127393
  0
VERTEX
  8
0
 62
7
  6
CONTINUOUS
 10
2.349630351
 20
292.6450515679
  0
VERTEX
  8
0
 62
7
  6
CONTINUOUS
 10
2.3127977718
 20
294.7963630727
  0
VERTEX
  8
0
 62
7
  6
CONTINUOUS
 10
2.2716152314
 20
297.1756476273
  0
VERTEX
  8
0
 62
7
  6
CONTINUOUS
 10
2.233129978
 20
299.3772418666
  0
VERTEX
  8
0
 62
7
  6
CONTINUOUS
 10
2.1949634659
 20
301.5424534922
  0
VERTEX
  8
0
 62
7
  6
CONTINUOUS
 10
2.1527807733
 20
303.9173282172
  0
VERTEX
  8
0
 62
7
  6
CONTINUOUS
 10
2.1059633753
 20
306.5342636791
  0
VERTEX
  8
0
 62
7
  6
CONTINUOUS
 10
2.062420984
 20
308.953570599
  0
VERTEX
  8
0
 62
7
  6
CONTINUOUS
 10
2.0210423627
 20
311.2423103676
  0
VERTEX
  8
0
 62
7
  6
CONTINUOUS
 10
1.9742829464
 20
313.8194819931
  0
VERTEX
  8
0
 62
7
  6
CONTINUOUS
 10
1.9278563664
 20
316.3717063063
  0
VERTEX
  8
0
 62
7
  6
CONTINUOUS
 10
1.8805760111
 20
318.9672456387
  0
VERTEX
  8
0
 62
7
  6
CONTINUOUS
 10
1.8352786916
 20
321.4533610558
  0
VERTEX
  8
0
 62
7
  6
CONTINUOUS
 10
1.7944515364
 20
323.6959380142
  0
VERTEX
  8
0
 62
7
  6
CONTINUOUS
 10
1.7567399917
 20
325.7706712929
  0
VERTEX
  8
0
 62
7
  6
CONTINUOUS
 10
1.7233689477
 20
327.6105365705
  0
VERTEX
  8
0
 62
7
  6
CONTINUOUS
 10
1.693314115
 20
329.271658003
  0
VERTEX
  8
0
 62
7
  6
CONTINUOUS
 10
1.666385136
 20
330.7640091364
  0
VERTEX
  8
0
 62
7
  6
CONTINUOUS
 10
1.6423363892
 20
332.1004344724
  0
VERTEX
  8
0
 62
7
  6
CONTINUOUS
 10
1.6184594604
 20
333.4311997436
  0
VERTEX
  8
0
 62
7
  6
CONTINUOUS
 10
1.5913016967
 20
334.9500803185
  0
VERTEX
  8
0
 62
7
  6
CONTINUOUS
 10
1.5624629012
 20
336.5698057643
  0
VERTEX
  8
0
 62
7
  6
CONTINUOUS
 10
1.5365038854
 20
338.0344583557
  0
VERTEX
  8
0
 62
7
  6
CONTINUOUS
 10
1.5131181431
 20
339.3598487391
  0
VERTEX
  8
0
 62
7
  6
CONTINUOUS
 10
1.4923369894
 20
340.542726586
  0
VERTEX
  8
0
 62
7
  6
CONTINUOUS
 10
1.4733668196
 20
341.6270064104
  0
VERTEX
  8
0
 62
7
  6
CONTINUOUS
 10
1.4524090302
 20
342.8301924561
  0
VERTEX
  8
0
 62
7
  6
CONTINUOUS
 10
1.431718744
 20
344.0238299299
  0
VERTEX
  8
0
 62
7
  6
CONTINUOUS
 10
1.4133328364
 20
345.0896516062
  0
VERTEX
  8
0
 62
7
  6
CONTINUOUS
 10
1.3950889512
 20
346.1522938644
  0
VERTEX
  8
0
 62
7
  6
CONTINUOUS
 10
1.3761849915
 20
347.2589703471
  0
VERTEX
  8
0
 62
7
  6
CONTINUOUS
 10
1.354900638
 20
348.5121936091
  0
VERTEX
  8
0
 62
7
  6
CONTINUOUS
 10
1.3307797422
 20
349.9422088828
  0
VERTEX
  8
0
 62
7
  6
CONTINUOUS
 10
1.3049559074
 20
351.485414248
  0
VERTEX
  8
0
 62
7
  6
CONTINUOUS
 10
1.2816481604
 20
352.8899795216
  0
VERTEX
  8
0
 62
7
  6
CONTINUOUS
 10
1.2611806056
 20
354.1330660674
  0
VERTEX
  8
0
 62
7
  6
CONTINUOUS
 10
1.2434141751
 20
355.2198586277
  0
VERTEX
  8
0
 62
7
  6
CONTINUOUS
 10
1.2276909238
 20
356.1879994924
  0
VERTEX
  8
0
 62
7
  6
CONTINUOUS
 10
1.2130329018
 20
357.0961243782
  0
VERTEX
  8
0
 62
7
  6
CONTINUOUS
 10
1.1976034751
 20
358.0581092581
  0
VERTEX
  8
0
 62
7
  6
CONTINUOUS
 10
1.1802862073
 20
359.1455160474
  0
VERTEX
  8
0
 62
7
  6
CONTINUOUS
 10
1.1632048403
 20
360.2264993881
  0
VERTEX
  8
0
 62
7
  6
CONTINUOUS
 10
1.1460148588
 20
361.3231530909
  0
VERTEX
  8
0
 62
7
  6
CONTINUOUS
 10
1.1271006101
 20
362.54052533
  0
VERTEX
  8
0
 62
7
  6
CONTINUOUS
 10
1.1076752188
 20
363.8031060431
  0
VERTEX
  8
0
 62
7
  6
CONTINUOUS
 10
1.085851941
 20
365.2372817708
  0
VERTEX
  8
0
 62
7
  6
CONTINUOUS
 10
1.0638307417
 20
366.7023998186
  0
VERTEX
  8
0
 62
7
  6
CONTINUOUS
 10
1.0478558444
 20
367.7771933522
  0
SEQEND
  0
POLYLINE
  8
0
 62
7
  6
CONTINUOUS
 66
1
 70
0
  0
VERTEX
  8
0
 62
7
  6
CONTINUOUS
 10
371.0172557741
 20
367.7769690091
  0
VERTEX
  8
0
 62
7
  6
CONTINUOUS
 10
370.8479946688
 20
367.6508859651
  0
VERTEX
  8
0
 62
7
  6
CONTINUOUS
 10
370.6761102701
 20
367.5284012461
  0
VERTEX
  8
0
 62
7
  6
CONTINUOUS
 10
370.5016790984
 20
367.4095694757
  0
VERTEX
  8
0
 62
7
  6
CONTINUOUS
 10
370.3247776742
 20
367.2944452774
  0
VERTEX
  8
0
 62
7
  6
CONTINUOUS
 10
370.1425911094
 20
367.1813281046
  0
VERTEX
  8
0
 62
7
  6
CONTINUOUS
 10
369.9580195137
 20
367.0721432016
  0
VERTEX
  8
0
 62
7
  6
CONTINUOUS
 10
369.7711489247
 20
366.9669390942
  0
VERTEX
  8
0
 62
7
  6
CONTINUOUS
 10
369.58206538
 20
366.8657643081
  0
VERTEX
  8
0
 62
7
  6
CONTINUOUS
 10
369.3908549172
 20
366.7686673688
  0
VERTEX
  8
0
 62
7
  6
CONTINUOUS
 10
369.1919955736
 20
366.6730726917
  0
VERTEX
  8
0
 62
7
  6
CONTINUOUS
 10
368.9910741547
 20
366.5818884661
  0
VERTEX
  8
0
 62
7
  6
CONTINUOUS
 10
368.7881890107
 20
366.495157068
  0
VERTEX
  8
0
 62
7
  6
CONTINUOUS
 10
368.5834384919
 20
366.4129208734
  0
VERTEX
  8
0
 62
7
  6
CONTINUOUS
 10
368.3769209483
 20
366.3352222582
  0
VERTEX
  8
0
 62
7
  6
CONTINUOUS
 10
368.1988287373
 20
366.2723529119
  0
VERTEX
  8
0
 62
7
  6
CONTINUOUS
 10
368.0195795474
 20
366.2128583817
  0
VERTEX
  8
0
 62
7
  6
CONTINUOUS
 10
367.8392388859
 20
366.1567581662
  0
VERTEX
  8
0
 62
7
  6
CONTINUOUS
 10
367.6578722604
 20
366.1040717637
  0
VERTEX
  8
0
 62
7
  6
CONTINUOUS
 10
367.4755451783
 20
366.054818673
  0
VERTEX
  8
0
 62
7
  6
CONTINUOUS
 10
367.2923231471
 20
366.0090183924
  0
VERTEX
  8
0
 62
7
  6
CONTINUOUS
 10
367.1035662198
 20
365.9656549684
  0
VERTEX
  8
0
 62
7
  6
CONTINUOUS
 10
366.9140047624
 20
365.9259561467
  0
VERTEX
  8
0
 62
7
  6
CONTINUOUS
 10
366.7237065399
 20
365.8899348214
  0
VERTEX
  8
0
 62
7
  6
CONTINUOUS
 10
366.5327393177
 20
365.8576038867
  0
VERTEX
  8
0
 62
7
  6
CONTINUOUS
 10
366.3411708609
 20
365.8289762367
  0
VERTEX
  8
0
 62
7
  6
CONTINUOUS
 10
366.1490689349
 20
365.8040647655
  0
VERTEX
  8
0
 62
7
  6
CONTINUOUS
 10
365.951863324
 20
365.7824169715
  0
VERTEX
  8
0
 62
7
  6
CONTINUOUS
 10
365.7542619113
 20
365.7646848031
  0
VERTEX
  8
0
 62
7
  6
CONTINUOUS
 10
365.5563572931
 20
365.7508730949
  0
VERTEX
  8
0
 62
7
  6
CONTINUOUS
 10
365.3582420655
 20
365.7409866817
  0
VERTEX
  8
0
 62
7
  6
CONTINUOUS
 10
365.1600088245
 20
365.7350303981
  0
VERTEX
  8
0
 62
7
  6
CONTINUOUS
 10
364.9617501662
 20
365.7330090789
  0
SEQEND
  0
POLYLINE
  8
0
 62
7
  6
CONTINUOUS
 66
1
 70
0
  0
VERTEX
  8
0
 62
7
  6
CONTINUOUS
 10
1.0478558444
 20
367.7771933522
  0
VERTEX
  8
0
 62
7
  6
CONTINUOUS
 10
1.2209838059
 20
367.6482855227
  0
VERTEX
  8
0
 62
7
  6
CONTINUOUS
 10
1.3968546147
 20
367.5231452222
  0
VERTEX
  8
0
 62
7
  6
CONTINUOUS
 10
1.5753843473
 20
367.4018281535
  0
VERTEX
  8
0
 62
7
  6
CONTINUOUS
 10
1.75648908
 20
367.2843900194
  0
VERTEX
  8
0
 62
7
  6
CONTINUOUS
 10
1.9400848892
 20
367.1708865227
  0
VERTEX
  8
0
 62
7
  6
CONTINUOUS
 10
2.1260878513
 20
367.0613733663
  0
VERTEX
  8
0
 62
7
  6
CONTINUOUS
 10
2.3154849538
 20
366.9553192418
  0
VERTEX
  8
0
 62
7
  6
CONTINUOUS
 10
2.507140117
 20
366.8534021614
  0
VERTEX
  8
0
 62
7
  6
CONTINUOUS
 10
2.70096181
 20
366.755667214
  0
VERTEX
  8
0
 62
7
  6
CONTINUOUS
 10
2.8968585016
 20
366.6621594887
  0
VERTEX
  8
0
 62
7
  6
CONTINUOUS
 10
3.094738661
 20
366.5729240746
  0
VERTEX
  8
0
 62
7
  6
CONTINUOUS
 10
3.2945107569
 20
366.4880060606
  0
VERTEX
  8
0
 62
7
  6
CONTINUOUS
 10
3.4960927728
 20
366.4074443638
  0
VERTEX
  8
0
 62
7
  6
CONTINUOUS
 10
3.6993770575
 20
366.3312783999
  0
VERTEX
  8
0
 62
7
  6
CONTINUOUS
 10
3.9042652849
 20
366.2595409539
  0
VERTEX
  8
0
 62
7
  6
CONTINUOUS
 10
4.1106591287
 20
366.1922648105
  0
VERTEX
  8
0
 62
7
  6
CONTINUOUS
 10
4.3184602629
 20
366.129482755
  0
VERTEX
  8
0
 62
7
  6
CONTINUOUS
 10
4.5275703612
 20
366.071227572
  0
VERTEX
  8
0
 62
7
  6
CONTINUOUS
 10
4.737919772
 20
366.0175230264
  0
VERTEX
  8
0
 62
7
  6
CONTINUOUS
 10
4.949384691
 20
365.96839926
  0
VERTEX
  8
0
 62
7
  6
CONTINUOUS
 10
5.1618696648
 20
365.9238761753
  0
VERTEX
  8
0
 62
7
  6
CONTINUOUS
 10
5.3752792398
 20
365.8839736749
  0
VERTEX
  8
0
 62
7
  6
CONTINUOUS
 10
5.5895179626
 20
365.8487116612
  0
VERTEX
  8
0
 62
7
  6
CONTINUOUS
 10
5.8044903797
 20
365.818110037
  0
VERTEX
  8
0
 62
7
  6
CONTINUOUS
 10
6.0201278187
 20
365.7921831226
  0
VERTEX
  8
0
 62
7
  6
CONTINUOUS
 10
6.2362827455
 20
365.7709445872
  0
VERTEX
  8
0
 62
7
  6
CONTINUOUS
 10
6.4528342234
 20
365.7544011731
  0
VERTEX
  8
0
 62
7
  6
CONTINUOUS
 10
6.6696613158
 20
365.7425596223
  0
VERTEX
  8
0
 62
7
  6
CONTINUOUS
 10
6.8866430864
 20
365.7354266769
  0
VERTEX
  8
0
 62
7
  6
CONTINUOUS
 10
7.1036585984
 20
365.7330090789
  0
SEQEND
  0
POLYLINE
  8
0
 62
7
  6
CONTINUOUS
 66
1
 70
0
  0
VERTEX
  8
0
 62
7
  6
CONTINUOUS
 10
368.9600645959
 20
210.0470318338
  0
VERTEX
  8
0
 62
7
  6
CONTINUOUS
 10
368.9611062881
 20
209.1001687548
  0
VERTEX
  8
0
 62
7
  6
CONTINUOUS
 10
368.9622298109
 20
208.2379881729
  0
VERTEX
  8
0
 62
7
  6
CONTINUOUS
 10
368.9637679726
 20
207.2772282304
  0
VERTEX
  8
0
 62
7
  6
CONTINUOUS
 10
368.9658760113
 20
206.1875300021
  0
VERTEX
  8
0
 62
7
  6
CONTINUOUS
 10
368.9686000819
 20
204.9656173967
  0
VERTEX
  8
0
 62
7
  6
CONTINUOUS
 10
368.9716169714
 20
203.736860085
  0
VERTEX
  8
0
 62
7
  6
CONTINUOUS
 10
368.9744336376
 20
202.6567809006
  0
VERTEX
  8
0
 62
7
  6
CONTINUOUS
 10
368.9771413004
 20
201.65283172
  0
VERTEX
  8
0
 62
7
  6
CONTINUOUS
 10
368.9796162903
 20
200.7491301096
  0
VERTEX
  8
0
 62
7
  6
CONTINUOUS
 10
368.9821157188
 20
199.8378873215
  0
VERTEX
  8
0
 62
7
  6
CONTINUOUS
 10
368.9845950395
 20
198.9226974761
  0
VERTEX
  8
0
 62
7
  6
CONTINUOUS
 10
368.9871083848
 20
197.96780824
  0
VERTEX
  8
0
 62
7
  6
CONTINUOUS
 10
368.9897839732
 20
196.8984920257
  0
VERTEX
  8
0
 62
7
  6
CONTINUOUS
 10
368.9924186528
 20
195.7574617889
  0
VERTEX
  8
0
 62
7
  6
CONTINUOUS
 10
368.9945317835
 20
194.7454583277
  0
VERTEX
  8
0
 62
7
  6
CONTINUOUS
 10
368.9963305886
 20
193.7866110886
  0
VERTEX
  8
0
 62
7
  6
CONTINUOUS
 10
368.9980783824
 20
192.7284624585
  0
VERTEX
  8
0
 62
7
  6
CONTINUOUS
 10
368.9997358172
 20
191.5998169654
  0
VERTEX
  8
0
 62
7
  6
CONTINUOUS
 10
369.0014567828
 20
190.4526320888
  0
VERTEX
  8
0
 62
7
  6
CONTINUOUS
 10
369.0035067871
 20
189.1725967571
  0
VERTEX
  8
0
 62
7
  6
CONTINUOUS
 10
369.0056687919
 20
187.8172015791
  0
VERTEX
  8
0
 62
7
  6
CONTINUOUS
 10
369.0075401928
 20
186.6027318008
  0
VERTEX
  8
0
 62
7
  6
CONTINUOUS
 10
369.0093177349
 20
185.3782490768
  0
VERTEX
  8
0
 62
7
  6
CONTINUOUS
 10
369.0111230103
 20
183.9994041927
  0
VERTEX
  8
0
 62
7
  6
CONTINUOUS
 10
369.0128255821
 20
182.4403482737
  0
VERTEX
  8
0
 62
7
  6
CONTINUOUS
 10
369.0141967697
 20
180.6696700515
  0
VERTEX
  8
0
 62
7
  6
CONTINUOUS
 10
369.0148603738
 20
178.6471814129
  0
VERTEX
  8
0
 62
7
  6
CONTINUOUS
 10
369.0143193475
 20
176.4073541266
  0
VERTEX
  8
0
 62
7
  6
CONTINUOUS
 10
369.012044552
 20
173.9475577408
  0
VERTEX
  8
0
 62
7
  6
CONTINUOUS
 10
369.0084117259
 20
171.6209950477
  0
VERTEX
  8
0
 62
7
  6
CONTINUOUS
 10
369.0036788294
 20
169.2947300315
  0
VERTEX
  8
0
 62
7
  6
CONTINUOUS
 10
368.9987951313
 20
167.2302022382
  0
VERTEX
  8
0
 62
7
  6
CONTINUOUS
 10
368.9938475278
 20
165.3613881389
  0
VERTEX
  8
0
 62
7
  6
CONTINUOUS
 10
368.9883447814
 20
163.5090413664
  0
VERTEX
  8
0
 62
7
  6
CONTINUOUS
 10
368.9822810503
 20
161.694619926
  0
VERTEX
  8
0
 62
7
  6
CONTINUOUS
 10
368.975929103
 20
159.9916865441
  0
VERTEX
  8
0
 62
7
  6
CONTINUOUS
 10
368.9698226983
 20
158.5007322573
  0
VERTEX
  8
0
 62
7
  6
CONTINUOUS
 10
368.9637037051
 20
157.1209767894
  0
VERTEX
  8
0
 62
7
  6
CONTINUOUS
 10
368.9575716786
 20
155.8326224761
  0
VERTEX
  8
0
 62
7
  6
CONTINUOUS
 10
368.9518637002
 20
154.70559785
  0
VERTEX
  8
0
 62
7
  6
CONTINUOUS
 10
368.946548912
 20
153.7108870245
  0
VERTEX
  8
0
 62
7
  6
CONTINUOUS
 10
368.9416377937
 20
152.8334580628
  0
VERTEX
  8
0
 62
7
  6
CONTINUOUS
 10
368.9369850908
 20
152.0355741958
  0
VERTEX
  8
0
 62
7
  6
CONTINUOUS
 10
368.9322684452
 20
151.2565987091
  0
VERTEX
  8
0
 62
7
  6
CONTINUOUS
 10
368.9272710747
 20
150.4600658577
  0
VERTEX
  8
0
 62
7
  6
CONTINUOUS
 10
368.9214432943
 20
149.5637138383
  0
VERTEX
  8
0
 62
7
  6
CONTINUOUS
 10
368.9147311819
 20
148.5686222934
  0
VERTEX
  8
0
 62
7
  6
CONTINUOUS
 10
368.9073590733
 20
147.5146422723
  0
VERTEX
  8
0
 62
7
  6
CONTINUOUS
 10
368.8996221358
 20
146.4457776496
  0
VERTEX
  8
0
 62
7
  6
CONTINUOUS
 10
368.8906199707
 20
145.2430564406
  0
VERTEX
  8
0
 62
7
  6
CONTINUOUS
 10
368.8820566142
 20
144.1340202306
  0
VERTEX
  8
0
 62
7
  6
CONTINUOUS
 10
368.8741183428
 20
143.1324238246
  0
VERTEX
  8
0
 62
7
  6
CONTINUOUS
 10
368.8657500877
 20
142.1008547898
  0
VERTEX
  8
0
 62
7
  6
CONTINUOUS
 10
368.8568406455
 20
141.0268552793
  0
VERTEX
  8
0
 62
7
  6
CONTINUOUS
 10
368.8470191349
 20
139.868623072
  0
VERTEX
  8
0
 62
7
  6
CONTINUOUS
 10
368.8360078663
 20
138.5984003613
  0
VERTEX
  8
0
 62
7
  6
CONTINUOUS
 10
368.8233286014
 20
137.1682742893
  0
VERTEX
  8
0
 62
7
  6
CONTINUOUS
 10
368.8102771698
 20
135.7278451743
  0
VERTEX
  8
0
 62
7
  6
CONTINUOUS
 10
368.7985788797
 20
134.4606166938
  0
VERTEX
  8
0
 62
7
  6
CONTINUOUS
 10
368.7881478133
 20
133.347543759
  0
VERTEX
  8
0
 62
7
  6
CONTINUOUS
 10
368.7789357643
 20
132.3766324273
  0
VERTEX
  8
0
 62
7
  6
CONTINUOUS
 10
368.7708098776
 20
131.528926189
  0
VERTEX
  8
0
 62
7
  6
CONTINUOUS
 10
368.7625203312
 20
130.6718914218
  0
VERTEX
  8
0
 62
7
  6
CONTINUOUS
 10
368.7541600996
 20
129.8145290334
  0
VERTEX
  8
0
 62
7
  6
CONTINUOUS
 10
368.7448225406
 20
128.8640890373
  0
VERTEX
  8
0
 62
7
  6
CONTINUOUS
 10
368.7347494274
 20
127.8479282541
  0
VERTEX
  8
0
 62
7
  6
CONTINUOUS
 10
368.72536229
 20
126.9155565242
  0
VERTEX
  8
0
 62
7
  6
CONTINUOUS
 10
368.7166080251
 20
126.0632989538
  0
VERTEX
  8
0
 62
7
  6
CONTINUOUS
 10
368.7070426411
 20
125.1505633675
  0
VERTEX
  8
0
 62
7
  6
CONTINUOUS
 10
368.6960625497
 20
124.1235745485
  0
VERTEX
  8
0
 62
7
  6
CONTINUOUS
 10
368.6832967226
 20
122.9535141168
  0
VERTEX
  8
0
 62
7
  6
CONTINUOUS
 10
368.6685507627
 20
121.628979679
  0
VERTEX
  8
0
 62
7
  6
CONTINUOUS
 10
368.6520197306
 20
120.1724386945
  0
VERTEX
  8
0
 62
7
  6
CONTINUOUS
 10
368.6363968534
 20
118.8182504634
  0
VERTEX
  8
0
 62
7
  6
CONTINUOUS
 10
368.6218075302
 20
117.5695177629
  0
VERTEX
  8
0
 62
7
  6
CONTINUOUS
 10
368.6081074594
 20
116.408143864
  0
VERTEX
  8
0
 62
7
  6
CONTINUOUS
 10
368.59433936
 20
115.2496757027
  0
VERTEX
  8
0
 62
7
  6
CONTINUOUS
 10
368.5810565358
 20
114.1383805567
  0
VERTEX
  8
0
 62
7
  6
CONTINUOUS
 10
368.5676336906
 20
113.0200352886
  0
VERTEX
  8
0
 62
7
  6
CONTINUOUS
 10
368.5541864164
 20
111.9027529679
  0
VERTEX
  8
0
 62
7
  6
CONTINUOUS
 10
368.5400092486
 20
110.7264225296
  0
VERTEX
  8
0
 62
7
  6
CONTINUOUS
 10
368.5249755751
 20
109.4783524758
  0
VERTEX
  8
0
 62
7
  6
CONTINUOUS
 10
368.5111085465
 20
108.3229211632
  0
VERTEX
  8
0
 62
7
  6
CONTINUOUS
 10
368.4969815902
 20
107.137542512
  0
VERTEX
  8
0
 62
7
  6
CONTINUOUS
 10
368.4826951248
 20
105.9268401403
  0
VERTEX
  8
0
 62
7
  6
CONTINUOUS
 10
368.4699135264
 20
104.8361709852
  0
VERTEX
  8
0
 62
7
  6
CONTINUOUS
 10
368.4565407853
 20
103.6926544087
  0
VERTEX
  8
0
 62
7
  6
CONTINUOUS
 10
368.4412376926
 20
102.3881045131
  0
VERTEX
  8
0
 62
7
  6
CONTINUOUS
 10
368.4237707079
 20
100.9097403859
  0
VERTEX
  8
0
 62
7
  6
CONTINUOUS
 10
368.4039848867
 20
99.246566914
  0
VERTEX
  8
0
 62
7
  6
CONTINUOUS
 10
368.3815430461
 20
97.3702278286
  0
VERTEX
  8
0
 62
7
  6
CONTINUOUS
 10
368.3559836693
 20
95.238850808
  0
VERTEX
  8
0
 62
7
  6
CONTINUOUS
 10
368.3267252923
 20
92.794720545
  0
VERTEX
  8
0
 62
7
  6
CONTINUOUS
 10
368.2945806984
 20
90.0852012264
  0
VERTEX
  8
0
 62
7
  6
CONTINUOUS
 10
368.266114049
 20
87.6429768688
  0
VERTEX
  8
0
 62
7
  6
CONTINUOUS
 10
368.2402874797
 20
85.3755828758
  0
VERTEX
  8
0
 62
7
  6
CONTINUOUS
 10
368.2125591429
 20
82.8741398238
  0
VERTEX
  8
0
 62
7
  6
CONTINUOUS
 10
368.1820566988
 20
80.0330543172
  0
VERTEX
  8
0
 62
7
  6
CONTINUOUS
 10
368.1492082255
 20
76.8679897255
  0
VERTEX
  8
0
 62
7
  6
CONTINUOUS
 10
368.1197782531
 20
73.9425251424
  0
VERTEX
  8
0
 62
7
  6
CONTINUOUS
 10
368.094802331
 20
71.3904389005
  0
VERTEX
  8
0
 62
7
  6
CONTINUOUS
 10
368.0714559267
 20
68.9332817281
  0
VERTEX
  8
0
 62
7
  6
CONTINUOUS
 10
368.0482758338
 20
66.4081076137
  0
VERTEX
  8
0
 62
7
  6
CONTINUOUS
 10
368.0284014051
 20
64.1598351654
  0
VERTEX
  8
0
 62
7
  6
CONTINUOUS
 10
368.008672709
 20
61.8348321155
  0
VERTEX
  8
0
 62
7
  6
CONTINUOUS
 10
367.9887857494
 20
59.3738493762
  0
VERTEX
  8
0
 62
7
  6
CONTINUOUS
 10
367.969397482
 20
56.8393970776
  0
VERTEX
  8
0
 62
7
  6
CONTINUOUS
 10
367.9521500311
 20
54.4776203049
  0
VERTEX
  8
0
 62
7
  6
CONTINUOUS
 10
367.9336506086
 20
51.8527312318
  0
SEQEND
  0
POLYLINE
  8
0
 62
7
  6
CONTINUOUS
 66
1
 70
0
  0
VERTEX
  8
0
 62
7
  6
CONTINUOUS
 10
367.9336506086
 20
51.8527312318
  0
VERTEX
  8
0
 62
7
  6
CONTINUOUS
 10
367.9153467871
 20
49.1638551267
  0
VERTEX
  8
0
 62
7
  6
CONTINUOUS
 10
367.899878292
 20
46.8031090116
  0
VERTEX
  8
0
 62
7
  6
CONTINUOUS
 10
367.8866691309
 20
44.704643273
  0
VERTEX
  8
0
 62
7
  6
CONTINUOUS
 10
367.8736287164
 20
42.530912152
  0
VERTEX
  8
0
 62
7
  6
CONTINUOUS
 10
367.8596257993
 20
40.0597584118
  0
VERTEX
  8
0
 62
7
  6
CONTINUOUS
 10
367.8454999692
 20
37.4607884312
  0
VERTEX
  8
0
 62
7
  6
CONTINUOUS
 10
367.8330946674
 20
35.1533494999
  0
VERTEX
  8
0
 62
7
  6
CONTINUOUS
 10
367.8219654756
 20
33.1202753942
  0
VERTEX
  8
0
 62
7
  6
CONTINUOUS
 10
367.8119367525
 20
31.320600653
  0
VERTEX
  8
0
 62
7
  6
CONTINUOUS
 10
367.8014012296
 20
29.3958796691
  0
VERTEX
  8
0
 62
7
  6
CONTINUOUS
 10
367.7899936805
 20
27.2321553384
  0
VERTEX
  8
0
 62
7
  6
CONTINUOUS
 10
367.7791960913
 20
25.1700883418
  0
VERTEX
  8
0
 62
7
  6
CONTINUOUS
 10
367.7695116294
 20
23.3684224874
  0
VERTEX
  8
0
 62
7
  6
CONTINUOUS
 10
367.7591455243
 20
21.5384840529
  0
VERTEX
  8
0
 62
7
  6
CONTINUOUS
 10
367.7489025153
 20
19.8567625761
  0
VERTEX
  8
0
 62
7
  6
CONTINUOUS
 10
367.7393518801
 20
18.3832571515
  0
VERTEX
  8
0
 62
7
  6
CONTINUOUS
 10
367.7301554905
 20
17.017452044
  0
VERTEX
  8
0
 62
7
  6
CONTINUOUS
 10
367.7201833936
 20
15.5680193664
  0
VERTEX
  8
0
 62
7
  6
CONTINUOUS
 10
367.7111625856
 20
14.2783423697
  0
VERTEX
  8
0
 62
7
  6
CONTINUOUS
 10
367.7030489417
 20
13.1506004944
  0
VERTEX
  8
0
 62
7
  6
CONTINUOUS
 10
367.6956560402
 20
12.1599428891
  0
VERTEX
  8
0
 62
7
  6
CONTINUOUS
 10
367.6887717193
 20
11.2744974087
  0
VERTEX
  8
0
 62
7
  6
CONTINUOUS
 10
367.6813923247
 20
10.3680710693
  0
VERTEX
  8
0
 62
7
  6
CONTINUOUS
 10
367.6729054344
 20
9.3815125718
  0
VERTEX
  8
0
 62
7
  6
CONTINUOUS
 10
367.6633400788
 20
8.3416273674
  0
VERTEX
  8
0
 62
7
  6
CONTINUOUS
 10
367.6533597381
 20
7.3349815105
  0
VERTEX
  8
0
 62
7
  6
CONTINUOUS
 10
367.6438302705
 20
6.435858026
  0
VERTEX
  8
0
 62
7
  6
CONTINUOUS
 10
367.633680069
 20
5.5216901
  0
VERTEX
  8
0
 62
7
  6
CONTINUOUS
 10
367.6228221363
 20
4.5776749887
  0
VERTEX
  8
0
 62
7
  6
CONTINUOUS
 10
367.6103545593
 20
3.5337127055
  0
VERTEX
  8
0
 62
7
  6
CONTINUOUS
 10
367.5960764098
 20
2.3890818444
  0
VERTEX
  8
0
 62
7
  6
CONTINUOUS
 10
367.5819143402
 20
1.3051625354
  0
VERTEX
  8
0
 62
7
  6
CONTINUOUS
 10
367.5682392072
 20
0.305437927
  0
VERTEX
  8
0
 62
7
  6
CONTINUOUS
 10
367.5540060054
 20
-0.6841904437
  0
VERTEX
  8
0
 62
7
  6
CONTINUOUS
 10
367.5373524551
 20
-1.775231165
  0
VERTEX
  8
0
 62
7
  6
CONTINUOUS
 10
367.5188774573
 20
-2.9048683887
  0
VERTEX
  8
0
 62
7
  6
CONTINUOUS
 10
367.4966663803
 20
-4.1697160726
  0
VERTEX
  8
0
 62
7
  6
CONTINUOUS
 10
367.4696685741
 20
-5.6020895624
  0
VERTEX
  8
0
 62
7
  6
CONTINUOUS
 10
367.436609173
 20
-7.2370031371
  0
VERTEX
  8
0
 62
7
  6
CONTINUOUS
 10
367.3974566309
 20
-9.0426638971
  0
VERTEX
  8
0
 62
7
  6
CONTINUOUS
 10
367.3592581262
 20
-10.6807798184
  0
VERTEX
  8
0
 62
7
  6
CONTINUOUS
 10
367.3232497505
 20
-12.1197360998
  0
VERTEX
  8
0
 62
7
  6
CONTINUOUS
 10
367.2894029484
 20
-13.3883717901
  0
VERTEX
  8
0
 62
7
  6
CONTINUOUS
 10
367.2511973548
 20
-14.7370892498
  0
VERTEX
  8
0
 62
7
  6
CONTINUOUS
 10
367.2051240226
 20
-16.2640379094
  0
VERTEX
  8
0
 62
7
  6
CONTINUOUS
 10
367.1533458894
 20
-17.87088525
  0
VERTEX
  8
0
 62
7
  6
CONTINUOUS
 10
367.1038433006
 20
-19.3160760043
  0
VERTEX
  8
0
 62
7
  6
CONTINUOUS
 10
367.0569278204
 20
-20.6153755097
  0
VERTEX
  8
0
 62
7
  6
CONTINUOUS
 10
367.0139756852
 20
-21.7518375641
  0
VERTEX
  8
0
 62
7
  6
CONTINUOUS
 10
366.9752567159
 20
-22.7369562667
  0
VERTEX
  8
0
 62
7
  6
CONTINUOUS
 10
366.9386371762
 20
-23.6370830551
  0
VERTEX
  8
0
 62
7
  6
CONTINUOUS
 10
366.9022802806
 20
-24.5024978133
  0
VERTEX
  8
0
 62
7
  6
CONTINUOUS
 10
366.8603427308
 20
-25.4680881731
  0
VERTEX
  8
0
 62
7
  6
CONTINUOUS
 10
366.811395578
 20
-26.5537888205
  0
VERTEX
  8
0
 62
7
  6
CONTINUOUS
 10
366.7545732243
 20
-27.7625029656
  0
VERTEX
  8
0
 62
7
  6
CONTINUOUS
 10
366.6871994086
 20
-29.1301477385
  0
VERTEX
  8
0
 62
7
  6
CONTINUOUS
 10
366.6067137197
 20
-30.6808653128
  0
VERTEX
  8
0
 62
7
  6
CONTINUOUS
 10
366.5101696908
 20
-32.4405803994
  0
VERTEX
  8
0
 62
7
  6
CONTINUOUS
 10
366.3940999827
 20
-34.4353658303
  0
VERTEX
  8
0
 62
7
  6
CONTINUOUS
 10
366.2657469626
 20
-36.5071753475
  0
VERTEX
  8
0
 62
7
  6
CONTINUOUS
 10
366.1359696164
 20
-38.4760128771
  0
VERTEX
  8
0
 62
7
  6
CONTINUOUS
 10
365.9879647184
 20
-40.5849459117
  0
VERTEX
  8
0
 62
7
  6
CONTINUOUS
 10
365.8322037295
 20
-42.6691956863
  0
VERTEX
  8
0
 62
7
  6
CONTINUOUS
 10
365.6737130496
 20
-44.6716422767
  0
VERTEX
  8
0
 62
7
  6
CONTINUOUS
 10
365.5179948961
 20
-46.5415932179
  0
VERTEX
  8
0
 62
7
  6
CONTINUOUS
 10
365.3753598231
 20
-48.1790017194
  0
VERTEX
  8
0
 62
7
  6
CONTINUOUS
 10
365.2452099921
 20
-49.6142614601
  0
VERTEX
  8
0
 62
7
  6
CONTINUOUS
 10
365.1259391312
 20
-50.8830073399
  0
VERTEX
  8
0
 62
7
  6
CONTINUOUS
 10
365.0162027686
 20
-52.013354759
  0
VERTEX
  8
0
 62
7
  6
CONTINUOUS
 10
364.915146474
 20
-53.0259882152
  0
VERTEX
  8
0
 62
7
  6
CONTINUOUS
 10
364.8136768772
 20
-54.0182790828
  0
VERTEX
  8
0
 62
7
  6
CONTINUOUS
 10
364.7027032559
 20
-55.078360983
  0
VERTEX
  8
0
 62
7
  6
CONTINUOUS
 10
364.5763458673
 20
-56.2562034955
  0
VERTEX
  8
0
 62
7
  6
CONTINUOUS
 10
364.4503899031
 20
-57.3999514354
  0
VERTEX
  8
0
 62
7
  6
CONTINUOUS
 10
364.3112593719
 20
-58.6284380478
  0
VERTEX
  8
0
 62
7
  6
CONTINUOUS
 10
364.1737313568
 20
-59.8084960504
  0
VERTEX
  8
0
 62
7
  6
CONTINUOUS
 10
364.0508338609
 20
-60.8362585529
  0
VERTEX
  8
0
 62
7
  6
CONTINUOUS
 10
363.9361267864
 20
-61.7744607177
  0
VERTEX
  8
0
 62
7
  6
CONTINUOUS
 10
363.8209198942
 20
-62.6978169368
  0
VERTEX
  8
0
 62
7
  6
CONTINUOUS
 10
363.6910311995
 20
-63.7178524277
  0
VERTEX
  8
0
 62
7
  6
CONTINUOUS
 10
363.5442836607
 20
-64.8455917365
  0
VERTEX
  8
0
 62
7
  6
CONTINUOUS
 10
363.3733258853
 20
-66.1277834023
  0
VERTEX
  8
0
 62
7
  6
CONTINUOUS
 10
363.1970314896
 20
-67.4154347154
  0
VERTEX
  8
0
 62
7
  6
CONTINUOUS
 10
363.0344500476
 20
-68.5728228327
  0
VERTEX
  8
0
 62
7
  6
CONTINUOUS
 10
362.8763681267
 20
-69.6723518094
  0
VERTEX
  8
0
 62
7
  6
CONTINUOUS
 10
362.7122808413
 20
-70.7890324312
  0
VERTEX
  8
0
 62
7
  6
CONTINUOUS
 10
362.5439401066
 20
-71.9105659961
  0
VERTEX
  8
0
 62
7
  6
CONTINUOUS
 10
362.3614296102
 20
-73.1002039014
  0
VERTEX
  8
0
 62
7
  6
CONTINUOUS
 10
362.1930016491
 20
-74.174793055
  0
VERTEX
  8
0
 62
7
  6
CONTINUOUS
 10
362.0416126513
 20
-75.1223905148
  0
VERTEX
  8
0
 62
7
  6
CONTINUOUS
 10
361.8952775521
 20
-76.0226001083
  0
VERTEX
  8
0
 62
7
  6
CONTINUOUS
 10
361.7536363393
 20
-76.8801607225
  0
VERTEX
  8
0
 62
7
  6
CONTINUOUS
 10
361.6105754212
 20
-77.7335065771
  0
VERTEX
  8
0
 62
7
  6
CONTINUOUS
 10
361.4543257761
 20
-78.6517437472
  0
VERTEX
  8
0
 62
7
  6
CONTINUOUS
 10
361.2771437275
 20
-79.6765258688
  0
VERTEX
  8
0
 62
7
  6
CONTINUOUS
 10
361.0926506875
 20
-80.7250787667
  0
VERTEX
  8
0
 62
7
  6
CONTINUOUS
 10
360.9185068636
 20
-81.697333163
  0
VERTEX
  8
0
 62
7
  6
CONTINUOUS
 10
360.7642633665
 20
-82.5443081805
  0
VERTEX
  8
0
 62
7
  6
CONTINUOUS
 10
360.6131307427
 20
-83.3617127308
  0
VERTEX
  8
0
 62
7
  6
CONTINUOUS
 10
360.4642802827
 20
-84.1558440411
  0
VERTEX
  8
0
 62
7
  6
CONTINUOUS
 10
360.318014683
 20
-84.9266548203
  0
VERTEX
  8
0
 62
7
  6
CONTINUOUS
 10
360.1517214138
 20
-85.792559676
  0
VERTEX
  8
0
 62
7
  6
CONTINUOUS
 10
359.9627277076
 20
-86.7635761546
  0
VERTEX
  8
0
 62
7
  6
CONTINUOUS
 10
359.7500808862
 20
-87.8394743855
  0
VERTEX
  8
0
 62
7
  6
CONTINUOUS
 10
359.5099061828
 20
-89.0334766111
  0
VERTEX
  8
0
 62
7
  6
CONTINUOUS
 10
359.236784121
 20
-90.3640266232
  0
SEQEND
  0
POLYLINE
  8
0
 62
7
  6
CONTINUOUS
 66
1
 70
0
  0
VERTEX
  8
0
 62
7
  6
CONTINUOUS
 10
371.0172557741
 20
367.7769690091
  0
VERTEX
  8
0
 62
7
  6
CONTINUOUS
 10
370.9944752672
 20
366.2682161069
  0
VERTEX
  8
0
 62
7
  6
CONTINUOUS
 10
370.9699104878
 20
364.6629456363
  0
VERTEX
  8
0
 62
7
  6
CONTINUOUS
 10
370.948134938
 20
363.2567590373
  0
VERTEX
  8
0
 62
7
  6
CONTINUOUS
 10
370.9289359542
 20
362.0287618738
  0
VERTEX
  8
0
 62
7
  6
CONTINUOUS
 10
370.9113658366
 20
360.9137711803
  0
VERTEX
  8
0
 62
7
  6
CONTINUOUS
 10
370.8930367565
 20
359.7587826119
  0
VERTEX
  8
0
 62
7
  6
CONTINUOUS
 10
370.8761545283
 20
358.701565127
  0
VERTEX
  8
0
 62
7
  6
CONTINUOUS
 10
370.8591621733
 20
357.6431188067
  0
VERTEX
  8
0
 62
7
  6
CONTINUOUS
 10
370.8420014838
 20
356.5792737157
  0
VERTEX
  8
0
 62
7
  6
CONTINUOUS
 10
370.8241027891
 20
355.4744072087
  0
VERTEX
  8
0
 62
7
  6
CONTINUOUS
 10
370.8039698791
 20
354.2365018603
  0
VERTEX
  8
0
 62
7
  6
CONTINUOUS
 10
370.7811449158
 20
352.838088807
  0
VERTEX
  8
0
 62
7
  6
CONTINUOUS
 10
370.7583727443
 20
351.4468468073
  0
VERTEX
  8
0
 62
7
  6
CONTINUOUS
 10
370.7378134403
 20
350.1929950906
  0
VERTEX
  8
0
 62
7
  6
CONTINUOUS
 10
370.7194271374
 20
349.0732313323
  0
VERTEX
  8
0
 62
7
  6
CONTINUOUS
 10
370.6993934106
 20
347.8575950064
  0
VERTEX
  8
0
 62
7
  6
CONTINUOUS
 10
370.6763388667
 20
346.4690040659
  0
VERTEX
  8
0
 62
7
  6
CONTINUOUS
 10
370.6511509911
 20
344.9702492534
  0
VERTEX
  8
0
 62
7
  6
CONTINUOUS
 10
370.6244026156
 20
343.4015235795
  0
VERTEX
  8
0
 62
7
  6
CONTINUOUS
 10
370.5968923865
 20
341.8091243277
  0
VERTEX
  8
0
 62
7
  6
CONTINUOUS
 10
370.5674597013
 20
340.1251994745
  0
VERTEX
  8
0
 62
7
  6
CONTINUOUS
 10
370.5410469421
 20
338.6291016566
  0
VERTEX
  8
0
 62
7
  6
CONTINUOUS
 10
370.5178300385
 20
337.3242895659
  0
VERTEX
  8
0
 62
7
  6
CONTINUOUS
 10
370.4950520895
 20
336.0523225628
  0
VERTEX
  8
0
 62
7
  6
CONTINUOUS
 10
370.4716454616
 20
334.7525786619
  0
VERTEX
  8
0
 62
7
  6
CONTINUOUS
 10
370.4457488473
 20
333.3218128271
  0
VERTEX
  8
0
 62
7
  6
CONTINUOUS
 10
370.4162088167
 20
331.6970992153
  0
VERTEX
  8
0
 62
7
  6
CONTINUOUS
 10
370.3850944863
 20
329.9919136642
  0
VERTEX
  8
0
 62
7
  6
CONTINUOUS
 10
370.352172771
 20
328.1919483651
  0
VERTEX
  8
0
 62
7
  6
CONTINUOUS
 10
370.3173262247
 20
326.2885700954
  0
VERTEX
  8
0
 62
7
  6
CONTINUOUS
 10
370.2821884739
 20
324.367880238
  0
VERTEX
  8
0
 62
7
  6
CONTINUOUS
 10
370.24981368
 20
322.5938317372
  0
VERTEX
  8
0
 62
7
  6
CONTINUOUS
 10
370.2208228379
 20
320.9982066332
  0
VERTEX
  8
0
 62
7
  6
CONTINUOUS
 10
370.1892908239
 20
319.2503535102
  0
VERTEX
  8
0
 62
7
  6
CONTINUOUS
 10
370.1582011306
 20
317.5117979672
  0
VERTEX
  8
0
 62
7
  6
CONTINUOUS
 10
370.1290144344
 20
315.8749587299
  0
VERTEX
  8
0
 62
7
  6
CONTINUOUS
 10
370.0965936441
 20
314.0633417871
  0
VERTEX
  8
0
 62
7
  6
CONTINUOUS
 10
370.0602620254
 20
312.0420187031
  0
VERTEX
  8
0
 62
7
  6
CONTINUOUS
 10
370.0196112455
 20
309.787565199
  0
VERTEX
  8
0
 62
7
  6
CONTINUOUS
 10
369.9740488858
 20
307.2642014915
  0
VERTEX
  8
0
 62
7
  6
CONTINUOUS
 10
369.922879003
 20
304.4268934014
  0
VERTEX
  8
0
 62
7
  6
CONTINUOUS
 10
369.8662625958
 20
301.2718061719
  0
VERTEX
  8
0
 62
7
  6
CONTINUOUS
 10
369.8136391709
 20
298.3107853984
  0
VERTEX
  8
0
 62
7
  6
CONTINUOUS
 10
369.7681377446
 20
295.7136379749
  0
VERTEX
  8
0
 62
7
  6
CONTINUOUS
 10
369.7286882368
 20
293.4215413265
  0
VERTEX
  8
0
 62
7
  6
CONTINUOUS
 10
369.6942373789
 20
291.3833947096
  0
VERTEX
  8
0
 62
7
  6
CONTINUOUS
 10
369.6606165927
 20
289.36450126
  0
VERTEX
  8
0
 62
7
  6
CONTINUOUS
 10
369.624142711
 20
287.1462697066
  0
VERTEX
  8
0
 62
7
  6
CONTINUOUS
 10
369.5834313953
 20
284.6408179154
  0
VERTEX
  8
0
 62
7
  6
CONTINUOUS
 10
369.5380558726
 20
281.8057860602
  0
VERTEX
  8
0
 62
7
  6
CONTINUOUS
 10
369.488671646
 20
278.6561464246
  0
VERTEX
  8
0
 62
7
  6
CONTINUOUS
 10
369.443870741
 20
275.7243456167
  0
VERTEX
  8
0
 62
7
  6
CONTINUOUS
 10
369.4035771262
 20
273.0101271998
  0
VERTEX
  8
0
 62
7
  6
CONTINUOUS
 10
369.3602028087
 20
269.9842184175
  0
VERTEX
  8
0
 62
7
  6
CONTINUOUS
 10
369.3209411816
 20
267.1327800132
  0
VERTEX
  8
0
 62
7
  6
CONTINUOUS
 10
369.283851639
 20
264.3269215008
  0
VERTEX
  8
0
 62
7
  6
CONTINUOUS
 10
369.2439425953
 20
261.1676062884
  0
VERTEX
  8
0
 62
7
  6
CONTINUOUS
 10
369.2045918852
 20
257.8834032945
  0
VERTEX
  8
0
 62
7
  6
CONTINUOUS
 10
369.1717867712
 20
254.9888862769
  0
VERTEX
  8
0
 62
7
  6
CONTINUOUS
 10
369.1443578669
 20
252.4348954223
  0
VERTEX
  8
0
 62
7
  6
CONTINUOUS
 10
369.1212772939
 20
250.1711353623
  0
VERTEX
  8
0
 62
7
  6
CONTINUOUS
 10
369.1020076624
 20
248.1839962997
  0
VERTEX
  8
0
 62
7
  6
CONTINUOUS
 10
369.0848855642
 20
246.3266184336
  0
VERTEX
  8
0
 62
7
  6
CONTINUOUS
 10
369.0672047743
 20
244.2942551555
  0
VERTEX
  8
0
 62
7
  6
CONTINUOUS
 10
369.0491508587
 20
242.0633485535
  0
VERTEX
  8
0
 62
7
  6
CONTINUOUS
 10
369.0340797687
 20
240.0417327107
  0
VERTEX
  8
0
 62
7
  6
CONTINUOUS
 10
369.0219478194
 20
238.2758703011
  0
VERTEX
  8
0
 62
7
  6
CONTINUOUS
 10
369.0113258689
 20
236.6006559358
  0
VERTEX
  8
0
 62
7
  6
CONTINUOUS
 10
369.001158294
 20
234.8536789313
  0
VERTEX
  8
0
 62
7
  6
CONTINUOUS
 10
368.99225244
 20
233.173832751
  0
VERTEX
  8
0
 62
7
  6
CONTINUOUS
 10
368.9847275508
 20
231.6099011244
  0
VERTEX
  8
0
 62
7
  6
CONTINUOUS
 10
368.9783896281
 20
230.1596447327
  0
VERTEX
  8
0
 62
7
  6
CONTINUOUS
 10
368.9733071518
 20
228.8891684081
  0
VERTEX
  8
0
 62
7
  6
CONTINUOUS
 10
368.9691845448
 20
227.7739843131
  0
VERTEX
  8
0
 62
7
  6
CONTINUOUS
 10
368.9657013505
 20
226.7429751743
  0
VERTEX
  8
0
 62
7
  6
CONTINUOUS
 10
368.9626296145
 20
225.7143333261
  0
VERTEX
  8
0
 62
7
  6
CONTINUOUS
 10
368.9597942981
 20
224.5764117476
  0
VERTEX
  8
0
 62
7
  6
CONTINUOUS
 10
368.9575018119
 20
223.4100187163
  0
VERTEX
  8
0
 62
7
  6
CONTINUOUS
 10
368.9559641711
 20
222.3792528788
  0
VERTEX
  8
0
 62
7
  6
CONTINUOUS
 10
368.9549687794
 20
221.4748180827
  0
VERTEX
  8
0
 62
7
  6
CONTINUOUS
 10
368.9543311436
 20
220.6511424714
  0
VERTEX
  8
0
 62
7
  6
CONTINUOUS
 10
368.9539131396
 20
219.7730514275
  0
VERTEX
  8
0
 62
7
  6
CONTINUOUS
 10
368.9537386541
 20
218.8185146144
  0
VERTEX
  8
0
 62
7
  6
CONTINUOUS
 10
368.9538571375
 20
217.7256919582
  0
VERTEX
  8
0
 62
7
  6
CONTINUOUS
 10
368.9543424295
 20
216.487457274
  0
VERTEX
  8
0
 62
7
  6
CONTINUOUS
 10
368.955242589
 20
215.1078398332
  0
VERTEX
  8
0
 62
7
  6
CONTINUOUS
 10
368.9565228293
 20
213.6303787114
  0
VERTEX
  8
0
 62
7
  6
CONTINUOUS
 10
368.9578501704
 20
212.2838199526
  0
VERTEX
  8
0
 62
7
  6
CONTINUOUS
 10
368.9600645959
 20
210.0470318338
  0
SEQEND
  0
POLYLINE
  8
0
 62
7
  6
CONTINUOUS
 66
1
 70
0
  0
VERTEX
  8
0
 62
7
  6
CONTINUOUS
 10
232.2170830899
 20
-218.9881210174
  0
VERTEX
  8
0
 62
7
  6
CONTINUOUS
 10
237.1102111986
 20
-217.7481310817
  0
VERTEX
  8
0
 62
7
  6
CONTINUOUS
 10
242.0686501927
 20
-216.3621193769
  0
VERTEX
  8
0
 62
7
  6
CONTINUOUS
 10
246.7913737492
 20
-214.9125999843
  0
VERTEX
  8
0
 62
7
  6
CONTINUOUS
 10
251.3253020143
 20
-213.3944615474
  0
VERTEX
  8
0
 62
7
  6
CONTINUOUS
 10
255.7155027648
 20
-211.7989161659
  0
VERTEX
  8
0
 62
7
  6
CONTINUOUS
 10
259.9816272487
 20
-210.1230462958
  0
VERTEX
  8
0
 62
7
  6
CONTINUOUS
 10
264.1553814933
 20
-208.3568791134
  0
VERTEX
  8
0
 62
7
  6
CONTINUOUS
 10
268.2286323918
 20
-206.5057406706
  0
VERTEX
  8
0
 62
7
  6
CONTINUOUS
 10
272.1990588709
 20
-204.5734964021
  0
VERTEX
  8
0
 62
7
  6
CONTINUOUS
 10
276.0794009085
 20
-202.5566566609
  0
VERTEX
  8
0
 62
7
  6
CONTINUOUS
 10
279.8765484918
 20
-200.4537794397
  0
VERTEX
  8
0
 62
7
  6
CONTINUOUS
 10
283.5988307392
 20
-198.2619201453
  0
VERTEX
  8
0
 62
7
  6
CONTINUOUS
 10
287.2559127914
 20
-195.9763791495
  0
VERTEX
  8
0
 62
7
  6
CONTINUOUS
 10
290.8595829641
 20
-193.5901461119
  0
VERTEX
  8
0
 62
7
  6
CONTINUOUS
 10
294.4061755762
 20
-191.1057794806
  0
VERTEX
  8
0
 62
7
  6
CONTINUOUS
 10
297.8955289955
 20
-188.5234767071
  0
VERTEX
  8
0
 62
7
  6
CONTINUOUS
 10
301.3244830612
 20
-185.8455276738
  0
VERTEX
  8
0
 62
7
  6
CONTINUOUS
 10
304.6907096596
 20
-183.0736298005
  0
VERTEX
  8
0
 62
7
  6
CONTINUOUS
 10
307.9903351829
 20
-180.2107907465
  0
VERTEX
  8
0
 62
7
  6
CONTINUOUS
 10
311.2199170171
 20
-177.2597664395
  0
VERTEX
  8
0
 62
7
  6
CONTINUOUS
 10
314.3761052419
 20
-174.2232750679
  0
VERTEX
  8
0
 62
7
  6
CONTINUOUS
 10
317.451813189
 20
-171.107920275
  0
VERTEX
  8
0
 62
7
  6
CONTINUOUS
 10
320.441710632
 20
-167.9191874439
  0
VERTEX
  8
0
 62
7
  6
CONTINUOUS
 10
323.3383634343
 20
-164.6655059889
  0
VERTEX
  8
0
 62
7
  6
CONTINUOUS
 10
326.1358675543
 20
-161.3545842503
  0
VERTEX
  8
0
 62
7
  6
CONTINUOUS
 10
328.8295503097
 20
-157.9935222725
  0
VERTEX
  8
0
 62
7
  6
CONTINUOUS
 10
331.4148199482
 20
-154.5901641593
  0
VERTEX
  8
0
 62
7
  6
CONTINUOUS
 10
333.8923756706
 20
-151.145872054
  0
VERTEX
  8
0
 62
7
  6
CONTINUOUS
 10
336.2622998894
 20
-147.662566546
  0
VERTEX
  8
0
 62
7
  6
CONTINUOUS
 10
338.5262167272
 20
-144.1395780889
  0
VERTEX
  8
0
 62
7
  6
CONTINUOUS
 10
340.6859149542
 20
-140.575298279
  0
VERTEX
  8
0
 62
7
  6
CONTINUOUS
 10
342.7433308624
 20
-136.9670589536
  0
VERTEX
  8
0
 62
7
  6
CONTINUOUS
 10
344.7025357871
 20
-133.3070908919
  0
VERTEX
  8
0
 62
7
  6
CONTINUOUS
 10
346.5621810928
 20
-129.5966451575
  0
VERTEX
  8
0
 62
7
  6
CONTINUOUS
 10
348.3260985353
 20
-125.8268177993
  0
VERTEX
  8
0
 62
7
  6
CONTINUOUS
 10
349.9942947552
 20
-121.9958408015
  0
VERTEX
  8
0
 62
7
  6
CONTINUOUS
 10
351.5669184073
 20
-118.1016355578
  0
VERTEX
  8
0
 62
7
  6
CONTINUOUS
 10
353.0445941417
 20
-114.1408015937
  0
VERTEX
  8
0
 62
7
  6
CONTINUOUS
 10
354.426813352
 20
-110.1129414066
  0
VERTEX
  8
0
 62
7
  6
CONTINUOUS
 10
355.6707792649
 20
-106.1591544347
  0
SEQEND
  0
POLYLINE
  8
0
 62
7
  6
CONTINUOUS
 66
1
 70
0
  0
VERTEX
  8
0
 62
7
  6
CONTINUOUS
 10
228.6938819452
 20
-219.8026467729
  0
VERTEX
  8
0
 62
7
  6
CONTINUOUS
 10
229.8869748713
 20
-219.5371356574
  0
VERTEX
  8
0
 62
7
  6
CONTINUOUS
 10
232.2171214059
 20
-218.9881424852
  0
SEQEND
  0
POLYLINE
  8
0
 62
7
  6
CONTINUOUS
 66
1
 70
0
  0
VERTEX
  8
0
 62
7
  6
CONTINUOUS
 10
201.0330481466
 20
-224.440752726
  0
VERTEX
  8
0
 62
7
  6
CONTINUOUS
 10
214.0327259852
 20
-222.8155665
  0
VERTEX
  8
0
 62
7
  6
CONTINUOUS
 10
228.6464879364
 20
-219.81655855
  0
VERTEX
  8
0
 62
7
  6
CONTINUOUS
 10
243.2985592103
 20
-215.5156700011
  0
VERTEX
  8
0
 62
7
  6
CONTINUOUS
 10
257.6196354046
 20
-209.9659587945
  0
VERTEX
  8
0
 62
7
  6
CONTINUOUS
 10
271.2190045392
 20
-203.3256135896
  0
VERTEX
  8
0
 62
7
  6
CONTINUOUS
 10
284.2328035889
 20
-195.5401376714
  0
VERTEX
  8
0
 62
7
  6
CONTINUOUS
 10
296.7362983221
 20
-186.5451837755
  0
VERTEX
  8
0
 62
7
  6
CONTINUOUS
 10
308.4125829506
 20
-176.5577470216
  0
VERTEX
  8
0
 62
7
  6
CONTINUOUS
 10
319.063120396
 20
-165.7928787233
  0
VERTEX
  8
0
 62
7
  6
CONTINUOUS
 10
327.7349172933
 20
-155.527394053
  0
SEQEND
  0
POLYLINE
  8
0
 62
7
  6
CONTINUOUS
 66
1
 70
0
  0
VERTEX
  8
0
 62
7
  6
CONTINUOUS
 10
171.032310053
 20
-224.4407759417
  0
VERTEX
  8
0
 62
7
  6
CONTINUOUS
 10
175.6929002848
 20
-224.7747279869
  0
VERTEX
  8
0
 62
7
  6
CONTINUOUS
 10
181.6519039523
 20
-225.0011939364
  0
VERTEX
  8
0
 62
7
  6
CONTINUOUS
 10
187.2558738782
 20
-225.0480021435
  0
VERTEX
  8
0
 62
7
  6
CONTINUOUS
 10
192.5754443364
 20
-224.9421583133
  0
VERTEX
  8
0
 62
7
  6
CONTINUOUS
 10
197.7192989306
 20
-224.691576149
  0
VERTEX
  8
0
 62
7
  6
CONTINUOUS
 10
201.0330407177
 20
-224.4407542557
  0
SEQEND
  0
LINE
  8
0
 62
7
  6
CONTINUOUS
 10
157.8399234606
 20
-222.7880171678
 11
171.032305039
 21
-224.440818591
  0
POLYLINE
  8
0
 62
7
  6
CONTINUOUS
 66
1
 70
0
  0
VERTEX
  8
0
 62
7
  6
CONTINUOUS
 10
201.0327073764
 20
-156.3676816014
  0
VERTEX
  8
0
 62
7
  6
CONTINUOUS
 10
203.2500636109
 20
-156.0250008807
  0
VERTEX
  8
0
 62
7
  6
CONTINUOUS
 10
205.4372852871
 20
-155.6425277228
  0
VERTEX
  8
0
 62
7
  6
CONTINUOUS
 10
207.5947140907
 20
-155.2198221567
  0
VERTEX
  8
0
 62
7
  6
CONTINUOUS
 10
209.7213249651
 20
-154.7582071224
  0
VERTEX
  8
0
 62
7
  6
CONTINUOUS
 10
211.8160928538
 20
-154.2590056591
  0
VERTEX
  8
0
 62
7
  6
CONTINUOUS
 10
213.8793594425
 20
-153.7217781632
  0
SEQEND
  0
POLYLINE
  8
0
 62
7
  6
CONTINUOUS
 66
1
 70
0
  0
VERTEX
  8
0
 62
7
  6
CONTINUOUS
 10
171.0327043823
 20
-156.3676608808
  0
VERTEX
  8
0
 62
7
  6
CONTINUOUS
 10
176.0489409
 20
-156.9661966104
  0
VERTEX
  8
0
 62
7
  6
CONTINUOUS
 10
181.0648416603
 20
-157.3244783178
  0
VERTEX
  8
0
 62
7
  6
CONTINUOUS
 10
186.0861803975
 20
-157.4417121728
  0
VERTEX
  8
0
 62
7
  6
CONTINUOUS
 10
191.0956359084
 20
-157.3202688593
  0
VERTEX
  8
0
 62
7
  6
CONTINUOUS
 10
196.0758869899
 20
-156.9625211205
  0
VERTEX
  8
0
 62
7
  6
CONTINUOUS
 10
201.0327073764
 20
-156.3676816014
  0
SEQEND
  0
POLYLINE
  8
0
 62
7
  6
CONTINUOUS
 66
1
 70
0
  0
VERTEX
  8
0
 62
7
  6
CONTINUOUS
 10
44.3319089915
 20
-155.5254907942
  0
VERTEX
  8
0
 62
7
  6
CONTINUOUS
 10
53.1383503108
 20
-165.9399602712
  0
VERTEX
  8
0
 62
7
  6
CONTINUOUS
 10
63.806059777
 20
-176.7014669669
  0
VERTEX
  8
0
 62
7
  6
CONTINUOUS
 10
75.4152541559
 20
-186.6132285604
  0
VERTEX
  8
0
 62
7
  6
CONTINUOUS
 10
87.8236118498
 20
-195.5303922419
  0
VERTEX
  8
0
 62
7
  6
CONTINUOUS
 10
100.8017326303
 20
-203.2958338665
  0
VERTEX
  8
0
 62
7
  6
CONTINUOUS
 10
114.3617239795
 20
-209.9291870119
  0
VERTEX
  8
0
 62
7
  6
CONTINUOUS
 10
128.5396924629
 20
-215.4443952273
  0
VERTEX
  8
0
 62
7
  6
CONTINUOUS
 10
143.1018977571
 20
-219.7450047628
  0
VERTEX
  8
0
 62
7
  6
CONTINUOUS
 10
157.8399234606
 20
-222.7880171678
  0
SEQEND
  0
POLYLINE
  8
0
 62
7
  6
CONTINUOUS
 66
1
 70
0
  0
VERTEX
  8
0
 62
7
  6
CONTINUOUS
 10
213.8793594425
 20
-153.7217781632
  0
VERTEX
  8
0
 62
7
  6
CONTINUOUS
 10
216.0630179
 20
-153.1037844781
  0
VERTEX
  8
0
 62
7
  6
CONTINUOUS
 10
218.2646035052
 20
-152.4298833516
  0
VERTEX
  8
0
 62
7
  6
CONTINUOUS
 10
220.4847150622
 20
-151.7003806844
  0
VERTEX
  8
0
 62
7
  6
CONTINUOUS
 10
222.7215561588
 20
-150.9143587747
  0
VERTEX
  8
0
 62
7
  6
CONTINUOUS
 10
224.973330383
 20
-150.0708999209
  0
VERTEX
  8
0
 62
7
  6
CONTINUOUS
 10
227.2406365386
 20
-149.1703100236
  0
SEQEND
  0
POLYLINE
  8
0
 62
7
  6
CONTINUOUS
 66
1
 70
0
  0
VERTEX
  8
0
 62
7
  6
CONTINUOUS
 10
158.1859753136
 20
-153.7220532424
  0
VERTEX
  8
0
 62
7
  6
CONTINUOUS
 10
160.256235519
 20
-154.2613271
  0
VERTEX
  8
0
 62
7
  6
CONTINUOUS
 10
162.3552128867
 20
-154.7617162287
  0
VERTEX
  8
0
 62
7
  6
CONTINUOUS
 10
164.4832567664
 20
-155.2236410283
  0
VERTEX
  8
0
 62
7
  6
CONTINUOUS
 10
166.6393191087
 20
-155.6458359801
  0
VERTEX
  8
0
 62
7
  6
CONTINUOUS
 10
168.8223518641
 20
-156.0270356704
  0
VERTEX
  8
0
 62
7
  6
CONTINUOUS
 10
171.0327043823
 20
-156.3676608808
  0
SEQEND
  0
POLYLINE
  8
0
 62
7
  6
CONTINUOUS
 66
1
 70
0
  0
VERTEX
  8
0
 62
7
  6
CONTINUOUS
 10
144.824772226
 20
-149.1703100236
  0
VERTEX
  8
0
 62
7
  6
CONTINUOUS
 10
147.0929346915
 20
-150.0704645799
  0
VERTEX
  8
0
 62
7
  6
CONTINUOUS
 10
149.3451434781
 20
-150.913867893
  0
VERTEX
  8
0
 62
7
  6
CONTINUOUS
 10
151.5819277434
 20
-151.7003896799
  0
VERTEX
  8
0
 62
7
  6
CONTINUOUS
 10
153.8017000145
 20
-152.4304207898
  0
VERTEX
  8
0
 62
7
  6
CONTINUOUS
 10
156.0028728187
 20
-153.1043520716
  0
VERTEX
  8
0
 62
7
  6
CONTINUOUS
 10
158.1859753136
 20
-153.7220532424
  0
SEQEND
  0
POLYLINE
  8
0
 62
7
  6
CONTINUOUS
 66
1
 70
0
  0
VERTEX
  8
0
 62
7
  6
CONTINUOUS
 10
135.2074862807
 20
-144.755092307
  0
VERTEX
  8
0
 62
7
  6
CONTINUOUS
 10
137.72853367
 20
-146.0165547028
  0
VERTEX
  8
0
 62
7
  6
CONTINUOUS
 10
144.824772226
 20
-149.1703100236
  0
SEQEND
  0
POLYLINE
  8
0
 62
7
  6
CONTINUOUS
 66
1
 70
0
  0
VERTEX
  8
0
 62
7
  6
CONTINUOUS
 10
135.2096473307
 20
-144.7509040054
  0
VERTEX
  8
0
 62
7
  6
CONTINUOUS
 10
132.235116835
 20
-143.1608462713
  0
VERTEX
  8
0
 62
7
  6
CONTINUOUS
 10
127.1210657651
 20
-140.1526424415
  0
VERTEX
  8
0
 62
7
  6
CONTINUOUS
 10
123.2242746794
 20
-137.6029849278
  0
VERTEX
  8
0
 62
7
  6
CONTINUOUS
 10
120.1106962613
 20
-135.3915607843
  0
VERTEX
  8
0
 62
7
  6
CONTINUOUS
 10
117.4291051105
 20
-133.3507962323
  0
VERTEX
  8
0
 62
7
  6
CONTINUOUS
 10
115.1423425697
 20
-131.5030014597
  0
VERTEX
  8
0
 62
7
  6
CONTINUOUS
 10
113.1261663595
 20
-129.7862595411
  0
VERTEX
  8
0
 62
7
  6
CONTINUOUS
 10
111.3485862913
 20
-128.2004129884
  0
VERTEX
  8
0
 62
7
  6
CONTINUOUS
 10
109.7466395119
 20
-126.7094624946
  0
VERTEX
  8
0
 62
7
  6
CONTINUOUS
 10
108.314561509
 20
-125.3245670027
  0
VERTEX
  8
0
 62
7
  6
CONTINUOUS
 10
107.0105267336
 20
-124.0185202996
  0
SEQEND
  0
LINE
  8
0
 62
7
  6
CONTINUOUS
 10
107.0105267336
 20
-124.0185202996
 11
106.7617621074
 21
-123.7643959605
  0
POLYLINE
  8
0
 62
7
  6
CONTINUOUS
 66
1
 70
0
  0
VERTEX
  8
0
 62
7
  6
CONTINUOUS
 10
106.77310041
 20
-123.7764307967
  0
VERTEX
  8
0
 62
7
  6
CONTINUOUS
 10
106.7556231816
 20
-123.7585018062
  0
VERTEX
  8
0
 62
7
  6
CONTINUOUS
 10
106.6354044607
 20
-123.6360470827
  0
VERTEX
  8
0
 62
7
  6
CONTINUOUS
 10
106.5244917568
 20
-123.5238315129
  0
VERTEX
  8
0
 62
7
  6
CONTINUOUS
 10
106.4019548232
 20
-123.3998241038
  0
VERTEX
  8
0
 62
7
  6
CONTINUOUS
 10
106.2405821059
 20
-123.2351787012
  0
VERTEX
  8
0
 62
7
  6
CONTINUOUS
 10
106.0782229674
 20
-123.0669725094
  0
VERTEX
  8
0
 62
7
  6
CONTINUOUS
 10
105.9507969755
 20
-122.9329201754
  0
VERTEX
  8
0
 62
7
  6
CONTINUOUS
 10
105.8323066614
 20
-122.8070876027
  0
VERTEX
  8
0
 62
7
  6
CONTINUOUS
 10
105.708531063
 20
-122.6751643986
  0
SEQEND
  0
POLYLINE
  8
0
 62
7
  6
CONTINUOUS
 66
1
 70
0
  0
VERTEX
  8
0
 62
7
  6
CONTINUOUS
 10
105.5404019829
 20
-122.5048743424
  0
VERTEX
  8
0
 62
7
  6
CONTINUOUS
 10
105.7357093133
 20
-122.7107064361
  0
VERTEX
  8
0
 62
7
  6
CONTINUOUS
 10
105.9318451344
 20
-122.9164241557
  0
VERTEX
  8
0
 62
7
  6
CONTINUOUS
 10
106.128813395
 20
-123.1220247168
  0
VERTEX
  8
0
 62
7
  6
CONTINUOUS
 10
106.2825332178
 20
-123.2818121945
  0
SEQEND
  0
POLYLINE
  8
0
 62
7
  6
CONTINUOUS
 66
1
 70
0
  0
VERTEX
  8
0
 62
7
  6
CONTINUOUS
 10
105.708531063
 20
-122.6751643986
  0
VERTEX
  8
0
 62
7
  6
CONTINUOUS
 10
105.445138092
 20
-122.3948768951
  0
VERTEX
  8
0
 62
7
  6
CONTINUOUS
 10
105.3056193837
 20
-122.2459140344
  0
VERTEX
  8
0
 62
7
  6
CONTINUOUS
 10
105.1652532815
 20
-122.0955120372
  0
VERTEX
  8
0
 62
7
  6
CONTINUOUS
 10
105.0229241467
 20
-121.9424402674
  0
SEQEND
  0
POLYLINE
  8
0
 62
7
  6
CONTINUOUS
 66
1
 70
0
  0
VERTEX
  8
0
 62
7
  6
CONTINUOUS
 10
105.0229241467
 20
-121.9424402674
  0
VERTEX
  8
0
 62
7
  6
CONTINUOUS
 10
104.8785503169
 20
-121.7865749845
  0
VERTEX
  8
0
 62
7
  6
CONTINUOUS
 10
104.7319707972
 20
-121.6277174541
  0
SEQEND
  0
POLYLINE
  8
0
 62
7
  6
CONTINUOUS
 66
1
 70
0
  0
VERTEX
  8
0
 62
7
  6
CONTINUOUS
 10
104.7319707972
 20
-121.6277174541
  0
VERTEX
  8
0
 62
7
  6
CONTINUOUS
 10
104.5830373304
 20
-121.4656811085
  0
VERTEX
  8
0
 62
7
  6
CONTINUOUS
 10
104.4316323007
 20
-121.3003078261
  0
VERTEX
  8
0
 62
7
  6
CONTINUOUS
 10
104.2776032165
 20
-121.1313959072
  0
VERTEX
  8
0
 62
7
  6
CONTINUOUS
 10
104.1209228149
 20
-120.95887789
  0
VERTEX
  8
0
 62
7
  6
CONTINUOUS
 10
103.961512011
 20
-120.7826272353
  0
VERTEX
  8
0
 62
7
  6
CONTINUOUS
 10
103.7993826057
 20
-120.6026156912
  0
SEQEND
  0
POLYLINE
  8
0
 62
7
  6
CONTINUOUS
 66
1
 70
0
  0
VERTEX
  8
0
 62
7
  6
CONTINUOUS
 10
103.7993826057
 20
-120.6026156912
  0
VERTEX
  8
0
 62
7
  6
CONTINUOUS
 10
103.6345291914
 20
-120.4187944616
  0
VERTEX
  8
0
 62
7
  6
CONTINUOUS
 10
103.4669316935
 20
-120.2310965616
  0
VERTEX
  8
0
 62
7
  6
CONTINUOUS
 10
103.2965689677
 20
-120.0394519563
  0
VERTEX
  8
0
 62
7
  6
CONTINUOUS
 10
103.1234531886
 20
-119.843827068
  0
VERTEX
  8
0
 62
7
  6
CONTINUOUS
 10
102.9475753325
 20
-119.6441630883
  0
VERTEX
  8
0
 62
7
  6
CONTINUOUS
 10
102.7689839242
 20
-119.4404649734
  0
SEQEND
  0
POLYLINE
  8
0
 62
7
  6
CONTINUOUS
 66
1
 70
0
  0
VERTEX
  8
0
 62
7
  6
CONTINUOUS
 10
102.7689839242
 20
-119.4404649734
  0
VERTEX
  8
0
 62
7
  6
CONTINUOUS
 10
102.5877107067
 20
-119.2327175749
  0
VERTEX
  8
0
 62
7
  6
CONTINUOUS
 10
102.4037993405
 20
-119.0209182984
  0
VERTEX
  8
0
 62
7
  6
CONTINUOUS
 10
102.2172919472
 20
-118.8050618084
  0
VERTEX
  8
0
 62
7
  6
CONTINUOUS
 10
102.0282281258
 20
-118.5851388177
  0
VERTEX
  8
0
 62
7
  6
CONTINUOUS
 10
101.836646995
 20
-118.3611383805
  0
VERTEX
  8
0
 62
7
  6
CONTINUOUS
 10
101.6425960569
 20
-118.1330582909
  0
VERTEX
  8
0
 62
7
  6
CONTINUOUS
 10
101.4461037892
 20
-117.9008728382
  0
VERTEX
  8
0
 62
7
  6
CONTINUOUS
 10
101.2472704731
 20
-117.6646403679
  0
VERTEX
  8
0
 62
7
  6
CONTINUOUS
 10
101.046171225
 20
-117.4243894433
  0
VERTEX
  8
0
 62
7
  6
CONTINUOUS
 10
100.8429121142
 20
-117.1801856493
  0
VERTEX
  8
0
 62
7
  6
CONTINUOUS
 10
100.6375924214
 20
-116.9320869432
  0
VERTEX
  8
0
 62
7
  6
CONTINUOUS
 10
100.430308379
 20
-116.680148029
  0
VERTEX
  8
0
 62
7
  6
CONTINUOUS
 10
100.2211576887
 20
-116.42442583
  0
SEQEND
  0
POLYLINE
  8
0
 62
7
  6
CONTINUOUS
 66
1
 70
0
  0
VERTEX
  8
0
 62
7
  6
CONTINUOUS
 10
100.2211576887
 20
-116.42442583
  0
VERTEX
  8
0
 62
7
  6
CONTINUOUS
 10
100.010235688
 20
-116.1649753524
  0
VERTEX
  8
0
 62
7
  6
CONTINUOUS
 10
99.7976419676
 20
-115.9018627508
  0
VERTEX
  8
0
 62
7
  6
CONTINUOUS
 10
99.5834732523
 20
-115.6351549727
  0
SEQEND
  0
POLYLINE
  8
0
 62
7
  6
CONTINUOUS
 66
1
 70
0
  0
VERTEX
  8
0
 62
7
  6
CONTINUOUS
 10
99.5834732523
 20
-115.6351549727
  0
VERTEX
  8
0
 62
7
  6
CONTINUOUS
 10
99.3678483858
 20
-115.3649481055
  0
VERTEX
  8
0
 62
7
  6
CONTINUOUS
 10
99.1508073564
 20
-115.0912405028
  0
VERTEX
  8
0
 62
7
  6
CONTINUOUS
 10
98.932432268
 20
-114.8140836493
  0
VERTEX
  8
0
 62
7
  6
CONTINUOUS
 10
98.7127243632
 20
-114.5334262472
  0
VERTEX
  8
0
 62
7
  6
CONTINUOUS
 10
98.4917097088
 20
-114.2492471323
  0
VERTEX
  8
0
 62
7
  6
CONTINUOUS
 10
98.2694085452
 20
-113.9615164111
  0
VERTEX
  8
0
 62
7
  6
CONTINUOUS
 10
98.045846632
 20
-113.6702099381
  0
VERTEX
  8
0
 62
7
  6
CONTINUOUS
 10
97.8210470494
 20
-113.375298653
  0
VERTEX
  8
0
 62
7
  6
CONTINUOUS
 10
97.5950378774
 20
-113.0767585188
  0
VERTEX
  8
0
 62
7
  6
CONTINUOUS
 10
97.3678442737
 20
-112.774560046
  0
VERTEX
  8
0
 62
7
  6
CONTINUOUS
 10
97.1394968894
 20
-112.4686793323
  0
VERTEX
  8
0
 62
7
  6
CONTINUOUS
 10
96.9100223527
 20
-112.159085691
  0
VERTEX
  8
0
 62
7
  6
CONTINUOUS
 10
96.679450397
 20
-111.8457565282
  0
VERTEX
  8
0
 62
7
  6
CONTINUOUS
 10
96.4478062168
 20
-111.5286659094
  0
VERTEX
  8
0
 62
7
  6
CONTINUOUS
 10
96.2151249434
 20
-111.2078001894
  0
VERTEX
  8
0
 62
7
  6
CONTINUOUS
 10
95.9814199995
 20
-110.8831141471
  0
VERTEX
  8
0
 62
7
  6
CONTINUOUS
 10
95.7467369974
 20
-110.5546054245
  0
VERTEX
  8
0
 62
7
  6
CONTINUOUS
 10
95.5110320103
 20
-110.2221437119
  0
VERTEX
  8
0
 62
7
  6
CONTINUOUS
 10
95.2742792891
 20
-109.885619373
  0
VERTEX
  8
0
 62
7
  6
CONTINUOUS
 10
95.0364950487
 20
-109.5449783163
  0
VERTEX
  8
0
 62
7
  6
CONTINUOUS
 10
94.7976886498
 20
-109.200153286
  0
VERTEX
  8
0
 62
7
  6
CONTINUOUS
 10
94.5578783541
 20
-108.8510862089
  0
VERTEX
  8
0
 62
7
  6
CONTINUOUS
 10
94.3170866286
 20
-108.4977214916
  0
VERTEX
  8
0
 62
7
  6
CONTINUOUS
 10
94.0753341842
 20
-108.1399971314
  0
VERTEX
  8
0
 62
7
  6
CONTINUOUS
 10
93.832626967
 20
-107.7778273717
  0
VERTEX
  8
0
 62
7
  6
CONTINUOUS
 10
93.5889323767
 20
-107.4110690258
  0
VERTEX
  8
0
 62
7
  6
CONTINUOUS
 10
93.3442165536
 20
-107.0395734818
  0
VERTEX
  8
0
 62
7
  6
CONTINUOUS
 10
93.0984444261
 20
-106.6631863203
  0
VERTEX
  8
0
 62
7
  6
CONTINUOUS
 10
92.8515742712
 20
-106.2817387247
  0
VERTEX
  8
0
 62
7
  6
CONTINUOUS
 10
92.6035947715
 20
-105.8951049862
  0
VERTEX
  8
0
 62
7
  6
CONTINUOUS
 10
92.3544947213
 20
-105.5031567391
  0
VERTEX
  8
0
 62
7
  6
CONTINUOUS
 10
92.1042316717
 20
-105.1057129654
  0
VERTEX
  8
0
 62
7
  6
CONTINUOUS
 10
91.8527915479
 20
-104.7026336902
  0
VERTEX
  8
0
 62
7
  6
CONTINUOUS
 10
91.600080024
 20
-104.2936454775
  0
VERTEX
  8
0
 62
7
  6
CONTINUOUS
 10
91.3460227124
 20
-103.8784988662
  0
VERTEX
  8
0
 62
7
  6
CONTINUOUS
 10
91.090560747
 20
-103.4569497811
  0
VERTEX
  8
0
 62
7
  6
CONTINUOUS
 10
90.833636643
 20
-103.0287374814
  0
VERTEX
  8
0
 62
7
  6
CONTINUOUS
 10
90.5752041972
 20
-102.5936109447
  0
VERTEX
  8
0
 62
7
  6
CONTINUOUS
 10
90.3152122014
 20
-102.1513019762
  0
VERTEX
  8
0
 62
7
  6
CONTINUOUS
 10
90.0536262441
 20
-101.7015621268
  0
VERTEX
  8
0
 62
7
  6
CONTINUOUS
 10
89.7903685165
 20
-101.2440587629
  0
VERTEX
  8
0
 62
7
  6
CONTINUOUS
 10
89.5255218986
 20
-100.7787311706
  0
VERTEX
  8
0
 62
7
  6
CONTINUOUS
 10
89.2590528168
 20
-100.3053109388
  0
VERTEX
  8
0
 62
7
  6
CONTINUOUS
 10
88.9912181813
 20
-99.8240458118
  0
VERTEX
  8
0
 62
7
  6
CONTINUOUS
 10
88.7222010182
 20
-99.3350574772
  0
VERTEX
  8
0
 62
7
  6
CONTINUOUS
 10
88.4522415833
 20
-98.8385663363
  0
VERTEX
  8
0
 62
7
  6
CONTINUOUS
 10
88.1815736682
 20
-98.3347888788
  0
VERTEX
  8
0
 62
7
  6
CONTINUOUS
 10
87.910428271
 20
-97.8239465663
  0
VERTEX
  8
0
 62
7
  6
CONTINUOUS
 10
87.6390321432
 20
-97.3062635444
  0
VERTEX
  8
0
 62
7
  6
CONTINUOUS
 10
87.3676078586
 20
-96.7819671166
  0
VERTEX
  8
0
 62
7
  6
CONTINUOUS
 10
87.0965742924
 20
-96.2516828778
  0
VERTEX
  8
0
 62
7
  6
CONTINUOUS
 10
86.825544128
 20
-95.7144609334
  0
SEQEND
  0
POLYLINE
  8
0
 62
7
  6
CONTINUOUS
 66
1
 70
0
  0
VERTEX
  8
0
 62
7
  6
CONTINUOUS
 10
16.3946295554
 20
-106.1591544567
  0
VERTEX
  8
0
 62
7
  6
CONTINUOUS
 10
17.6386620966
 20
-110.1131448337
  0
VERTEX
  8
0
 62
7
  6
CONTINUOUS
 10
19.0208899451
 20
-114.141011951
  0
VERTEX
  8
0
 62
7
  6
CONTINUOUS
 10
20.4985676423
 20
-118.1018345655
  0
VERTEX
  8
0
 62
7
  6
CONTINUOUS
 10
22.0711870533
 20
-121.9960150494
  0
VERTEX
  8
0
 62
7
  6
CONTINUOUS
 10
23.7393789865
 20
-125.8269700522
  0
VERTEX
  8
0
 62
7
  6
CONTINUOUS
 10
25.5032918558
 20
-129.5967776743
  0
VERTEX
  8
0
 62
7
  6
CONTINUOUS
 10
27.3629398183
 20
-133.3072199171
  0
VERTEX
  8
0
 62
7
  6
CONTINUOUS
 10
29.3221503792
 20
-136.9671900572
  0
VERTEX
  8
0
 62
7
  6
CONTINUOUS
 10
31.3795762888
 20
-140.5754385969
  0
VERTEX
  8
0
 62
7
  6
CONTINUOUS
 10
33.5392808938
 20
-144.1397205459
  0
VERTEX
  8
0
 62
7
  6
CONTINUOUS
 10
35.8032005994
 20
-147.6627051947
  0
VERTEX
  8
0
 62
7
  6
CONTINUOUS
 10
38.1731308169
 20
-151.1460118339
  0
VERTEX
  8
0
 62
7
  6
CONTINUOUS
 10
40.6506926022
 20
-154.5903044318
  0
VERTEX
  8
0
 62
7
  6
CONTINUOUS
 10
43.2359651624
 20
-157.9936590842
  0
VERTEX
  8
0
 62
7
  6
CONTINUOUS
 10
45.9296515697
 20
-161.3547183344
  0
VERTEX
  8
0
 62
7
  6
CONTINUOUS
 10
48.7271663999
 20
-164.665645571
  0
VERTEX
  8
0
 62
7
  6
CONTINUOUS
 10
51.6238261012
 20
-167.9193275117
  0
VERTEX
  8
0
 62
7
  6
CONTINUOUS
 10
54.6137176682
 20
-171.1080471476
  0
VERTEX
  8
0
 62
7
  6
CONTINUOUS
 10
57.6894089909
 20
-174.2233791851
  0
VERTEX
  8
0
 62
7
  6
CONTINUOUS
 10
60.8455660923
 20
-177.2598361426
  0
VERTEX
  8
0
 62
7
  6
CONTINUOUS
 10
64.0750980098
 20
-180.2108124989
  0
VERTEX
  8
0
 62
7
  6
CONTINUOUS
 10
67.3746556784
 20
-183.0735930712
  0
VERTEX
  8
0
 62
7
  6
CONTINUOUS
 10
70.7408005502
 20
-185.8454272944
  0
VERTEX
  8
0
 62
7
  6
CONTINUOUS
 10
74.1696578322
 20
-188.5233079608
  0
VERTEX
  8
0
 62
7
  6
CONTINUOUS
 10
77.6589052185
 20
-191.1055432885
  0
VERTEX
  8
0
 62
7
  6
CONTINUOUS
 10
81.205380843
 20
-193.5898430552
  0
VERTEX
  8
0
 62
7
  6
CONTINUOUS
 10
84.8089296041
 20
-195.9760146388
  0
VERTEX
  8
0
 62
7
  6
CONTINUOUS
 10
88.4658794516
 20
-198.2614962717
  0
VERTEX
  8
0
 62
7
  6
CONTINUOUS
 10
92.1880243192
 20
-200.4533019089
  0
VERTEX
  8
0
 62
7
  6
CONTINUOUS
 10
95.9850325099
 20
-202.5561332429
  0
VERTEX
  8
0
 62
7
  6
CONTINUOUS
 10
99.8652367474
 20
-204.5729362863
  0
VERTEX
  8
0
 62
7
  6
CONTINUOUS
 10
103.8355453125
 20
-206.5051614774
  0
VERTEX
  8
0
 62
7
  6
CONTINUOUS
 10
107.908702128
 20
-208.3562978419
  0
VERTEX
  8
0
 62
7
  6
CONTINUOUS
 10
112.0824004301
 20
-210.1224826728
  0
VERTEX
  8
0
 62
7
  6
CONTINUOUS
 10
116.3484552809
 20
-211.7983678602
  0
VERTEX
  8
0
 62
7
  6
CONTINUOUS
 10
120.7386890523
 20
-213.3939668514
  0
VERTEX
  8
0
 62
7
  6
CONTINUOUS
 10
125.2726656092
 20
-214.9121605144
  0
VERTEX
  8
0
 62
7
  6
CONTINUOUS
 10
129.9954898826
 20
-216.3617472414
  0
VERTEX
  8
0
 62
7
  6
CONTINUOUS
 10
134.9542918794
 20
-217.7478900972
  0
VERTEX
  8
0
 62
7
  6
CONTINUOUS
 10
139.8550104969
 20
-218.989732021
  0
SEQEND
  0
LINE
  8
0
 62
7
  6
CONTINUOUS
 10
194.6937700539
 20
468.114329398
 11
187.2981243624
 21
460.7186837065
  0
LINE
  8
0
 62
7
  6
CONTINUOUS
 10
187.651677753
 20
460.3651303159
 11
194.9380083557
 21
467.6514609186
  0
POLYLINE
  8
0
 62
7
  6
CONTINUOUS
 66
1
 70
0
  0
VERTEX
  8
0
 62
7
  6
CONTINUOUS
 10
86.825544128
 20
-95.7144609334
  0
VERTEX
  8
0
 62
7
  6
CONTINUOUS
 10
86.5548330184
 20
-95.1707219353
  0
VERTEX
  8
0
 62
7
  6
CONTINUOUS
 10
86.2828190345
 20
-94.6169378506
  0
VERTEX
  8
0
 62
7
  6
CONTINUOUS
 10
86.0084977052
 20
-94.05066611
  0
SEQEND
  0
LINE
  8
0
 62
7
  6
CONTINUOUS
 10
86.0084977052
 20
-94.05066611
 11
85.7306475713
 21
-93.4688627906
  0
POLYLINE
  8
0
 62
7
  6
CONTINUOUS
 66
1
 70
0
  0
VERTEX
  8
0
 62
7
  6
CONTINUOUS
 10
85.7306475713
 20
-93.4688627906
  0
VERTEX
  8
0
 62
7
  6
CONTINUOUS
 10
85.4481750512
 20
-92.8685701591
  0
VERTEX
  8
0
 62
7
  6
CONTINUOUS
 10
85.1600795249
 20
-92.2468385646
  0
VERTEX
  8
0
 62
7
  6
CONTINUOUS
 10
84.8656656669
 20
-91.6011859928
  0
VERTEX
  8
0
 62
7
  6
CONTINUOUS
 10
84.5633682975
 20
-90.9269825812
  0
VERTEX
  8
0
 62
7
  6
CONTINUOUS
 10
84.2511446174
 20
-90.2181361086
  0
VERTEX
  8
0
 62
7
  6
CONTINUOUS
 10
83.9305115784
 20
-89.4763460805
  0
VERTEX
  8
0
 62
7
  6
CONTINUOUS
 10
83.6014001042
 20
-88.6995995254
  0
VERTEX
  8
0
 62
7
  6
CONTINUOUS
 10
83.2667910568
 20
-87.8930747989
  0
VERTEX
  8
0
 62
7
  6
CONTINUOUS
 10
82.9288572884
 20
-87.060339287
  0
VERTEX
  8
0
 62
7
  6
CONTINUOUS
 10
82.5895350222
 20
-86.2046459563
  0
VERTEX
  8
0
 62
7
  6
CONTINUOUS
 10
82.25130978
 20
-85.330967523
  0
VERTEX
  8
0
 62
7
  6
CONTINUOUS
 10
81.9141852097
 20
-84.4380989329
  0
VERTEX
  8
0
 62
7
  6
CONTINUOUS
 10
81.5793117138
 20
-83.5278405886
  0
VERTEX
  8
0
 62
7
  6
CONTINUOUS
 10
81.2457469124
 20
-82.5962396163
  0
VERTEX
  8
0
 62
7
  6
CONTINUOUS
 10
80.9132078607
 20
-81.6407746452
  0
VERTEX
  8
0
 62
7
  6
CONTINUOUS
 10
80.5814823258
 20
-80.6587646134
  0
VERTEX
  8
0
 62
7
  6
CONTINUOUS
 10
80.2503365039
 20
-79.6470332801
  0
VERTEX
  8
0
 62
7
  6
CONTINUOUS
 10
79.9202154807
 20
-78.6040816253
  0
VERTEX
  8
0
 62
7
  6
CONTINUOUS
 10
79.5914456565
 20
-77.5277140342
  0
VERTEX
  8
0
 62
7
  6
CONTINUOUS
 10
79.2647835015
 20
-76.4167870555
  0
VERTEX
  8
0
 62
7
  6
CONTINUOUS
 10
78.9410522561
 20
-75.2700962147
  0
VERTEX
  8
0
 62
7
  6
CONTINUOUS
 10
78.6209573091
 20
-74.0856490158
  0
VERTEX
  8
0
 62
7
  6
CONTINUOUS
 10
78.3055486502
 20
-72.862290029
  0
VERTEX
  8
0
 62
7
  6
CONTINUOUS
 10
77.9953777649
 20
-71.5963693292
  0
VERTEX
  8
0
 62
7
  6
CONTINUOUS
 10
77.6914953064
 20
-70.2854291169
  0
VERTEX
  8
0
 62
7
  6
CONTINUOUS
 10
77.3949327354
 20
-68.9259612475
  0
VERTEX
  8
0
 62
7
  6
CONTINUOUS
 10
77.1071082433
 20
-67.514975188
  0
VERTEX
  8
0
 62
7
  6
CONTINUOUS
 10
76.82945754
 20
-66.0483346194
  0
VERTEX
  8
0
 62
7
  6
CONTINUOUS
 10
76.5636973685
 20
-64.5220691651
  0
VERTEX
  8
0
 62
7
  6
CONTINUOUS
 10
76.3119157583
 20
-62.9321522615
  0
VERTEX
  8
0
 62
7
  6
CONTINUOUS
 10
76.0766076592
 20
-61.2741908028
  0
VERTEX
  8
0
 62
7
  6
CONTINUOUS
 10
75.8604997271
 20
-59.5412822344
  0
VERTEX
  8
0
 62
7
  6
CONTINUOUS
 10
75.666884087
 20
-57.7263409471
  0
VERTEX
  8
0
 62
7
  6
CONTINUOUS
 10
75.4997418438
 20
-55.8227994427
  0
VERTEX
  8
0
 62
7
  6
CONTINUOUS
 10
75.3636109842
 20
-53.8220252535
  0
VERTEX
  8
0
 62
7
  6
CONTINUOUS
 10
75.327202423
 20
-53.1549711642
  0
SEQEND
  0
POLYLINE
  8
0
 62
7
  6
CONTINUOUS
 66
1
 70
0
  0
VERTEX
  8
0
 62
7
  6
CONTINUOUS
 10
-2.9033007415
 20
375.7303360963
  0
VERTEX
  8
0
 62
7
  6
CONTINUOUS
 10
-2.8940350266
 20
375.3001285053
  0
VERTEX
  8
0
 62
7
  6
CONTINUOUS
 10
-2.8483789074
 20
374.684182268
  0
SEQEND
  0
POLYLINE
  8
0
 62
7
  6
CONTINUOUS
 66
1
 70
0
  0
VERTEX
  8
0
 62
7
  6
CONTINUOUS
 10
4.8092197255
 20
-33.9878252545
  0
VERTEX
  8
0
 62
7
  6
CONTINUOUS
 10
4.9202220349
 20
-40.9285587929
  0
VERTEX
  8
0
 62
7
  6
CONTINUOUS
 10
5.3352738581
 20
-49.3446898093
  0
VERTEX
  8
0
 62
7
  6
CONTINUOUS
 10
6.0572969111
 20
-57.7410078341
  0
VERTEX
  8
0
 62
7
  6
CONTINUOUS
 10
7.0853934784
 20
-66.1061930785
  0
VERTEX
  8
0
 62
7
  6
CONTINUOUS
 10
8.418160284
 20
-74.4289304906
  0
VERTEX
  8
0
 62
7
  6
CONTINUOUS
 10
9.7164804402
 20
-81.1157528914
  0
SEQEND
  0
LINE
  8
0
 62
7
  6
CONTINUOUS
 10
4.8086781002
 20
-33.9879884842
 11
4.648588876
 21
132.7540452887
  0
LINE
  8
0
 62
7
  6
CONTINUOUS
 10
-2.903303482
 20
518.4764659119
 11
-2.903303482
 21
375.730336097
  0
POLYLINE
  8
0
 62
7
  6
CONTINUOUS
 66
1
 70
0
  0
VERTEX
  8
0
 62
7
  6
CONTINUOUS
 10
4.6600035225
 20
132.757784445
  0
VERTEX
  8
0
 62
7
  6
CONTINUOUS
 10
4.6699869058
 20
140.7747475062
  0
VERTEX
  8
0
 62
7
  6
CONTINUOUS
 10
4.7225210096
 20
148.8875933015
  0
VERTEX
  8
0
 62
7
  6
CONTINUOUS
 10
4.8171370823
 20
157.1088079614
  0
VERTEX
  8
0
 62
7
  6
CONTINUOUS
 10
4.9552413783
 20
165.4009330943
  0
VERTEX
  8
0
 62
7
  6
CONTINUOUS
 10
5.1382401518
 20
173.7265103086
  0
VERTEX
  8
0
 62
7
  6
CONTINUOUS
 10
5.3656646515
 20
182.0980257348
  0
SEQEND
  0
POLYLINE
  8
0
 62
7
  6
CONTINUOUS
 66
1
 70
0
  0
VERTEX
  8
0
 62
7
  6
CONTINUOUS
 10
5.3591747801
 20
182.1590947356
  0
VERTEX
  8
0
 62
7
  6
CONTINUOUS
 10
5.1664461469
 20
175.3845431307
  0
VERTEX
  8
0
 62
7
  6
CONTINUOUS
 10
4.9677730943
 20
166.9810108918
  0
VERTEX
  8
0
 62
7
  6
CONTINUOUS
 10
4.8166800313
 20
158.3097295288
  0
VERTEX
  8
0
 62
7
  6
CONTINUOUS
 10
4.7136865889
 20
149.4248072798
  0
VERTEX
  8
0
 62
7
  6
CONTINUOUS
 10
4.6583854463
 20
140.3793554614
  0
VERTEX
  8
0
 62
7
  6
CONTINUOUS
 10
4.6487129066
 20
132.7540894575
  0
SEQEND
  0
LINE
  8
0
 62
7
  6
CONTINUOUS
 10
4.648588876
 20
132.7540452887
 11
4.6485903657
 21
132.7540885048
  0
LINE
  8
0
 62
7
  6
CONTINUOUS
 10
5.3594584235
 20
182.1590088335
 11
5.359360612
 21
182.1563322842
  0
POLYLINE
  8
0
 62
7
  6
CONTINUOUS
 66
1
 70
0
  0
VERTEX
  8
0
 62
7
  6
CONTINUOUS
 10
5.3720581376
 20
182.5228829444
  0
VERTEX
  8
0
 62
7
  6
CONTINUOUS
 10
5.3703774777
 20
182.4788493369
  0
VERTEX
  8
0
 62
7
  6
CONTINUOUS
 10
5.3639437335
 20
182.2990902973
  0
VERTEX
  8
0
 62
7
  6
CONTINUOUS
 10
5.359360612
 20
182.1563322842
  0
SEQEND
  0
POLYLINE
  8
0
 62
7
  6
CONTINUOUS
 66
1
 70
0
  0
VERTEX
  8
0
 62
7
  6
CONTINUOUS
 10
-2.8483789074
 20
374.684182268
  0
VERTEX
  8
0
 62
7
  6
CONTINUOUS
 10
-2.7647501732
 20
374.0722748833
  0
VERTEX
  8
0
 62
7
  6
CONTINUOUS
 10
-2.6434811739
 20
373.4667231272
  0
VERTEX
  8
0
 62
7
  6
CONTINUOUS
 10
-2.4850286022
 20
372.8698301426
  0
VERTEX
  8
0
 62
7
  6
CONTINUOUS
 10
-2.2899952861
 20
372.2838671397
  0
VERTEX
  8
0
 62
7
  6
CONTINUOUS
 10
-2.0591320673
 20
371.7110569813
  0
VERTEX
  8
0
 62
7
  6
CONTINUOUS
 10
-1.7933188376
 20
371.1535771273
  0
VERTEX
  8
0
 62
7
  6
CONTINUOUS
 10
-1.4935473758
 20
370.6135517064
  0
VERTEX
  8
0
 62
7
  6
CONTINUOUS
 10
-1.1609707593
 20
370.0930357012
  0
VERTEX
  8
0
 62
7
  6
CONTINUOUS
 10
-0.796846733
 20
369.594013323
  0
VERTEX
  8
0
 62
7
  6
CONTINUOUS
 10
-0.4025613721
 20
369.1183946831
  0
VERTEX
  8
0
 62
7
  6
CONTINUOUS
 10
0.0203841098
 20
368.6679951742
  0
VERTEX
  8
0
 62
7
  6
CONTINUOUS
 10
0.4703699372
 20
368.2445252742
  0
VERTEX
  8
0
 62
7
  6
CONTINUOUS
 10
0.9456986881
 20
367.8496154755
  0
VERTEX
  8
0
 62
7
  6
CONTINUOUS
 10
1.4445612156
 20
367.4847741936
  0
VERTEX
  8
0
 62
7
  6
CONTINUOUS
 10
1.9650505014
 20
367.151378332
  0
VERTEX
  8
0
 62
7
  6
CONTINUOUS
 10
2.5052000898
 20
366.850726433
  0
VERTEX
  8
0
 62
7
  6
CONTINUOUS
 10
3.0629459552
 20
366.5839464228
  0
VERTEX
  8
0
 62
7
  6
CONTINUOUS
 10
3.6361724282
 20
366.3520803619
  0
VERTEX
  8
0
 62
7
  6
CONTINUOUS
 10
4.2226974934
 20
366.1560178796
  0
VERTEX
  8
0
 62
7
  6
CONTINUOUS
 10
4.8202877519
 20
365.9965076102
  0
VERTEX
  8
0
 62
7
  6
CONTINUOUS
 10
5.4266726314
 20
365.8741759926
  0
VERTEX
  8
0
 62
7
  6
CONTINUOUS
 10
6.039544543
 20
365.7894953444
  0
VERTEX
  8
0
 62
7
  6
CONTINUOUS
 10
6.6565725429
 20
365.7428041226
  0
VERTEX
  8
0
 62
7
  6
CONTINUOUS
 10
7.1036585985
 20
365.7328231647
  0
SEQEND
  0
POLYLINE
  8
0
 62
7
  6
CONTINUOUS
 66
1
 70
0
  0
VERTEX
  8
0
 62
7
  6
CONTINUOUS
 10
75.3270343782
 20
-53.1533921713
  0
VERTEX
  8
0
 62
7
  6
CONTINUOUS
 10
75.2790372209
 20
-52.0708181469
  0
VERTEX
  8
0
 62
7
  6
CONTINUOUS
 10
75.236912372
 20
-50.7392507928
  0
VERTEX
  8
0
 62
7
  6
CONTINUOUS
 10
75.2057390171
 20
-49.340579105
  0
VERTEX
  8
0
 62
7
  6
CONTINUOUS
 10
75.1772609052
 20
-47.8655137957
  0
SEQEND
  0
LINE
  8
0
 62
7
  6
CONTINUOUS
 10
75.1772682967
 20
-47.8657383807
 11
75.1772609052
 21
-47.8655137957
  0
POLYLINE
  8
0
 62
7
  6
CONTINUOUS
 66
1
 70
0
  0
VERTEX
  8
0
 62
7
  6
CONTINUOUS
 10
75.1786507236
 20
-47.8657322173
  0
VERTEX
  8
0
 62
7
  6
CONTINUOUS
 10
75.1613098306
 20
-46.9651499756
  0
VERTEX
  8
0
 62
7
  6
CONTINUOUS
 10
75.1439342401
 20
-46.0327180245
  0
VERTEX
  8
0
 62
7
  6
CONTINUOUS
 10
75.1269388111
 20
-45.0680922774
  0
VERTEX
  8
0
 62
7
  6
CONTINUOUS
 10
75.1104509525
 20
-44.0787155752
  0
VERTEX
  8
0
 62
7
  6
CONTINUOUS
 10
75.0944822312
 20
-43.078480572
  0
VERTEX
  8
0
 62
7
  6
CONTINUOUS
 10
75.0786329933
 20
-42.0595209585
  0
VERTEX
  8
0
 62
7
  6
CONTINUOUS
 10
75.0625882331
 20
-41.0169508059
  0
VERTEX
  8
0
 62
7
  6
CONTINUOUS
 10
75.046659784
 20
-39.9527783094
  0
VERTEX
  8
0
 62
7
  6
CONTINUOUS
 10
75.0313151945
 20
-38.8671356095
  0
VERTEX
  8
0
 62
7
  6
CONTINUOUS
 10
75.0164669697
 20
-37.7606999597
  0
VERTEX
  8
0
 62
7
  6
CONTINUOUS
 10
75.0017962209
 20
-36.6342940983
  0
VERTEX
  8
0
 62
7
  6
CONTINUOUS
 10
74.9869255084
 20
-35.4875771291
  0
VERTEX
  8
0
 62
7
  6
CONTINUOUS
 10
74.9716789791
 20
-34.3207294442
  0
VERTEX
  8
0
 62
7
  6
CONTINUOUS
 10
74.9562461432
 20
-33.1333959229
  0
VERTEX
  8
0
 62
7
  6
CONTINUOUS
 10
74.9408729322
 20
-31.9254346978
  0
VERTEX
  8
0
 62
7
  6
CONTINUOUS
 10
74.9257375372
 20
-30.6967895331
  0
VERTEX
  8
0
 62
7
  6
CONTINUOUS
 10
74.9106199921
 20
-29.447661792
  0
VERTEX
  8
0
 62
7
  6
CONTINUOUS
 10
74.8951588033
 20
-28.1783853055
  0
VERTEX
  8
0
 62
7
  6
CONTINUOUS
 10
74.8789961321
 20
-26.8889995395
  0
VERTEX
  8
0
 62
7
  6
CONTINUOUS
 10
74.8620729141
 20
-25.5805063426
  0
VERTEX
  8
0
 62
7
  6
CONTINUOUS
 10
74.8444865916
 20
-24.2540680763
  0
VERTEX
  8
0
 62
7
  6
CONTINUOUS
 10
74.8262792924
 20
-22.9084000256
  0
VERTEX
  8
0
 62
7
  6
CONTINUOUS
 10
74.8073599372
 20
-21.5427478701
  0
VERTEX
  8
0
 62
7
  6
CONTINUOUS
 10
74.7875251006
 20
-20.1548310603
  0
VERTEX
  8
0
 62
7
  6
CONTINUOUS
 10
74.7665528934
 20
-18.7430585823
  0
VERTEX
  8
0
 62
7
  6
CONTINUOUS
 10
74.7441436749
 20
-17.3081476251
  0
VERTEX
  8
0
 62
7
  6
CONTINUOUS
 10
74.7197302206
 20
-15.8396049491
  0
SEQEND
  0
POLYLINE
  8
0
 62
7
  6
CONTINUOUS
 66
1
 70
0
  0
VERTEX
  8
0
 62
7
  6
CONTINUOUS
 10
74.7196811758
 20
-15.8395884583
  0
VERTEX
  8
0
 62
7
  6
CONTINUOUS
 10
74.6370537891
 20
-10.6734631929
  0
VERTEX
  8
0
 62
7
  6
CONTINUOUS
 10
74.52784614
 20
-3.7447684091
  0
VERTEX
  8
0
 62
7
  6
CONTINUOUS
 10
74.4069003592
 20
3.7054776064
  0
VERTEX
  8
0
 62
7
  6
CONTINUOUS
 10
74.2772204708
 20
11.096081343
  0
VERTEX
  8
0
 62
7
  6
CONTINUOUS
 10
74.1566810908
 20
17.6887160938
  0
SEQEND
  0
LINE
  8
0
 62
7
  6
CONTINUOUS
 10
74.1566810908
 20
17.6887160938
 11
74.0840696845
 21
22.1473190276
  0
LINE
  8
0
 62
7
  6
CONTINUOUS
 10
74.4325077399
 20
-1.3267317876
 11
74.0840708901
 21
22.1472378102
  0
LINE
  8
0
 62
7
  6
CONTINUOUS
 10
82.036047169
 20
229.3531942039
 11
81.9967003763
 21
228.7843341441
  0
POLYLINE
  8
0
 62
7
  6
CONTINUOUS
 66
1
 70
0
  0
VERTEX
  8
0
 62
7
  6
CONTINUOUS
 10
82.1912379568
 20
230.1909481694
  0
VERTEX
  8
0
 62
7
  6
CONTINUOUS
 10
82.1702029001
 20
230.1783833257
  0
VERTEX
  8
0
 62
7
  6
CONTINUOUS
 10
82.1013394563
 20
229.9180502955
  0
VERTEX
  8
0
 62
7
  6
CONTINUOUS
 10
82.036047169
 20
229.3531942039
  0
SEQEND
  0
LINE
  8
0
 62
7
  6
CONTINUOUS
 10
75.3270343782
 20
-53.1533921713
 11
75.3272187623
 21
-53.1549785411
  0
POLYLINE
  8
0
 62
7
  6
CONTINUOUS
 66
1
 70
0
  0
VERTEX
  8
0
 62
7
  6
CONTINUOUS
 10
74.6711144682
 20
35.3420826718
  0
VERTEX
  8
0
 62
7
  6
CONTINUOUS
 10
74.6949701688
 20
35.5643953067
  0
VERTEX
  8
0
 62
7
  6
CONTINUOUS
 10
74.7609394773
 20
36.1591199756
  0
VERTEX
  8
0
 62
7
  6
CONTINUOUS
 10
74.8287714702
 20
36.7439545018
  0
VERTEX
  8
0
 62
7
  6
CONTINUOUS
 10
74.8980106295
 20
37.3173380647
  0
SEQEND
  0
POLYLINE
  8
0
 62
7
  6
CONTINUOUS
 66
1
 70
0
  0
VERTEX
  8
0
 62
7
  6
CONTINUOUS
 10
74.8980106295
 20
37.3173380647
  0
VERTEX
  8
0
 62
7
  6
CONTINUOUS
 10
74.9682742203
 20
37.8782917253
  0
VERTEX
  8
0
 62
7
  6
CONTINUOUS
 10
75.0390257697
 20
38.4245364598
  0
VERTEX
  8
0
 62
7
  6
CONTINUOUS
 10
75.1097587471
 20
38.9540391352
  0
VERTEX
  8
0
 62
7
  6
CONTINUOUS
 10
75.1800280237
 20
39.46520718
  0
VERTEX
  8
0
 62
7
  6
CONTINUOUS
 10
75.2495859301
 20
39.9577786108
  0
VERTEX
  8
0
 62
7
  6
CONTINUOUS
 10
75.3173794704
 20
40.425752427
  0
VERTEX
  8
0
 62
7
  6
CONTINUOUS
 10
75.3819280873
 20
40.8604670652
  0
VERTEX
  8
0
 62
7
  6
CONTINUOUS
 10
75.4442668842
 20
41.2693598622
  0
VERTEX
  8
0
 62
7
  6
CONTINUOUS
 10
75.5023278121
 20
41.6384041507
  0
VERTEX
  8
0
 62
7
  6
CONTINUOUS
 10
75.5647617619
 20
42.0226825488
  0
VERTEX
  8
0
 62
7
  6
CONTINUOUS
 10
75.6421482084
 20
42.4866739027
  0
VERTEX
  8
0
 62
7
  6
CONTINUOUS
 10
75.7286535404
 20
42.9910010689
  0
VERTEX
  8
0
 62
7
  6
CONTINUOUS
 10
75.8215409042
 20
43.517416027
  0
VERTEX
  8
0
 62
7
  6
CONTINUOUS
 10
75.9212428178
 20
44.0665911892
  0
VERTEX
  8
0
 62
7
  6
CONTINUOUS
 10
76.0270359198
 20
44.632934014
  0
VERTEX
  8
0
 62
7
  6
CONTINUOUS
 10
76.1393095023
 20
45.2171020884
  0
VERTEX
  8
0
 62
7
  6
CONTINUOUS
 10
76.2581243092
 20
45.8179933289
  0
VERTEX
  8
0
 62
7
  6
CONTINUOUS
 10
76.38369028
 20
46.4353078735
  0
VERTEX
  8
0
 62
7
  6
CONTINUOUS
 10
76.5161211385
 20
47.0682747989
  0
VERTEX
  8
0
 62
7
  6
CONTINUOUS
 10
76.655765725
 20
47.7171820135
  0
VERTEX
  8
0
 62
7
  6
CONTINUOUS
 10
76.8028818672
 20
48.3818173715
  0
VERTEX
  8
0
 62
7
  6
CONTINUOUS
 10
76.9579465512
 20
49.0628934599
  0
VERTEX
  8
0
 62
7
  6
CONTINUOUS
 10
77.1212681801
 20
49.7602859937
  0
VERTEX
  8
0
 62
7
  6
CONTINUOUS
 10
77.2937489174
 20
50.4762629198
  0
VERTEX
  8
0
 62
7
  6
CONTINUOUS
 10
77.4757959494
 20
51.2108168893
  0
VERTEX
  8
0
 62
7
  6
CONTINUOUS
 10
77.6695505925
 20
51.9705809051
  0
VERTEX
  8
0
 62
7
  6
CONTINUOUS
 10
77.8772994163
 20
52.7619387434
  0
VERTEX
  8
0
 62
7
  6
CONTINUOUS
 10
78.0998978494
 20
53.5853690757
  0
VERTEX
  8
0
 62
7
  6
CONTINUOUS
 10
78.340719977
 20
54.4501430579
  0
VERTEX
  8
0
 62
7
  6
CONTINUOUS
 10
78.5948608045
 20
55.3358953962
  0
VERTEX
  8
0
 62
7
  6
CONTINUOUS
 10
78.859090089
 20
56.2300688141
  0
VERTEX
  8
0
 62
7
  6
CONTINUOUS
 10
79.1293751921
 20
57.1188697001
  0
VERTEX
  8
0
 62
7
  6
CONTINUOUS
 10
79.3999364175
 20
57.9844570787
  0
VERTEX
  8
0
 62
7
  6
CONTINUOUS
 10
79.6703444321
 20
58.8271817065
  0
VERTEX
  8
0
 62
7
  6
CONTINUOUS
 10
79.9382702232
 20
59.6415383684
  0
VERTEX
  8
0
 62
7
  6
CONTINUOUS
 10
80.2031755976
 20
60.427755758
  0
VERTEX
  8
0
 62
7
  6
CONTINUOUS
 10
80.4634952677
 20
61.1830555231
  0
VERTEX
  8
0
 62
7
  6
CONTINUOUS
 10
80.7198868641
 20
61.911098086
  0
VERTEX
  8
0
 62
7
  6
CONTINUOUS
 10
80.9724913891
 20
62.613782129
  0
VERTEX
  8
0
 62
7
  6
CONTINUOUS
 10
81.2217148634
 20
63.2935428717
  0
VERTEX
  8
0
 62
7
  6
CONTINUOUS
 10
81.4681775494
 20
63.9532204541
  0
VERTEX
  8
0
 62
7
  6
CONTINUOUS
 10
81.7116954467
 20
64.5933962602
  0
VERTEX
  8
0
 62
7
  6
CONTINUOUS
 10
81.9523997989
 20
65.2153949742
  0
VERTEX
  8
0
 62
7
  6
CONTINUOUS
 10
82.1901713173
 20
65.8197960007
  0
VERTEX
  8
0
 62
7
  6
CONTINUOUS
 10
82.4249912334
 20
66.4073680325
  0
VERTEX
  8
0
 62
7
  6
CONTINUOUS
 10
82.65685603
 20
66.9788486905
  0
VERTEX
  8
0
 62
7
  6
CONTINUOUS
 10
82.885791544
 20
67.5349844794
  0
VERTEX
  8
0
 62
7
  6
CONTINUOUS
 10
83.1118349112
 20
68.0764901222
  0
VERTEX
  8
0
 62
7
  6
CONTINUOUS
 10
83.3350494173
 20
68.6040861243
  0
VERTEX
  8
0
 62
7
  6
CONTINUOUS
 10
83.5555492594
 20
69.1184549282
  0
VERTEX
  8
0
 62
7
  6
CONTINUOUS
 10
83.7735466913
 20
69.6203178196
  0
VERTEX
  8
0
 62
7
  6
CONTINUOUS
 10
83.9891605306
 20
70.1101544866
  0
VERTEX
  8
0
 62
7
  6
CONTINUOUS
 10
84.2025770848
 20
70.5885880585
  0
VERTEX
  8
0
 62
7
  6
CONTINUOUS
 10
84.4138330055
 20
71.0558966125
  0
VERTEX
  8
0
 62
7
  6
CONTINUOUS
 10
84.6230062071
 20
71.5124482045
  0
VERTEX
  8
0
 62
7
  6
CONTINUOUS
 10
84.8301703647
 20
71.958596742
  0
VERTEX
  8
0
 62
7
  6
CONTINUOUS
 10
85.0354041266
 20
72.3947017912
  0
VERTEX
  8
0
 62
7
  6
CONTINUOUS
 10
85.2387862107
 20
72.8211176529
  0
VERTEX
  8
0
 62
7
  6
CONTINUOUS
 10
85.4403913437
 20
73.2381850823
  0
VERTEX
  8
0
 62
7
  6
CONTINUOUS
 10
85.6403279972
 20
73.6463083095
  0
VERTEX
  8
0
 62
7
  6
CONTINUOUS
 10
85.8386163228
 20
74.0458980818
  0
VERTEX
  8
0
 62
7
  6
CONTINUOUS
 10
86.0350406165
 20
74.4375102422
  0
VERTEX
  8
0
 62
7
  6
CONTINUOUS
 10
86.2293552362
 20
74.8216867902
  0
VERTEX
  8
0
 62
7
  6
CONTINUOUS
 10
86.4213791034
 20
75.1990027299
  0
VERTEX
  8
0
 62
7
  6
CONTINUOUS
 10
86.6104544173
 20
75.5690159542
  0
VERTEX
  8
0
 62
7
  6
CONTINUOUS
 10
86.7979784197
 20
75.9352251372
  0
VERTEX
  8
0
 62
7
  6
CONTINUOUS
 10
86.986392432
 20
76.3030811994
  0
VERTEX
  8
0
 62
7
  6
CONTINUOUS
 10
87.1723888056
 20
76.6660214707
  0
VERTEX
  8
0
 62
7
  6
CONTINUOUS
 10
87.3552990571
 20
77.0216559816
  0
VERTEX
  8
0
 62
7
  6
CONTINUOUS
 10
87.5316425834
 20
77.3622581543
  0
VERTEX
  8
0
 62
7
  6
CONTINUOUS
 10
87.697435366
 20
77.6795562376
  0
VERTEX
  8
0
 62
7
  6
CONTINUOUS
 10
87.8527381097
 20
77.9734140873
  0
VERTEX
  8
0
 62
7
  6
CONTINUOUS
 10
88.000983409
 20
78.2500723292
  0
VERTEX
  8
0
 62
7
  6
CONTINUOUS
 10
88.0996802552
 20
78.4315615094
  0
SEQEND
  0
LINE
  8
0
 62
7
  6
CONTINUOUS
 10
82.3096834339
 20
229.714700424
 11
82.2392775667
 21
230.1076508778
  0
LINE
  8
0
 62
7
  6
CONTINUOUS
 10
82.442469838
 20
228.6098823709
 11
82.3096834339
 21
229.714700424
  0
LINE
  8
0
 62
7
  6
CONTINUOUS
 10
111.0327043823
 20
221.6121101226
 11
111.0327043823
 21
230.1909222372
  0
LINE
  8
0
 62
7
  6
CONTINUOUS
 10
88.1899708999
 20
78.5975659478
 11
88.0972318034
 21
78.432935214
  0
LINE
  8
0
 62
7
  6
CONTINUOUS
 10
88.1953739831
 20
78.605478188
 11
92.6283895864
 21
85.9610571488
  0
POLYLINE
  8
0
 62
7
  6
CONTINUOUS
 66
1
 70
0
  0
VERTEX
  8
0
 62
7
  6
CONTINUOUS
 10
93.0949866345
 20
86.6723822834
  0
VERTEX
  8
0
 62
7
  6
CONTINUOUS
 10
90.5860426874
 20
82.7310849685
  0
VERTEX
  8
0
 62
7
  6
CONTINUOUS
 10
88.2359053808
 20
78.6791089818
  0
SEQEND
  0
LINE
  8
0
 62
7
  6
CONTINUOUS
 10
92.6283895864
 20
85.9610571488
 11
98.5425449459
 21
94.157189701
  0
POLYLINE
  8
0
 62
7
  6
CONTINUOUS
 66
1
 70
0
  0
VERTEX
  8
0
 62
7
  6
CONTINUOUS
 10
97.8548047304
 20
93.2865746629
  0
VERTEX
  8
0
 62
7
  6
CONTINUOUS
 10
95.764866627
 20
90.505672606
  0
VERTEX
  8
0
 62
7
  6
CONTINUOUS
 10
93.0949866345
 20
86.6723822834
  0
SEQEND
  0
POLYLINE
  8
0
 62
7
  6
CONTINUOUS
 66
1
 70
0
  0
VERTEX
  8
0
 62
7
  6
CONTINUOUS
 10
98.5425449459
 20
94.157189701
  0
VERTEX
  8
0
 62
7
  6
CONTINUOUS
 10
104.9106350433
 20
101.5260506621
  0
VERTEX
  8
0
 62
7
  6
CONTINUOUS
 10
107.3665025177
 20
104.0525586899
  0
SEQEND
  0
LINE
  8
0
 62
7
  6
CONTINUOUS
 10
314.8696205589
 20
229.1108124085
 11
314.8695789082
 21
229.1107979143
  0
POLYLINE
  8
0
 62
7
  6
CONTINUOUS
 66
1
 70
0
  0
VERTEX
  8
0
 62
7
  6
CONTINUOUS
 10
82.400673315
 20
228.7788218153
  0
VERTEX
  8
0
 62
7
  6
CONTINUOUS
 10
82.4178539483
 20
228.7492994177
  0
VERTEX
  8
0
 62
7
  6
CONTINUOUS
 10
82.442469838
 20
228.6098823709
  0
SEQEND
  0
LINE
  8
0
 62
7
  6
CONTINUOUS
 10
82.2392775667
 20
230.1076508778
 11
82.1912379568
 21
230.1909481694
  0
LINE
  8
0
 62
7
  6
CONTINUOUS
 10
186.2729980965
 20
438.7093194155
 11
186.2729980965
 21
458.2437788841
  0
LINE
  8
0
 62
7
  6
CONTINUOUS
 10
186.7729980965
 20
458.2438099724
 11
186.7729980965
 21
438.7091218515
  0
POLYLINE
  8
0
 62
7
  6
CONTINUOUS
 66
1
 70
0
  0
VERTEX
  8
0
 62
7
  6
CONTINUOUS
 10
142.5393522595
 20
127.9959252146
  0
VERTEX
  8
0
 62
7
  6
CONTINUOUS
 10
138.2948332995
 20
126.0598148839
  0
VERTEX
  8
0
 62
7
  6
CONTINUOUS
 10
134.1400579871
 20
123.9507879715
  0
VERTEX
  8
0
 62
7
  6
CONTINUOUS
 10
130.0706901361
 20
121.6662558407
  0
VERTEX
  8
0
 62
7
  6
CONTINUOUS
 10
126.0997383055
 20
119.2139844014
  0
VERTEX
  8
0
 62
7
  6
CONTINUOUS
 10
122.2382793212
 20
116.5991535504
  0
VERTEX
  8
0
 62
7
  6
CONTINUOUS
 10
118.4877721971
 20
113.8269326904
  0
VERTEX
  8
0
 62
7
  6
CONTINUOUS
 10
114.8513162311
 20
110.9012158305
  0
VERTEX
  8
0
 62
7
  6
CONTINUOUS
 10
111.335067398
 20
107.831009048
  0
VERTEX
  8
0
 62
7
  6
CONTINUOUS
 10
107.943835319
 20
104.6263468398
  0
VERTEX
  8
0
 62
7
  6
CONTINUOUS
 10
107.3654719611
 20
104.053591814
  0
SEQEND
  0
POLYLINE
  8
0
 62
7
  6
CONTINUOUS
 66
1
 70
0
  0
VERTEX
  8
0
 62
7
  6
CONTINUOUS
 10
171.0340317841
 20
135.9956057257
  0
VERTEX
  8
0
 62
7
  6
CONTINUOUS
 10
168.4223743574
 20
135.5914854512
  0
VERTEX
  8
0
 62
7
  6
CONTINUOUS
 10
165.8330841253
 20
135.129838488
  0
VERTEX
  8
0
 62
7
  6
CONTINUOUS
 10
163.2655648796
 20
134.6103190431
  0
VERTEX
  8
0
 62
7
  6
CONTINUOUS
 10
160.7216052445
 20
134.0339787509
  0
VERTEX
  8
0
 62
7
  6
CONTINUOUS
 10
158.2029938442
 20
133.4018739963
  0
VERTEX
  8
0
 62
7
  6
CONTINUOUS
 10
155.7091344708
 20
132.713673373
  0
SEQEND
  0
POLYLINE
  8
0
 62
7
  6
CONTINUOUS
 66
1
 70
0
  0
VERTEX
  8
0
 62
7
  6
CONTINUOUS
 10
201.0327043823
 20
135.9960110786
  0
VERTEX
  8
0
 62
7
  6
CONTINUOUS
 10
196.0344685428
 20
136.5886048537
  0
VERTEX
  8
0
 62
7
  6
CONTINUOUS
 10
191.0300175098
 20
136.9439498183
  0
VERTEX
  8
0
 62
7
  6
CONTINUOUS
 10
186.0141031372
 20
137.0619043363
  0
VERTEX
  8
0
 62
7
  6
CONTINUOUS
 10
181.0024698638
 20
136.9429580794
  0
VERTEX
  8
0
 62
7
  6
CONTINUOUS
 10
176.0108621281
 20
136.5875850536
  0
VERTEX
  8
0
 62
7
  6
CONTINUOUS
 10
171.0340317841
 20
135.9956057257
  0
SEQEND
  0
POLYLINE
  8
0
 62
7
  6
CONTINUOUS
 66
1
 70
0
  0
VERTEX
  8
0
 62
7
  6
CONTINUOUS
 10
216.3554567198
 20
132.7137307999
  0
VERTEX
  8
0
 62
7
  6
CONTINUOUS
 10
213.8494873081
 20
133.4053901991
  0
VERTEX
  8
0
 62
7
  6
CONTINUOUS
 10
211.3237258222
 20
134.0394936986
  0
VERTEX
  8
0
 62
7
  6
CONTINUOUS
 10
208.7775506842
 20
134.6162788025
  0
VERTEX
  8
0
 62
7
  6
CONTINUOUS
 10
206.2128266278
 20
135.1349700117
  0
VERTEX
  8
0
 62
7
  6
CONTINUOUS
 10
203.6314183864
 20
135.5947966916
  0
VERTEX
  8
0
 62
7
  6
CONTINUOUS
 10
201.0327043823
 20
135.9960110786
  0
SEQEND
  0
POLYLINE
  8
0
 62
7
  6
CONTINUOUS
 66
1
 70
0
  0
VERTEX
  8
0
 62
7
  6
CONTINUOUS
 10
229.5301169063
 20
127.994551686
  0
VERTEX
  8
0
 62
7
  6
CONTINUOUS
 10
227.3807215246
 20
128.8947683633
  0
VERTEX
  8
0
 62
7
  6
CONTINUOUS
 10
225.2122996548
 20
129.7497168181
  0
VERTEX
  8
0
 62
7
  6
CONTINUOUS
 10
223.0244069578
 20
130.559590651
  0
VERTEX
  8
0
 62
7
  6
CONTINUOUS
 10
220.8183764509
 20
131.3238090599
  0
VERTEX
  8
0
 62
7
  6
CONTINUOUS
 10
218.5955411512
 20
132.0417912426
  0
VERTEX
  8
0
 62
7
  6
CONTINUOUS
 10
216.3554567198
 20
132.7137307999
  0
SEQEND
  0
POLYLINE
  8
0
 62
7
  6
CONTINUOUS
 66
1
 70
0
  0
VERTEX
  8
0
 62
7
  6
CONTINUOUS
 10
155.7091344708
 20
132.7136733729
  0
VERTEX
  8
0
 62
7
  6
CONTINUOUS
 10
153.4785951139
 20
132.04489076
  0
VERTEX
  8
0
 62
7
  6
CONTINUOUS
 10
151.2617840765
 20
131.3289800127
  0
VERTEX
  8
0
 62
7
  6
CONTINUOUS
 10
149.0582307872
 20
130.5658242849
  0
VERTEX
  8
0
 62
7
  6
CONTINUOUS
 10
146.8693469597
 20
129.7557741146
  0
VERTEX
  8
0
 62
7
  6
CONTINUOUS
 10
144.6965443075
 20
128.8991800399
  0
VERTEX
  8
0
 62
7
  6
CONTINUOUS
 10
142.5393522595
 20
127.9959252146
  0
SEQEND
  0
POLYLINE
  8
0
 62
7
  6
CONTINUOUS
 66
1
 70
0
  0
VERTEX
  8
0
 62
7
  6
CONTINUOUS
 10
264.699930094
 20
104.0535842743
  0
VERTEX
  8
0
 62
7
  6
CONTINUOUS
 10
264.1217177041
 20
104.626188554
  0
VERTEX
  8
0
 62
7
  6
CONTINUOUS
 10
260.7309648051
 20
107.8304424735
  0
VERTEX
  8
0
 62
7
  6
CONTINUOUS
 10
257.2157896887
 20
110.8998348182
  0
VERTEX
  8
0
 62
7
  6
CONTINUOUS
 10
253.5802999678
 20
113.82487748
  0
VERTEX
  8
0
 62
7
  6
CONTINUOUS
 10
249.8297888141
 20
116.5972270717
  0
VERTEX
  8
0
 62
7
  6
CONTINUOUS
 10
245.9682656736
 20
119.2123052527
  0
VERTEX
  8
0
 62
7
  6
CONTINUOUS
 10
241.998094916
 20
121.6642774296
  0
VERTEX
  8
0
 62
7
  6
CONTINUOUS
 10
237.9295049409
 20
123.948568974
  0
VERTEX
  8
0
 62
7
  6
CONTINUOUS
 10
233.7748893364
 20
126.0578454562
  0
VERTEX
  8
0
 62
7
  6
CONTINUOUS
 10
229.5301169063
 20
127.994551686
  0
SEQEND
  0
POLYLINE
  8
0
 62
7
  6
CONTINUOUS
 66
1
 70
0
  0
VERTEX
  8
0
 62
7
  6
CONTINUOUS
 10
264.6989066562
 20
104.0525582818
  0
VERTEX
  8
0
 62
7
  6
CONTINUOUS
 10
267.1548463375
 20
101.5259735942
  0
VERTEX
  8
0
 62
7
  6
CONTINUOUS
 10
273.5228976179
 20
94.1571470103
  0
SEQEND
  0
POLYLINE
  8
0
 62
7
  6
CONTINUOUS
 66
1
 70
0
  0
VERTEX
  8
0
 62
7
  6
CONTINUOUS
 10
289.8741708079
 20
230.1909481694
  0
VERTEX
  8
0
 62
7
  6
CONTINUOUS
 10
289.826131198
 20
230.1076508778
  0
VERTEX
  8
0
 62
7
  6
CONTINUOUS
 10
289.7557253308
 20
229.714700424
  0
SEQEND
  0
LINE
  8
0
 62
7
  6
CONTINUOUS
 10
273.5228976179
 20
94.1571470103
 11
279.4370130253
 21
85.9610665321
  0
POLYLINE
  8
0
 62
7
  6
CONTINUOUS
 66
1
 70
0
  0
VERTEX
  8
0
 62
7
  6
CONTINUOUS
 10
281.4778574169
 20
82.7335582996
  0
VERTEX
  8
0
 62
7
  6
CONTINUOUS
 10
278.9691283224
 20
86.6743239128
  0
VERTEX
  8
0
 62
7
  6
CONTINUOUS
 10
276.2994412163
 20
90.5071810572
  0
VERTEX
  8
0
 62
7
  6
CONTINUOUS
 10
274.2105989042
 20
93.2865793455
  0
SEQEND
  0
LINE
  8
0
 62
7
  6
CONTINUOUS
 10
279.4370130253
 20
85.9610665321
 11
283.8699679797
 21
78.6055971295
  0
LINE
  8
0
 62
7
  6
CONTINUOUS
 10
283.8277765933
 20
78.6821886622
 11
281.4778574169
 21
82.7335582996
  0
LINE
  8
0
 62
7
  6
CONTINUOUS
 10
283.9996097269
 20
78.370683914
 11
283.8742319846
 21
78.5979728031
  0
POLYLINE
  8
0
 62
7
  6
CONTINUOUS
 66
1
 70
0
  0
VERTEX
  8
0
 62
7
  6
CONTINUOUS
 10
283.9993819995
 20
78.3705588177
  0
VERTEX
  8
0
 62
7
  6
CONTINUOUS
 10
284.0395069126
 20
78.2972126968
  0
VERTEX
  8
0
 62
7
  6
CONTINUOUS
 10
284.0693727368
 20
78.2423728154
  0
VERTEX
  8
0
 62
7
  6
CONTINUOUS
 10
284.1006917553
 20
78.1846371391
  0
VERTEX
  8
0
 62
7
  6
CONTINUOUS
 10
284.1334173349
 20
78.1240621185
  0
VERTEX
  8
0
 62
7
  6
CONTINUOUS
 10
284.1673829265
 20
78.0609304747
  0
VERTEX
  8
0
 62
7
  6
CONTINUOUS
 10
284.2024343777
 20
77.9955084545
  0
VERTEX
  8
0
 62
7
  6
CONTINUOUS
 10
284.238502259
 20
77.9279094861
  0
VERTEX
  8
0
 62
7
  6
CONTINUOUS
 10
284.275488437
 20
77.8583046568
  0
VERTEX
  8
0
 62
7
  6
CONTINUOUS
 10
284.3133339159
 20
77.7867952139
  0
VERTEX
  8
0
 62
7
  6
CONTINUOUS
 10
284.3519752132
 20
77.7134938616
  0
SEQEND
  0
LINE
  8
0
 62
7
  6
CONTINUOUS
 10
284.3519752132
 20
77.7134938616
 11
284.3913341637
 21
77.6385442695
  0
POLYLINE
  8
0
 62
7
  6
CONTINUOUS
 66
1
 70
0
  0
VERTEX
  8
0
 62
7
  6
CONTINUOUS
 10
284.3913341637
 20
77.6385442695
  0
VERTEX
  8
0
 62
7
  6
CONTINUOUS
 10
284.4313438386
 20
77.5620718559
  0
VERTEX
  8
0
 62
7
  6
CONTINUOUS
 10
284.4719135784
 20
77.4842504702
  0
VERTEX
  8
0
 62
7
  6
CONTINUOUS
 10
284.5129428981
 20
77.4052762458
  0
VERTEX
  8
0
 62
7
  6
CONTINUOUS
 10
284.5544010877
 20
77.3252137535
  0
VERTEX
  8
0
 62
7
  6
CONTINUOUS
 10
284.5962196549
 20
77.2442023841
  0
VERTEX
  8
0
 62
7
  6
CONTINUOUS
 10
284.6384154039
 20
77.1622178836
  0
VERTEX
  8
0
 62
7
  6
CONTINUOUS
 10
284.6809874228
 20
77.0792709094
  0
VERTEX
  8
0
 62
7
  6
CONTINUOUS
 10
284.7239218448
 20
76.9953982468
  0
VERTEX
  8
0
 62
7
  6
CONTINUOUS
 10
284.767208298
 20
76.9106308855
  0
VERTEX
  8
0
 62
7
  6
CONTINUOUS
 10
284.8108373783
 20
76.8249988897
  0
VERTEX
  8
0
 62
7
  6
CONTINUOUS
 10
284.8548001446
 20
76.7385323542
  0
VERTEX
  8
0
 62
7
  6
CONTINUOUS
 10
284.8990868069
 20
76.6512639571
  0
VERTEX
  8
0
 62
7
  6
CONTINUOUS
 10
284.9436885976
 20
76.5632252452
  0
VERTEX
  8
0
 62
7
  6
CONTINUOUS
 10
284.9885953684
 20
76.4744513242
  0
VERTEX
  8
0
 62
7
  6
CONTINUOUS
 10
285.033798058
 20
76.384975931
  0
SEQEND
  0
LINE
  8
0
 62
7
  6
CONTINUOUS
 10
285.033798058
 20
76.384975931
 11
285.1250504043
 21
76.2040681096
  0
LINE
  8
0
 62
7
  6
CONTINUOUS
 10
285.1250504043
 20
76.2040681096
 11
285.2173586771
 21
76.0207998568
  0
LINE
  8
0
 62
7
  6
CONTINUOUS
 10
285.2173586771
 20
76.0207998568
 11
285.3105779861
 21
75.8354638806
  0
POLYLINE
  8
0
 62
7
  6
CONTINUOUS
 66
1
 70
0
  0
VERTEX
  8
0
 62
7
  6
CONTINUOUS
 10
285.3105779861
 20
75.8354638806
  0
VERTEX
  8
0
 62
7
  6
CONTINUOUS
 10
285.4046297626
 20
75.6481489927
  0
VERTEX
  8
0
 62
7
  6
CONTINUOUS
 10
285.4519880613
 20
75.5536868339
  0
VERTEX
  8
0
 62
7
  6
CONTINUOUS
 10
285.4995898163
 20
75.4586321608
  0
VERTEX
  8
0
 62
7
  6
CONTINUOUS
 10
285.5474493389
 20
75.3629466827
  0
VERTEX
  8
0
 62
7
  6
CONTINUOUS
 10
285.5955809583
 20
75.2665917762
  0
VERTEX
  8
0
 62
7
  6
CONTINUOUS
 10
285.6439986084
 20
75.1695293402
  0
VERTEX
  8
0
 62
7
  6
CONTINUOUS
 10
285.6927162068
 20
75.071721076
  0
VERTEX
  8
0
 62
7
  6
CONTINUOUS
 10
285.7417476302
 20
74.9731285873
  0
VERTEX
  8
0
 62
7
  6
CONTINUOUS
 10
285.7911065821
 20
74.8737137102
  0
VERTEX
  8
0
 62
7
  6
CONTINUOUS
 10
285.8408073371
 20
74.7734370904
  0
VERTEX
  8
0
 62
7
  6
CONTINUOUS
 10
285.890863795
 20
74.6722601764
  0
VERTEX
  8
0
 62
7
  6
CONTINUOUS
 10
285.9412910971
 20
74.5701420508
  0
VERTEX
  8
0
 62
7
  6
CONTINUOUS
 10
285.9921038907
 20
74.4670430411
  0
VERTEX
  8
0
 62
7
  6
CONTINUOUS
 10
286.0433184499
 20
74.3629205237
  0
VERTEX
  8
0
 62
7
  6
CONTINUOUS
 10
286.0949506634
 20
74.2577331049
  0
VERTEX
  8
0
 62
7
  6
CONTINUOUS
 10
286.1470178223
 20
74.1514370731
  0
VERTEX
  8
0
 62
7
  6
CONTINUOUS
 10
286.1995372334
 20
74.0439892889
  0
VERTEX
  8
0
 62
7
  6
CONTINUOUS
 10
286.252526706
 20
73.9353462396
  0
VERTEX
  8
0
 62
7
  6
CONTINUOUS
 10
286.306005016
 20
73.8254630915
  0
VERTEX
  8
0
 62
7
  6
CONTINUOUS
 10
286.3599887528
 20
73.7143001424
  0
VERTEX
  8
0
 62
7
  6
CONTINUOUS
 10
286.4145008438
 20
73.6018051828
  0
VERTEX
  8
0
 62
7
  6
CONTINUOUS
 10
286.4695430581
 20
73.4879701466
  0
VERTEX
  8
0
 62
7
  6
CONTINUOUS
 10
286.5251259336
 20
73.3727688466
  0
VERTEX
  8
0
 62
7
  6
CONTINUOUS
 10
286.5812464735
 20
73.2562022153
  0
VERTEX
  8
0
 62
7
  6
CONTINUOUS
 10
286.6379048144
 20
73.1382637118
  0
VERTEX
  8
0
 62
7
  6
CONTINUOUS
 10
286.6950997936
 20
73.0189484843
  0
VERTEX
  8
0
 62
7
  6
CONTINUOUS
 10
286.7528286182
 20
72.8982540758
  0
VERTEX
  8
0
 62
7
  6
CONTINUOUS
 10
286.8110938882
 20
72.7761657182
  0
VERTEX
  8
0
 62
7
  6
CONTINUOUS
 10
286.8698904647
 20
72.6526838082
  0
VERTEX
  8
0
 62
7
  6
CONTINUOUS
 10
286.9292362366
 20
72.527759246
  0
VERTEX
  8
0
 62
7
  6
CONTINUOUS
 10
286.9891414874
 20
72.4013575658
  0
VERTEX
  8
0
 62
7
  6
CONTINUOUS
 10
287.0496208978
 20
72.2734336787
  0
VERTEX
  8
0
 62
7
  6
CONTINUOUS
 10
287.1106875334
 20
72.1439444901
  0
VERTEX
  8
0
 62
7
  6
CONTINUOUS
 10
287.1723533755
 20
72.0128477697
  0
VERTEX
  8
0
 62
7
  6
CONTINUOUS
 10
287.2346302041
 20
71.8801002513
  0
VERTEX
  8
0
 62
7
  6
CONTINUOUS
 10
287.2975284577
 20
71.7456600275
  0
VERTEX
  8
0
 62
7
  6
CONTINUOUS
 10
287.3610584521
 20
71.6094839216
  0
VERTEX
  8
0
 62
7
  6
CONTINUOUS
 10
287.4252289991
 20
71.4715304099
  0
VERTEX
  8
0
 62
7
  6
CONTINUOUS
 10
287.4900488001
 20
71.3317566085
  0
VERTEX
  8
0
 62
7
  6
CONTINUOUS
 10
287.5555250589
 20
71.1901212342
  0
VERTEX
  8
0
 62
7
  6
CONTINUOUS
 10
287.621664776
 20
71.0465818023
  0
VERTEX
  8
0
 62
7
  6
CONTINUOUS
 10
287.6884737477
 20
70.9010967902
  0
VERTEX
  8
0
 62
7
  6
CONTINUOUS
 10
287.7559564475
 20
70.7536259326
  0
VERTEX
  8
0
 62
7
  6
CONTINUOUS
 10
287.8241203414
 20
70.604120806
  0
VERTEX
  8
0
 62
7
  6
CONTINUOUS
 10
287.8929658443
 20
70.4525469041
  0
VERTEX
  8
0
 62
7
  6
CONTINUOUS
 10
287.9625151106
 20
70.2988202546
  0
VERTEX
  8
0
 62
7
  6
CONTINUOUS
 10
288.0327817755
 20
70.1428738459
  0
VERTEX
  8
0
 62
7
  6
CONTINUOUS
 10
288.1037878618
 20
69.9846203682
  0
VERTEX
  8
0
 62
7
  6
CONTINUOUS
 10
288.175561173
 20
69.8239578115
  0
VERTEX
  8
0
 62
7
  6
CONTINUOUS
 10
288.2480941528
 20
69.6608620552
  0
VERTEX
  8
0
 62
7
  6
CONTINUOUS
 10
288.32140474
 20
69.49525112
  0
VERTEX
  8
0
 62
7
  6
CONTINUOUS
 10
288.3954424732
 20
69.3271977102
  0
VERTEX
  8
0
 62
7
  6
CONTINUOUS
 10
288.4701758153
 20
69.1567335884
  0
VERTEX
  8
0
 62
7
  6
CONTINUOUS
 10
288.5455679972
 20
68.9839043512
  0
VERTEX
  8
0
 62
7
  6
CONTINUOUS
 10
288.6215847308
 20
68.8087521346
  0
VERTEX
  8
0
 62
7
  6
CONTINUOUS
 10
288.698190083
 20
68.6313251692
  0
VERTEX
  8
0
 62
7
  6
CONTINUOUS
 10
288.7753514756
 20
68.4516662131
  0
VERTEX
  8
0
 62
7
  6
CONTINUOUS
 10
288.8530280505
 20
68.2698403877
  0
VERTEX
  8
0
 62
7
  6
CONTINUOUS
 10
288.931185004
 20
68.085906634
  0
VERTEX
  8
0
 62
7
  6
CONTINUOUS
 10
289.0097836293
 20
67.8999366001
  0
VERTEX
  8
0
 62
7
  6
CONTINUOUS
 10
289.0887862395
 20
67.7120002476
  0
VERTEX
  8
0
 62
7
  6
CONTINUOUS
 10
289.1681570838
 20
67.5221635876
  0
VERTEX
  8
0
 62
7
  6
CONTINUOUS
 10
289.2478596914
 20
67.3304949943
  0
VERTEX
  8
0
 62
7
  6
CONTINUOUS
 10
289.3278597732
 20
67.1370582666
  0
VERTEX
  8
0
 62
7
  6
CONTINUOUS
 10
289.4081212062
 20
66.9419223385
  0
VERTEX
  8
0
 62
7
  6
CONTINUOUS
 10
289.488614405
 20
66.7451409518
  0
VERTEX
  8
0
 62
7
  6
CONTINUOUS
 10
289.5692936151
 20
66.5468082651
  0
VERTEX
  8
0
 62
7
  6
CONTINUOUS
 10
289.6501725414
 20
66.3468725678
  0
VERTEX
  8
0
 62
7
  6
CONTINUOUS
 10
289.7312397959
 20
66.1453430075
  0
VERTEX
  8
0
 62
7
  6
CONTINUOUS
 10
289.8125232316
 20
65.9421300793
  0
VERTEX
  8
0
 62
7
  6
CONTINUOUS
 10
289.8940398892
 20
65.7371690589
  0
VERTEX
  8
0
 62
7
  6
CONTINUOUS
 10
289.9758070699
 20
65.5303926636
  0
VERTEX
  8
0
 62
7
  6
CONTINUOUS
 10
290.0578411936
 20
65.3217339012
  0
VERTEX
  8
0
 62
7
  6
CONTINUOUS
 10
290.1401581481
 20
65.1111252348
  0
VERTEX
  8
0
 62
7
  6
CONTINUOUS
 10
290.2227731561
 20
64.8984989372
  0
VERTEX
  8
0
 62
7
  6
CONTINUOUS
 10
290.3057008923
 20
64.6837867987
  0
VERTEX
  8
0
 62
7
  6
CONTINUOUS
 10
290.3889553669
 20
64.4669204296
  0
VERTEX
  8
0
 62
7
  6
CONTINUOUS
 10
290.4725500519
 20
64.2478309322
  0
VERTEX
  8
0
 62
7
  6
CONTINUOUS
 10
290.5564977408
 20
64.0264492581
  0
VERTEX
  8
0
 62
7
  6
CONTINUOUS
 10
290.6408107122
 20
63.8027057666
  0
VERTEX
  8
0
 62
7
  6
CONTINUOUS
 10
290.7255014991
 20
63.5765281346
  0
VERTEX
  8
0
 62
7
  6
CONTINUOUS
 10
290.8105783188
 20
63.3478535764
  0
VERTEX
  8
0
 62
7
  6
CONTINUOUS
 10
290.8960523586
 20
63.1166093517
  0
VERTEX
  8
0
 62
7
  6
CONTINUOUS
 10
290.9819235938
 20
62.8827510198
  0
VERTEX
  8
0
 62
7
  6
CONTINUOUS
 10
291.0681945905
 20
62.6462245952
  0
VERTEX
  8
0
 62
7
  6
CONTINUOUS
 10
291.1548655985
 20
62.4069803192
  0
VERTEX
  8
0
 62
7
  6
CONTINUOUS
 10
291.2419367058
 20
62.1649671829
  0
VERTEX
  8
0
 62
7
  6
CONTINUOUS
 10
291.3294074187
 20
61.9201340482
  0
VERTEX
  8
0
 62
7
  6
CONTINUOUS
 10
291.4172766113
 20
61.6724297656
  0
VERTEX
  8
0
 62
7
  6
CONTINUOUS
 10
291.5055425415
 20
61.4218031094
  0
VERTEX
  8
0
 62
7
  6
CONTINUOUS
 10
291.5942028122
 20
61.1682028654
  0
VERTEX
  8
0
 62
7
  6
CONTINUOUS
 10
291.6832543772
 20
60.9115777907
  0
VERTEX
  8
0
 62
7
  6
CONTINUOUS
 10
291.7726932219
 20
60.6518775187
  0
VERTEX
  8
0
 62
7
  6
CONTINUOUS
 10
291.8625157956
 20
60.3890483578
  0
VERTEX
  8
0
 62
7
  6
CONTINUOUS
 10
291.9527133274
 20
60.1230499591
  0
VERTEX
  8
0
 62
7
  6
CONTINUOUS
 10
292.043293117
 20
59.8537922741
  0
VERTEX
  8
0
 62
7
  6
CONTINUOUS
 10
292.1342540142
 20
59.5812072711
  0
VERTEX
  8
0
 62
7
  6
CONTINUOUS
 10
292.2256065819
 20
59.3051886061
  0
VERTEX
  8
0
 62
7
  6
CONTINUOUS
 10
292.3173567872
 20
59.0256398381
  0
VERTEX
  8
0
 62
7
  6
CONTINUOUS
 10
292.4095097603
 20
58.7424631553
  0
VERTEX
  8
0
 62
7
  6
CONTINUOUS
 10
292.5020691468
 20
58.4555612288
  0
VERTEX
  8
0
 62
7
  6
CONTINUOUS
 10
292.5950373284
 20
58.1648364241
  0
VERTEX
  8
0
 62
7
  6
CONTINUOUS
 10
292.6884151513
 20
57.8701915159
  0
VERTEX
  8
0
 62
7
  6
CONTINUOUS
 10
292.7822022214
 20
57.5715286104
  0
VERTEX
  8
0
 62
7
  6
CONTINUOUS
 10
292.8763947282
 20
57.2687546873
  0
VERTEX
  8
0
 62
7
  6
CONTINUOUS
 10
292.9709900777
 20
56.9617641243
  0
VERTEX
  8
0
 62
7
  6
CONTINUOUS
 10
293.0659785532
 20
56.650468135
  0
VERTEX
  8
0
 62
7
  6
CONTINUOUS
 10
293.1613637421
 20
56.3347280911
  0
VERTEX
  8
0
 62
7
  6
CONTINUOUS
 10
293.2571420915
 20
56.0144215036
  0
VERTEX
  8
0
 62
7
  6
CONTINUOUS
 10
293.3533117902
 20
55.6894124754
  0
VERTEX
  8
0
 62
7
  6
CONTINUOUS
 10
293.4498672923
 20
55.3595695599
  0
VERTEX
  8
0
 62
7
  6
CONTINUOUS
 10
293.5468013101
 20
55.0247588341
  0
VERTEX
  8
0
 62
7
  6
CONTINUOUS
 10
293.6441034302
 20
54.6848483619
  0
VERTEX
  8
0
 62
7
  6
CONTINUOUS
 10
293.7417613973
 20
54.339703472
  0
VERTEX
  8
0
 62
7
  6
CONTINUOUS
 10
293.8397566451
 20
53.9892023883
  0
VERTEX
  8
0
 62
7
  6
CONTINUOUS
 10
293.9380803762
 20
53.6331781496
  0
VERTEX
  8
0
 62
7
  6
CONTINUOUS
 10
294.0367061027
 20
53.2715167475
  0
VERTEX
  8
0
 62
7
  6
CONTINUOUS
 10
294.1356480199
 20
52.9039419516
  0
VERTEX
  8
0
 62
7
  6
CONTINUOUS
 10
294.2349014697
 20
52.5302296079
  0
VERTEX
  8
0
 62
7
  6
CONTINUOUS
 10
294.334468041
 20
52.1501141332
  0
VERTEX
  8
0
 62
7
  6
CONTINUOUS
 10
294.4343414405
 20
51.7633419869
  0
VERTEX
  8
0
 62
7
  6
CONTINUOUS
 10
294.5345158419
 20
51.3696531832
  0
VERTEX
  8
0
 62
7
  6
CONTINUOUS
 10
294.6349599306
 20
50.968877731
  0
VERTEX
  8
0
 62
7
  6
CONTINUOUS
 10
294.7357264568
 20
50.5604873858
  0
VERTEX
  8
0
 62
7
  6
CONTINUOUS
 10
294.836622503
 20
50.1449348611
  0
VERTEX
  8
0
 62
7
  6
CONTINUOUS
 10
294.9383036779
 20
49.7191147427
  0
VERTEX
  8
0
 62
7
  6
CONTINUOUS
 10
295.0410514544
 20
49.2813049719
  0
VERTEX
  8
0
 62
7
  6
CONTINUOUS
 10
295.1455664061
 20
48.8278087597
  0
VERTEX
  8
0
 62
7
  6
CONTINUOUS
 10
295.2525538533
 20
48.3546005914
  0
VERTEX
  8
0
 62
7
  6
CONTINUOUS
 10
295.3619135314
 20
47.8609604199
  0
VERTEX
  8
0
 62
7
  6
CONTINUOUS
 10
295.4739341853
 20
47.3442363589
  0
VERTEX
  8
0
 62
7
  6
CONTINUOUS
 10
295.5878966544
 20
46.8062700906
  0
VERTEX
  8
0
 62
7
  6
CONTINUOUS
 10
295.703431891
 20
46.2472744218
  0
VERTEX
  8
0
 62
7
  6
CONTINUOUS
 10
295.8197097936
 20
45.6696584291
  0
VERTEX
  8
0
 62
7
  6
CONTINUOUS
 10
295.9361169969
 20
45.0747867413
  0
VERTEX
  8
0
 62
7
  6
CONTINUOUS
 10
296.0515701799
 20
44.4663925336
  0
VERTEX
  8
0
 62
7
  6
CONTINUOUS
 10
296.1643551701
 20
43.8518025574
  0
VERTEX
  8
0
 62
7
  6
CONTINUOUS
 10
296.2757806097
 20
43.2220061464
  0
VERTEX
  8
0
 62
7
  6
CONTINUOUS
 10
296.3867430261
 20
42.5705580435
  0
VERTEX
  8
0
 62
7
  6
CONTINUOUS
 10
296.4975513348
 20
41.8956797476
  0
VERTEX
  8
0
 62
7
  6
CONTINUOUS
 10
296.6090923755
 20
41.1922222936
  0
VERTEX
  8
0
 62
7
  6
CONTINUOUS
 10
296.7208111984
 20
40.4632857807
  0
VERTEX
  8
0
 62
7
  6
CONTINUOUS
 10
296.8321211595
 20
39.7110723785
  0
VERTEX
  8
0
 62
7
  6
CONTINUOUS
 10
296.9429686048
 20
38.9332134635
  0
VERTEX
  8
0
 62
7
  6
CONTINUOUS
 10
297.0531595593
 20
38.1276564101
  0
VERTEX
  8
0
 62
7
  6
CONTINUOUS
 10
297.1619711197
 20
37.2955360013
  0
VERTEX
  8
0
 62
7
  6
CONTINUOUS
 10
297.2685833548
 20
36.4376284436
  0
VERTEX
  8
0
 62
7
  6
CONTINUOUS
 10
297.371923994
 20
35.5531821373
  0
VERTEX
  8
0
 62
7
  6
CONTINUOUS
 10
297.3949167102
 20
35.3472661854
  0
SEQEND
  0
LINE
  8
0
 62
7
  6
CONTINUOUS
 10
261.0327043823
 20
221.611168031
 11
261.0327043823
 21
230.1909460419
  0
POLYLINE
  8
0
 62
7
  6
CONTINUOUS
 66
1
 70
0
  0
VERTEX
  8
0
 62
7
  6
CONTINUOUS
 10
57.195710935
 20
229.1013530881
  0
VERTEX
  8
0
 62
7
  6
CONTINUOUS
 10
52.6950590564
 20
228.9721546024
  0
VERTEX
  8
0
 62
7
  6
CONTINUOUS
 10
46.776363827
 20
228.2235678379
  0
VERTEX
  8
0
 62
7
  6
CONTINUOUS
 10
40.9933854743
 20
226.830786385
  0
VERTEX
  8
0
 62
7
  6
CONTINUOUS
 10
35.4227421206
 20
224.8086018316
  0
VERTEX
  8
0
 62
7
  6
CONTINUOUS
 10
30.1281202001
 20
222.1787222674
  0
VERTEX
  8
0
 62
7
  6
CONTINUOUS
 10
25.200330555
 20
218.9920854186
  0
VERTEX
  8
0
 62
7
  6
CONTINUOUS
 10
20.7262378312
 20
215.3113751959
  0
VERTEX
  8
0
 62
7
  6
CONTINUOUS
 10
16.7402052875
 20
211.1690005112
  0
VERTEX
  8
0
 62
7
  6
CONTINUOUS
 10
13.2743346744
 20
206.6041479938
  0
VERTEX
  8
0
 62
7
  6
CONTINUOUS
 10
10.3889822149
 20
201.6907099205
  0
VERTEX
  8
0
 62
7
  6
CONTINUOUS
 10
8.1124410799
 20
196.4456539917
  0
VERTEX
  8
0
 62
7
  6
CONTINUOUS
 10
6.5301602807
 20
191.11155191
  0
VERTEX
  8
0
 62
7
  6
CONTINUOUS
 10
5.635151897
 20
185.9477784331
  0
VERTEX
  8
0
 62
7
  6
CONTINUOUS
 10
5.3719314401
 20
182.5183490921
  0
SEQEND
  0
LINE
  8
0
 62
7
  6
CONTINUOUS
 10
314.8696205589
 20
229.1108124085
 11
289.7680247425
 21
228.780375956
  0
POLYLINE
  8
0
 62
7
  6
CONTINUOUS
 66
1
 70
0
  0
VERTEX
  8
0
 62
7
  6
CONTINUOUS
 10
261.0327043823
 20
221.6121965751
  0
VERTEX
  8
0
 62
7
  6
CONTINUOUS
 10
255.6227507348
 20
221.5445248487
  0
VERTEX
  8
0
 62
7
  6
CONTINUOUS
 10
250.4177748987
 20
221.4787300302
  0
VERTEX
  8
0
 62
7
  6
CONTINUOUS
 10
245.4475453893
 20
221.4151866127
  0
VERTEX
  8
0
 62
7
  6
CONTINUOUS
 10
240.6227566612
 20
221.3527711172
  0
VERTEX
  8
0
 62
7
  6
CONTINUOUS
 10
235.875333644
 20
221.2906506449
  0
VERTEX
  8
0
 62
7
  6
CONTINUOUS
 10
231.1713534279
 20
221.2283279486
  0
VERTEX
  8
0
 62
7
  6
CONTINUOUS
 10
226.4779498425
 20
221.1653760254
  0
VERTEX
  8
0
 62
7
  6
CONTINUOUS
 10
221.7238775998
 20
221.1007512443
  0
VERTEX
  8
0
 62
7
  6
CONTINUOUS
 10
216.8371854098
 20
221.0334702914
  0
VERTEX
  8
0
 62
7
  6
CONTINUOUS
 10
211.7871251077
 20
220.962925213
  0
VERTEX
  8
0
 62
7
  6
CONTINUOUS
 10
206.5121232741
 20
220.8880633184
  0
VERTEX
  8
0
 62
7
  6
CONTINUOUS
 10
201.0327043823
 20
220.8092355046
  0
SEQEND
  0
POLYLINE
  8
0
 62
7
  6
CONTINUOUS
 66
1
 70
0
  0
VERTEX
  8
0
 62
7
  6
CONTINUOUS
 10
201.0327043823
 20
220.8092355046
  0
VERTEX
  8
0
 62
7
  6
CONTINUOUS
 10
196.1007760074
 20
220.75372046
  0
VERTEX
  8
0
 62
7
  6
CONTINUOUS
 10
191.1421571017
 20
220.7203564766
  0
VERTEX
  8
0
 62
7
  6
CONTINUOUS
 10
186.1567910523
 20
220.7090843978
  0
VERTEX
  8
0
 62
7
  6
CONTINUOUS
 10
181.1448476982
 20
220.7200816934
  0
VERTEX
  8
0
 62
7
  6
CONTINUOUS
 10
176.1064968786
 20
220.7535258331
  0
VERTEX
  8
0
 62
7
  6
CONTINUOUS
 10
171.0416819805
 20
220.8093576605
  0
SEQEND
  0
LINE
  8
0
 62
7
  6
CONTINUOUS
 10
289.8741703247
 20
230.193176942
 11
261.0327043823
 21
230.193176942
  0
LINE
  8
0
 62
7
  6
CONTINUOUS
 10
82.19123844
 20
230.193176942
 11
111.0327043823
 21
230.193176942
  0
LINE
  8
0
 62
7
  6
CONTINUOUS
 10
57.1957882052
 20
229.1108124085
 11
82.2973840221
 21
228.780375956
  0
POLYLINE
  8
0
 62
7
  6
CONTINUOUS
 66
1
 70
0
  0
VERTEX
  8
0
 62
7
  6
CONTINUOUS
 10
171.0416819805
 20
220.8093576605
  0
VERTEX
  8
0
 62
7
  6
CONTINUOUS
 10
165.5494680545
 20
220.8882110252
  0
VERTEX
  8
0
 62
7
  6
CONTINUOUS
 10
160.2655207772
 20
220.9631046583
  0
VERTEX
  8
0
 62
7
  6
CONTINUOUS
 10
155.2109898351
 20
221.0336939741
  0
VERTEX
  8
0
 62
7
  6
CONTINUOUS
 10
150.3224261687
 20
221.1010127296
  0
VERTEX
  8
0
 62
7
  6
CONTINUOUS
 10
145.5672591347
 20
221.1656488702
  0
VERTEX
  8
0
 62
7
  6
CONTINUOUS
 10
140.8740031723
 20
221.2285952447
  0
VERTEX
  8
0
 62
7
  6
CONTINUOUS
 10
136.1713349634
 20
221.2908974266
  0
VERTEX
  8
0
 62
7
  6
CONTINUOUS
 10
131.4261971367
 20
221.3529851872
  0
VERTEX
  8
0
 62
7
  6
CONTINUOUS
 10
126.6044513414
 20
221.4153645191
  0
VERTEX
  8
0
 62
7
  6
CONTINUOUS
 10
121.6380171985
 20
221.478852332
  0
VERTEX
  8
0
 62
7
  6
CONTINUOUS
 10
116.4375024001
 20
221.5445573966
  0
VERTEX
  8
0
 62
7
  6
CONTINUOUS
 10
111.0327043823
 20
221.6121101226
  0
SEQEND
  0
POLYLINE
  8
0
 62
7
  6
CONTINUOUS
 66
1
 70
0
  0
VERTEX
  8
0
 62
7
  6
CONTINUOUS
 10
290.0687083883
 20
228.7843341441
  0
VERTEX
  8
0
 62
7
  6
CONTINUOUS
 10
290.0293615957
 20
229.3531942039
  0
VERTEX
  8
0
 62
7
  6
CONTINUOUS
 10
289.9640693083
 20
229.9180502955
  0
SEQEND
  0
LINE
  8
0
 62
7
  6
CONTINUOUS
 10
297.9813537311
 20
22.1483060491
 11
297.6329010248
 21
-1.3267317876
  0
LINE
  8
0
 62
7
  6
CONTINUOUS
 10
297.9796831647
 20
22.0356919329
 11
297.9679153032
 21
21.2597682353
  0
POLYLINE
  8
0
 62
7
  6
CONTINUOUS
 66
1
 70
0
  0
VERTEX
  8
0
 62
7
  6
CONTINUOUS
 10
297.6807391632
 20
5.0887286118
  0
VERTEX
  8
0
 62
7
  6
CONTINUOUS
 10
297.5798922917
 20
-1.4052162207
  0
VERTEX
  8
0
 62
7
  6
CONTINUOUS
 10
297.4538206496
 20
-8.8792843493
  0
VERTEX
  8
0
 62
7
  6
CONTINUOUS
 10
297.345903066
 20
-15.8395910446
  0
SEQEND
  0
POLYLINE
  8
0
 62
7
  6
CONTINUOUS
 66
1
 70
0
  0
VERTEX
  8
0
 62
7
  6
CONTINUOUS
 10
297.3454120002
 20
-15.8396178846
  0
VERTEX
  8
0
 62
7
  6
CONTINUOUS
 10
297.2652793726
 20
-20.8816495318
  0
VERTEX
  8
0
 62
7
  6
CONTINUOUS
 10
297.1849744916
 20
-27.1563948554
  0
VERTEX
  8
0
 62
7
  6
CONTINUOUS
 10
297.115511317
 20
-33.1480937679
  0
VERTEX
  8
0
 62
7
  6
CONTINUOUS
 10
297.0429178483
 20
-38.8557572319
  0
VERTEX
  8
0
 62
7
  6
CONTINUOUS
 10
296.9571859072
 20
-44.3066747041
  0
VERTEX
  8
0
 62
7
  6
CONTINUOUS
 10
296.8884992102
 20
-47.8630443591
  0
SEQEND
  0
POLYLINE
  8
0
 62
7
  6
CONTINUOUS
 66
1
 70
0
  0
VERTEX
  8
0
 62
7
  6
CONTINUOUS
 10
297.9679153032
 20
21.2597682353
  0
VERTEX
  8
0
 62
7
  6
CONTINUOUS
 10
297.9179124796
 20
18.208064069
  0
VERTEX
  8
0
 62
7
  6
CONTINUOUS
 10
297.8565530265
 20
14.7997665237
  0
VERTEX
  8
0
 62
7
  6
CONTINUOUS
 10
297.7786417067
 20
10.5727027871
  0
VERTEX
  8
0
 62
7
  6
CONTINUOUS
 10
297.6807391632
 20
5.0887286118
  0
SEQEND
  0
POLYLINE
  8
0
 62
7
  6
CONTINUOUS
 66
1
 70
0
  0
VERTEX
  8
0
 62
7
  6
CONTINUOUS
 10
296.889045601
 20
-47.8620792059
  0
VERTEX
  8
0
 62
7
  6
CONTINUOUS
 10
296.8597343614
 20
-49.3336716488
  0
VERTEX
  8
0
 62
7
  6
CONTINUOUS
 10
296.8278973902
 20
-50.7390607963
  0
VERTEX
  8
0
 62
7
  6
CONTINUOUS
 10
296.7855272414
 20
-52.077544782
  0
VERTEX
  8
0
 62
7
  6
CONTINUOUS
 10
296.7380151477
 20
-53.153004128
  0
SEQEND
  0
LINE
  8
0
 62
7
  6
CONTINUOUS
 10
289.7557253308
 20
229.714700424
 11
289.6229557753
 21
228.6100225561
  0
POLYLINE
  8
0
 62
7
  6
CONTINUOUS
 66
1
 70
0
  0
VERTEX
  8
0
 62
7
  6
CONTINUOUS
 10
289.6229557753
 20
228.6100225561
  0
VERTEX
  8
0
 62
7
  6
CONTINUOUS
 10
289.6475694682
 20
228.7493503127
  0
VERTEX
  8
0
 62
7
  6
CONTINUOUS
 10
289.6647354496
 20
228.7788221257
  0
SEQEND
  0
POLYLINE
  8
0
 62
7
  6
CONTINUOUS
 66
1
 70
0
  0
VERTEX
  8
0
 62
7
  6
CONTINUOUS
 10
296.7379746998
 20
-53.1541836704
  0
VERTEX
  8
0
 62
7
  6
CONTINUOUS
 10
296.7153832661
 20
-53.5792614778
  0
VERTEX
  8
0
 62
7
  6
CONTINUOUS
 10
296.6018231277
 20
-55.3458464422
  0
VERTEX
  8
0
 62
7
  6
CONTINUOUS
 10
296.4634708898
 20
-57.0366631616
  0
VERTEX
  8
0
 62
7
  6
CONTINUOUS
 10
296.3035720362
 20
-58.6581779768
  0
VERTEX
  8
0
 62
7
  6
CONTINUOUS
 10
296.1250343346
 20
-60.2146851498
  0
VERTEX
  8
0
 62
7
  6
CONTINUOUS
 10
295.9303139819
 20
-61.710678282
  0
VERTEX
  8
0
 62
7
  6
CONTINUOUS
 10
295.7214218539
 20
-63.1509161551
  0
VERTEX
  8
0
 62
7
  6
CONTINUOUS
 10
295.500231804
 20
-64.5386788729
  0
VERTEX
  8
0
 62
7
  6
CONTINUOUS
 10
295.2682147582
 20
-65.8780508971
  0
VERTEX
  8
0
 62
7
  6
CONTINUOUS
 10
295.0268692498
 20
-67.1714380466
  0
VERTEX
  8
0
 62
7
  6
CONTINUOUS
 10
294.7773908608
 20
-68.4217725682
  0
VERTEX
  8
0
 62
7
  6
CONTINUOUS
 10
294.5208976579
 20
-69.6313848522
  0
VERTEX
  8
0
 62
7
  6
CONTINUOUS
 10
294.2582590923
 20
-70.8029586061
  0
VERTEX
  8
0
 62
7
  6
CONTINUOUS
 10
293.9903968696
 20
-71.9382414551
  0
VERTEX
  8
0
 62
7
  6
CONTINUOUS
 10
293.7180422164
 20
-73.0392516555
  0
VERTEX
  8
0
 62
7
  6
CONTINUOUS
 10
293.4418440948
 20
-74.1077873073
  0
VERTEX
  8
0
 62
7
  6
CONTINUOUS
 10
293.1622527041
 20
-75.1459059146
  0
VERTEX
  8
0
 62
7
  6
CONTINUOUS
 10
292.8798404797
 20
-76.1548421442
  0
VERTEX
  8
0
 62
7
  6
CONTINUOUS
 10
292.5950209573
 20
-77.1361271056
  0
VERTEX
  8
0
 62
7
  6
CONTINUOUS
 10
292.3082351672
 20
-78.0909403061
  0
VERTEX
  8
0
 62
7
  6
CONTINUOUS
 10
292.0198251918
 20
-79.0205770401
  0
VERTEX
  8
0
 62
7
  6
CONTINUOUS
 10
291.7301073731
 20
-79.9262139129
  0
VERTEX
  8
0
 62
7
  6
CONTINUOUS
 10
291.4392916407
 20
-80.8091748467
  0
VERTEX
  8
0
 62
7
  6
CONTINUOUS
 10
291.1476988068
 20
-81.6702847044
  0
VERTEX
  8
0
 62
7
  6
CONTINUOUS
 10
290.8555562362
 20
-82.5105186038
  0
VERTEX
  8
0
 62
7
  6
CONTINUOUS
 10
290.563097877
 20
-83.3306872042
  0
VERTEX
  8
0
 62
7
  6
CONTINUOUS
 10
290.2705107332
 20
-84.1316022607
  0
VERTEX
  8
0
 62
7
  6
CONTINUOUS
 10
289.9779469622
 20
-84.9140683161
  0
VERTEX
  8
0
 62
7
  6
CONTINUOUS
 10
289.685502596
 20
-85.6789448365
  0
VERTEX
  8
0
 62
7
  6
CONTINUOUS
 10
289.3933356241
 20
-86.4268446647
  0
VERTEX
  8
0
 62
7
  6
CONTINUOUS
 10
289.1015350674
 20
-87.1584868732
  0
VERTEX
  8
0
 62
7
  6
CONTINUOUS
 10
288.8102445818
 20
-87.874387677
  0
VERTEX
  8
0
 62
7
  6
CONTINUOUS
 10
288.5195662393
 20
-88.5751114893
  0
VERTEX
  8
0
 62
7
  6
CONTINUOUS
 10
288.2295843945
 20
-89.2612120861
  0
VERTEX
  8
0
 62
7
  6
CONTINUOUS
 10
287.9403591076
 20
-89.9332502123
  0
VERTEX
  8
0
 62
7
  6
CONTINUOUS
 10
287.6519470341
 20
-90.591747086
  0
VERTEX
  8
0
 62
7
  6
CONTINUOUS
 10
287.3643610876
 20
-91.2372787801
  0
VERTEX
  8
0
 62
7
  6
CONTINUOUS
 10
287.0776866828
 20
-91.8702183567
  0
VERTEX
  8
0
 62
7
  6
CONTINUOUS
 10
286.7919661708
 20
-92.4910022146
  0
VERTEX
  8
0
 62
7
  6
CONTINUOUS
 10
286.5072638748
 20
-93.0999880437
  0
VERTEX
  8
0
 62
7
  6
CONTINUOUS
 10
286.223623126
 20
-93.6975512364
  0
SEQEND
  0
LINE
  8
0
 62
7
  6
CONTINUOUS
 10
296.7381164799
 20
-53.153031928
 11
296.7379746998
 21
-53.1541836704
  0
LINE
  8
0
 62
7
  6
CONTINUOUS
 10
289.8952058645
 20
230.1783833257
 11
289.8741708079
 21
230.1909481694
  0
LINE
  8
0
 62
7
  6
CONTINUOUS
 10
289.9640693083
 20
229.9180502955
 11
289.8952058645
 21
230.1783833257
  0
POLYLINE
  8
0
 62
7
  6
CONTINUOUS
 66
1
 70
0
  0
VERTEX
  8
0
 62
7
  6
CONTINUOUS
 10
374.8300797519
 20
374.0718047354
  0
VERTEX
  8
0
 62
7
  6
CONTINUOUS
 10
374.9137269793
 20
374.6836059901
  0
VERTEX
  8
0
 62
7
  6
CONTINUOUS
 10
374.9594126203
 20
375.2994063522
  0
VERTEX
  8
0
 62
7
  6
CONTINUOUS
 10
374.9687094592
 20
375.7303360851
  0
SEQEND
  0
POLYLINE
  8
0
 62
7
  6
CONTINUOUS
 66
1
 70
0
  0
VERTEX
  8
0
 62
7
  6
CONTINUOUS
 10
366.6941853151
 20
182.5199448341
  0
VERTEX
  8
0
 62
7
  6
CONTINUOUS
 10
366.613239133
 20
183.9950698143
  0
VERTEX
  8
0
 62
7
  6
CONTINUOUS
 10
366.3881927894
 20
186.3114608772
  0
VERTEX
  8
0
 62
7
  6
CONTINUOUS
 10
366.0218110441
 20
188.7473540847
  0
VERTEX
  8
0
 62
7
  6
CONTINUOUS
 10
365.4867234433
 20
191.3255715981
  0
VERTEX
  8
0
 62
7
  6
CONTINUOUS
 10
364.7518277872
 20
194.0494133814
  0
VERTEX
  8
0
 62
7
  6
CONTINUOUS
 10
363.7727249378
 20
196.9393359733
  0
VERTEX
  8
0
 62
7
  6
CONTINUOUS
 10
362.5015607496
 20
199.9894450154
  0
VERTEX
  8
0
 62
7
  6
CONTINUOUS
 10
360.8622174544
 20
203.2232262881
  0
VERTEX
  8
0
 62
7
  6
CONTINUOUS
 10
358.7804891706
 20
206.6220542406
  0
VERTEX
  8
0
 62
7
  6
CONTINUOUS
 10
356.1229036518
 20
210.2141727006
  0
VERTEX
  8
0
 62
7
  6
CONTINUOUS
 10
352.6637476546
 20
214.0404996642
  0
VERTEX
  8
0
 62
7
  6
CONTINUOUS
 10
348.4285815306
 20
217.8022117717
  0
VERTEX
  8
0
 62
7
  6
CONTINUOUS
 10
343.4134961708
 20
221.3039183843
  0
VERTEX
  8
0
 62
7
  6
CONTINUOUS
 10
337.8144342407
 20
224.2872882916
  0
VERTEX
  8
0
 62
7
  6
CONTINUOUS
 10
331.9655002488
 20
226.5516441622
  0
VERTEX
  8
0
 62
7
  6
CONTINUOUS
 10
325.8708020048
 20
228.1123600177
  0
VERTEX
  8
0
 62
7
  6
CONTINUOUS
 10
319.6135960856
 20
228.9540358495
  0
VERTEX
  8
0
 62
7
  6
CONTINUOUS
 10
314.8696843766
 20
229.1018540025
  0
SEQEND
  0
POLYLINE
  8
0
 62
7
  6
CONTINUOUS
 66
1
 70
0
  0
VERTEX
  8
0
 62
7
  6
CONTINUOUS
 10
366.7015232009
 20
182.3082962333
  0
VERTEX
  8
0
 62
7
  6
CONTINUOUS
 10
366.6973535958
 20
182.4369013668
  0
VERTEX
  8
0
 62
7
  6
CONTINUOUS
 10
366.6939883852
 20
182.5295634907
  0
SEQEND
  0
LINE
  8
0
 62
7
  6
CONTINUOUS
 10
366.7061311607
 20
182.1567731273
 11
366.7015232009
 21
182.3082962333
  0
POLYLINE
  8
0
 62
7
  6
CONTINUOUS
 66
1
 70
0
  0
VERTEX
  8
0
 62
7
  6
CONTINUOUS
 10
366.6997441148
 20
182.0980257414
  0
VERTEX
  8
0
 62
7
  6
CONTINUOUS
 10
366.7857821533
 20
179.140673488
  0
VERTEX
  8
0
 62
7
  6
CONTINUOUS
 10
366.8670986464
 20
176.1455807373
  0
VERTEX
  8
0
 62
7
  6
CONTINUOUS
 10
366.9439420048
 20
173.1074008407
  0
VERTEX
  8
0
 62
7
  6
CONTINUOUS
 10
367.0155669969
 20
170.0421737441
  0
VERTEX
  8
0
 62
7
  6
CONTINUOUS
 10
367.0814128024
 20
166.9605929548
  0
VERTEX
  8
0
 62
7
  6
CONTINUOUS
 10
367.141174599
 20
163.8733511399
  0
VERTEX
  8
0
 62
7
  6
CONTINUOUS
 10
367.194269657
 20
160.7988171681
  0
VERTEX
  8
0
 62
7
  6
CONTINUOUS
 10
367.2409708789
 20
157.7246559419
  0
VERTEX
  8
0
 62
7
  6
CONTINUOUS
 10
367.2811860834
 20
154.6502528309
  0
VERTEX
  8
0
 62
7
  6
CONTINUOUS
 10
367.3154277929
 20
151.558815302
  0
VERTEX
  8
0
 62
7
  6
CONTINUOUS
 10
367.3442107955
 20
148.425512176
  0
VERTEX
  8
0
 62
7
  6
CONTINUOUS
 10
367.367436113
 20
145.2738447609
  0
VERTEX
  8
0
 62
7
  6
CONTINUOUS
 10
367.3851388422
 20
142.1123709408
  0
VERTEX
  8
0
 62
7
  6
CONTINUOUS
 10
367.397431546
 20
138.9610898087
  0
VERTEX
  8
0
 62
7
  6
CONTINUOUS
 10
367.4044540187
 20
135.8457095511
  0
VERTEX
  8
0
 62
7
  6
CONTINUOUS
 10
367.4061596621
 20
132.7576607724
  0
SEQEND
  0
POLYLINE
  8
0
 62
7
  6
CONTINUOUS
 66
1
 70
0
  0
VERTEX
  8
0
 62
7
  6
CONTINUOUS
 10
374.9687120881
 20
518.4764659123
  0
VERTEX
  8
0
 62
7
  6
CONTINUOUS
 10
374.9587337141
 20
518.9228778045
  0
VERTEX
  8
0
 62
7
  6
CONTINUOUS
 10
374.912081994
 20
519.5386627051
  0
VERTEX
  8
0
 62
7
  6
CONTINUOUS
 10
374.8274888982
 20
520.1503359516
  0
VERTEX
  8
0
 62
7
  6
CONTINUOUS
 10
374.7052743235
 20
520.7555934572
  0
VERTEX
  8
0
 62
7
  6
CONTINUOUS
 10
374.5459067516
 20
521.3521448765
  0
VERTEX
  8
0
 62
7
  6
CONTINUOUS
 10
374.3499951255
 20
521.9377326499
  0
VERTEX
  8
0
 62
7
  6
CONTINUOUS
 10
374.1182731748
 20
522.5101376589
  0
VERTEX
  8
0
 62
7
  6
CONTINUOUS
 10
373.8516240445
 20
523.0671947286
  0
VERTEX
  8
0
 62
7
  6
CONTINUOUS
 10
373.5510369272
 20
523.606792971
  0
VERTEX
  8
0
 62
7
  6
CONTINUOUS
 10
373.2176530617
 20
524.1268679406
  0
VERTEX
  8
0
 62
7
  6
CONTINUOUS
 10
372.8527415883
 20
524.6254452888
  0
VERTEX
  8
0
 62
7
  6
CONTINUOUS
 10
372.4576740917
 20
525.1005977731
  0
VERTEX
  8
0
 62
7
  6
CONTINUOUS
 10
372.0339704802
 20
525.5505180634
  0
VERTEX
  8
0
 62
7
  6
CONTINUOUS
 10
371.5832300531
 20
525.9734684472
  0
VERTEX
  8
0
 62
7
  6
CONTINUOUS
 10
371.1071685982
 20
526.3678250763
  0
VERTEX
  8
0
 62
7
  6
CONTINUOUS
 10
370.6076123034
 20
526.7320949749
  0
VERTEX
  8
0
 62
7
  6
CONTINUOUS
 10
370.0864509631
 20
527.0648656102
  0
VERTEX
  8
0
 62
7
  6
CONTINUOUS
 10
369.5456730589
 20
527.3648615596
  0
VERTEX
  8
0
 62
7
  6
CONTINUOUS
 10
368.9873403327
 20
527.6309338954
  0
VERTEX
  8
0
 62
7
  6
CONTINUOUS
 10
368.4135828677
 20
527.8620592919
  0
VERTEX
  8
0
 62
7
  6
CONTINUOUS
 10
367.8265853664
 20
528.0573359551
  0
VERTEX
  8
0
 62
7
  6
CONTINUOUS
 10
367.2285924601
 20
528.2160310068
  0
VERTEX
  8
0
 62
7
  6
CONTINUOUS
 10
366.6218824387
 20
528.3375196698
  0
VERTEX
  8
0
 62
7
  6
CONTINUOUS
 10
366.0087683962
 20
528.4213263685
  0
VERTEX
  8
0
 62
7
  6
CONTINUOUS
 10
365.3915941129
 20
528.4671238551
  0
VERTEX
  8
0
 62
7
  6
CONTINUOUS
 10
364.9620772324
 20
528.4764657402
  0
SEQEND
  0
POLYLINE
  8
0
 62
7
  6
CONTINUOUS
 66
1
 70
0
  0
VERTEX
  8
0
 62
7
  6
CONTINUOUS
 10
367.4159136339
 20
132.7543660256
  0
VERTEX
  8
0
 62
7
  6
CONTINUOUS
 10
367.4061653904
 20
140.4336892847
  0
VERTEX
  8
0
 62
7
  6
CONTINUOUS
 10
367.3519000235
 20
149.3486926749
  0
VERTEX
  8
0
 62
7
  6
CONTINUOUS
 10
367.2538410167
 20
157.8479346803
  0
VERTEX
  8
0
 62
7
  6
CONTINUOUS
 10
367.1072255483
 20
166.299002934
  0
VERTEX
  8
0
 62
7
  6
CONTINUOUS
 10
366.9078877747
 20
174.9554425995
  0
VERTEX
  8
0
 62
7
  6
CONTINUOUS
 10
366.7061169119
 20
182.1572433795
  0
SEQEND
  0
LINE
  8
0
 62
7
  6
CONTINUOUS
 10
374.9687122467
 20
518.4764659119
 11
374.9687122467
 21
375.730336097
  0
LINE
  8
0
 62
7
  6
CONTINUOUS
 10
367.245316018
 20
-33.9842493278
 11
367.4061596621
 21
132.7576607724
  0
LINE
  8
0
 62
7
  6
CONTINUOUS
 10
367.2567306645
 20
-33.9879884842
 11
367.4168198887
 21
132.7540453147
  0
POLYLINE
  8
0
 62
7
  6
CONTINUOUS
 66
1
 70
0
  0
VERTEX
  8
0
 62
7
  6
CONTINUOUS
 10
286.223623126
 20
-93.6975512364
  0
VERTEX
  8
0
 62
7
  6
CONTINUOUS
 10
285.9410784077
 20
-94.2840591042
  0
VERTEX
  8
0
 62
7
  6
CONTINUOUS
 10
285.6596515402
 20
-94.8598797318
  0
SEQEND
  0
POLYLINE
  8
0
 62
7
  6
CONTINUOUS
 66
1
 70
0
  0
VERTEX
  8
0
 62
7
  6
CONTINUOUS
 10
285.6596515402
 20
-94.8598797318
  0
VERTEX
  8
0
 62
7
  6
CONTINUOUS
 10
285.3793576392
 20
-95.4253704869
  0
VERTEX
  8
0
 62
7
  6
CONTINUOUS
 10
285.1001881024
 20
-95.9809128494
  0
VERTEX
  8
0
 62
7
  6
CONTINUOUS
 10
284.8221744392
 20
-96.5267867687
  0
VERTEX
  8
0
 62
7
  6
CONTINUOUS
 10
284.5453136937
 20
-97.0633212475
  0
VERTEX
  8
0
 62
7
  6
CONTINUOUS
 10
284.2696493695
 20
-97.590737713
  0
VERTEX
  8
0
 62
7
  6
CONTINUOUS
 10
283.9952035392
 20
-98.1092844866
  0
VERTEX
  8
0
 62
7
  6
CONTINUOUS
 10
283.7219958168
 20
-98.6192001919
  0
VERTEX
  8
0
 62
7
  6
CONTINUOUS
 10
283.4500379373
 20
-99.1207245133
  0
VERTEX
  8
0
 62
7
  6
CONTINUOUS
 10
283.1793367046
 20
-99.6140930239
  0
VERTEX
  8
0
 62
7
  6
CONTINUOUS
 10
282.9098919581
 20
-100.0995412852
  0
VERTEX
  8
0
 62
7
  6
CONTINUOUS
 10
282.641699735
 20
-100.5772995687
  0
VERTEX
  8
0
 62
7
  6
CONTINUOUS
 10
282.3747414672
 20
-101.0476125814
  0
VERTEX
  8
0
 62
7
  6
CONTINUOUS
 10
282.1090261581
 20
-101.5106654608
  0
VERTEX
  8
0
 62
7
  6
CONTINUOUS
 10
281.8445400705
 20
-101.9666732977
  0
VERTEX
  8
0
 62
7
  6
CONTINUOUS
 10
281.5813038236
 20
-102.4157828107
  0
VERTEX
  8
0
 62
7
  6
CONTINUOUS
 10
281.3193237299
 20
-102.8581577341
  0
VERTEX
  8
0
 62
7
  6
CONTINUOUS
 10
281.0586050889
 20
-103.293955957
  0
VERTEX
  8
0
 62
7
  6
CONTINUOUS
 10
280.7991486196
 20
-103.723335794
  0
VERTEX
  8
0
 62
7
  6
CONTINUOUS
 10
280.540951955
 20
-104.146453629
  0
VERTEX
  8
0
 62
7
  6
CONTINUOUS
 10
280.2840089396
 20
-104.5634652401
  0
VERTEX
  8
0
 62
7
  6
CONTINUOUS
 10
280.0283104364
 20
-104.9745246302
  0
VERTEX
  8
0
 62
7
  6
CONTINUOUS
 10
279.7738435039
 20
-105.3797855022
  0
VERTEX
  8
0
 62
7
  6
CONTINUOUS
 10
279.5205933175
 20
-105.7793983387
  0
VERTEX
  8
0
 62
7
  6
CONTINUOUS
 10
279.2685323506
 20
-106.1735274689
  0
VERTEX
  8
0
 62
7
  6
CONTINUOUS
 10
279.0176668405
 20
-106.5622788417
  0
VERTEX
  8
0
 62
7
  6
CONTINUOUS
 10
278.7679826091
 20
-106.9457855148
  0
VERTEX
  8
0
 62
7
  6
CONTINUOUS
 10
278.5194981293
 20
-107.3241260824
  0
VERTEX
  8
0
 62
7
  6
CONTINUOUS
 10
278.2722211257
 20
-107.6973922913
  0
VERTEX
  8
0
 62
7
  6
CONTINUOUS
 10
278.0261576342
 20
-108.0656750198
  0
VERTEX
  8
0
 62
7
  6
CONTINUOUS
 10
277.7813119204
 20
-108.4290644743
  0
VERTEX
  8
0
 62
7
  6
CONTINUOUS
 10
277.5376852272
 20
-108.7876524719
  0
VERTEX
  8
0
 62
7
  6
CONTINUOUS
 10
277.295274913
 20
-109.1415361488
  0
VERTEX
  8
0
 62
7
  6
CONTINUOUS
 10
277.0540749621
 20
-109.4908155365
  0
VERTEX
  8
0
 62
7
  6
CONTINUOUS
 10
276.8140781853
 20
-109.8355890558
  0
VERTEX
  8
0
 62
7
  6
CONTINUOUS
 10
276.5752753794
 20
-110.1759547894
  0
VERTEX
  8
0
 62
7
  6
CONTINUOUS
 10
276.3376545656
 20
-110.5120115882
  0
VERTEX
  8
0
 62
7
  6
CONTINUOUS
 10
276.101208365
 20
-110.8438487522
  0
VERTEX
  8
0
 62
7
  6
CONTINUOUS
 10
275.8659254804
 20
-111.1715582294
  0
VERTEX
  8
0
 62
7
  6
CONTINUOUS
 10
275.6317978974
 20
-111.4952246163
  0
VERTEX
  8
0
 62
7
  6
CONTINUOUS
 10
275.3988162878
 20
-111.8149317309
  0
VERTEX
  8
0
 62
7
  6
CONTINUOUS
 10
275.1669660958
 20
-112.1307679671
  0
VERTEX
  8
0
 62
7
  6
CONTINUOUS
 10
274.9362328632
 20
-112.4428189709
  0
VERTEX
  8
0
 62
7
  6
CONTINUOUS
 10
274.7065998342
 20
-112.7511709582
  0
VERTEX
  8
0
 62
7
  6
CONTINUOUS
 10
274.4780496208
 20
-113.0559084965
  0
VERTEX
  8
0
 62
7
  6
CONTINUOUS
 10
274.2505627472
 20
-113.3571164985
  0
VERTEX
  8
0
 62
7
  6
CONTINUOUS
 10
274.0241190569
 20
-113.6548783797
  0
VERTEX
  8
0
 62
7
  6
CONTINUOUS
 10
273.7986965091
 20
-113.9492776894
  0
VERTEX
  8
0
 62
7
  6
CONTINUOUS
 10
273.5742723343
 20
-114.2403966252
  0
VERTEX
  8
0
 62
7
  6
CONTINUOUS
 10
273.350822081
 20
-114.5283173148
  0
VERTEX
  8
0
 62
7
  6
CONTINUOUS
 10
273.1283196871
 20
-114.8131217379
  0
VERTEX
  8
0
 62
7
  6
CONTINUOUS
 10
272.9067409415
 20
-115.0948873554
  0
VERTEX
  8
0
 62
7
  6
CONTINUOUS
 10
272.686043139
 20
-115.3737128854
  0
VERTEX
  8
0
 62
7
  6
CONTINUOUS
 10
272.4662497985
 20
-115.649611629
  0
VERTEX
  8
0
 62
7
  6
CONTINUOUS
 10
272.2473534145
 20
-115.9226350995
  0
VERTEX
  8
0
 62
7
  6
CONTINUOUS
 10
272.0294019272
 20
-116.1927649853
  0
VERTEX
  8
0
 62
7
  6
CONTINUOUS
 10
271.8124293371
 20
-116.4600005194
  0
VERTEX
  8
0
 62
7
  6
CONTINUOUS
 10
271.5964720124
 20
-116.7243384245
  0
VERTEX
  8
0
 62
7
  6
CONTINUOUS
 10
271.381570305
 20
-116.9857715038
  0
VERTEX
  8
0
 62
7
  6
CONTINUOUS
 10
271.1677650184
 20
-117.2442921105
  0
VERTEX
  8
0
 62
7
  6
CONTINUOUS
 10
270.9550965938
 20
-117.4998929921
  0
VERTEX
  8
0
 62
7
  6
CONTINUOUS
 10
270.7436056261
 20
-117.7525666678
  0
VERTEX
  8
0
 62
7
  6
CONTINUOUS
 10
270.5333322138
 20
-118.0023062092
  0
VERTEX
  8
0
 62
7
  6
CONTINUOUS
 10
270.324316831
 20
-118.2491042013
  0
VERTEX
  8
0
 62
7
  6
CONTINUOUS
 10
270.116599132
 20
-118.4929541619
  0
VERTEX
  8
0
 62
7
  6
CONTINUOUS
 10
269.9102185849
 20
-118.7338498075
  0
VERTEX
  8
0
 62
7
  6
CONTINUOUS
 10
269.7052113028
 20
-118.9717887131
  0
VERTEX
  8
0
 62
7
  6
CONTINUOUS
 10
269.5016224871
 20
-119.2067578699
  0
SEQEND
  0
LINE
  8
0
 62
7
  6
CONTINUOUS
 10
367.4168198887
 20
132.7540453147
 11
367.4167554969
 21
132.754326198
  0
POLYLINE
  8
0
 62
7
  6
CONTINUOUS
 66
1
 70
0
  0
VERTEX
  8
0
 62
7
  6
CONTINUOUS
 10
362.3486552708
 20
-81.1160351327
  0
VERTEX
  8
0
 62
7
  6
CONTINUOUS
 10
363.6708447278
 20
-74.2953359209
  0
VERTEX
  8
0
 62
7
  6
CONTINUOUS
 10
364.9988067637
 20
-65.9706391821
  0
VERTEX
  8
0
 62
7
  6
CONTINUOUS
 10
366.0219737037
 20
-57.6047062577
  0
VERTEX
  8
0
 62
7
  6
CONTINUOUS
 10
366.7391115946
 20
-49.2086157103
  0
VERTEX
  8
0
 62
7
  6
CONTINUOUS
 10
367.1492762104
 20
-40.7931601642
  0
VERTEX
  8
0
 62
7
  6
CONTINUOUS
 10
367.2561890286
 20
-33.9878235359
  0
SEQEND
  0
POLYLINE
  8
0
 62
7
  6
CONTINUOUS
 66
1
 70
0
  0
VERTEX
  8
0
 62
7
  6
CONTINUOUS
 10
361.2172323033
 20
-80.8786864789
  0
VERTEX
  8
0
 62
7
  6
CONTINUOUS
 10
360.7912650849
 20
-82.8737730255
  0
VERTEX
  8
0
 62
7
  6
CONTINUOUS
 10
360.3525706933
 20
-84.8241789122
  0
VERTEX
  8
0
 62
7
  6
CONTINUOUS
 10
359.9014812705
 20
-86.7346739878
  0
VERTEX
  8
0
 62
7
  6
CONTINUOUS
 10
359.4424979264
 20
-88.5912910329
  0
VERTEX
  8
0
 62
7
  6
CONTINUOUS
 10
358.9828997783
 20
-90.3720139318
  0
VERTEX
  8
0
 62
7
  6
CONTINUOUS
 10
358.516821445
 20
-92.1064379272
  0
VERTEX
  8
0
 62
7
  6
CONTINUOUS
 10
358.038793036
 20
-93.818154669
  0
VERTEX
  8
0
 62
7
  6
CONTINUOUS
 10
357.5506844684
 20
-95.5021933796
  0
VERTEX
  8
0
 62
7
  6
CONTINUOUS
 10
357.0511501025
 20
-97.1648203405
  0
VERTEX
  8
0
 62
7
  6
CONTINUOUS
 10
356.5437963999
 20
-98.7958045387
  0
VERTEX
  8
0
 62
7
  6
CONTINUOUS
 10
356.035964217
 20
-100.3746218631
  0
VERTEX
  8
0
 62
7
  6
CONTINUOUS
 10
355.5164185979
 20
-101.9388784309
  0
VERTEX
  8
0
 62
7
  6
CONTINUOUS
 10
354.9737138154
 20
-103.522184442
  0
VERTEX
  8
0
 62
7
  6
CONTINUOUS
 10
354.4106955415
 20
-105.1143587182
  0
VERTEX
  8
0
 62
7
  6
CONTINUOUS
 10
353.826246456
 20
-106.7170946489
  0
VERTEX
  8
0
 62
7
  6
CONTINUOUS
 10
353.2205799108
 20
-108.3282362982
  0
VERTEX
  8
0
 62
7
  6
CONTINUOUS
 10
352.5954688414
 20
-109.9417837124
  0
VERTEX
  8
0
 62
7
  6
CONTINUOUS
 10
351.9453246817
 20
-111.5709677742
  0
VERTEX
  8
0
 62
7
  6
CONTINUOUS
 10
351.262137165
 20
-113.2331366046
  0
VERTEX
  8
0
 62
7
  6
CONTINUOUS
 10
350.5528933365
 20
-114.9090424548
  0
VERTEX
  8
0
 62
7
  6
CONTINUOUS
 10
349.8191394007
 20
-116.5936470706
  0
VERTEX
  8
0
 62
7
  6
CONTINUOUS
 10
349.0714797012
 20
-118.2625609522
  0
VERTEX
  8
0
 62
7
  6
CONTINUOUS
 10
348.3227593546
 20
-119.8890980462
  0
VERTEX
  8
0
 62
7
  6
CONTINUOUS
 10
347.5724590867
 20
-121.4772392374
  0
VERTEX
  8
0
 62
7
  6
CONTINUOUS
 10
346.8247528526
 20
-123.0210298067
  0
VERTEX
  8
0
 62
7
  6
CONTINUOUS
 10
346.0791780269
 20
-124.5241128847
  0
VERTEX
  8
0
 62
7
  6
CONTINUOUS
 10
345.3368577617
 20
-125.9868254942
  0
VERTEX
  8
0
 62
7
  6
CONTINUOUS
 10
344.5968316656
 20
-127.4130964117
  0
VERTEX
  8
0
 62
7
  6
CONTINUOUS
 10
343.8583543947
 20
-128.8061925211
  0
VERTEX
  8
0
 62
7
  6
CONTINUOUS
 10
343.1211800212
 20
-130.1681709626
  0
VERTEX
  8
0
 62
7
  6
CONTINUOUS
 10
342.3866219543
 20
-131.498106629
  0
VERTEX
  8
0
 62
7
  6
CONTINUOUS
 10
341.6487201845
 20
-132.8080071405
  0
VERTEX
  8
0
 62
7
  6
CONTINUOUS
 10
340.9022642119
 20
-134.1076433377
  0
VERTEX
  8
0
 62
7
  6
CONTINUOUS
 10
340.1445486869
 20
-135.4018565657
  0
VERTEX
  8
0
 62
7
  6
CONTINUOUS
 10
339.3693405181
 20
-136.7009670968
  0
VERTEX
  8
0
 62
7
  6
CONTINUOUS
 10
338.5807960257
 20
-137.997601028
  0
VERTEX
  8
0
 62
7
  6
CONTINUOUS
 10
337.7813797153
 20
-139.2876132437
  0
VERTEX
  8
0
 62
7
  6
CONTINUOUS
 10
336.9704994406
 20
-140.5719690374
  0
VERTEX
  8
0
 62
7
  6
CONTINUOUS
 10
336.1527479556
 20
-141.8435614941
  0
VERTEX
  8
0
 62
7
  6
CONTINUOUS
 10
335.3150819548
 20
-143.1224924182
  0
VERTEX
  8
0
 62
7
  6
CONTINUOUS
 10
334.4468094141
 20
-144.4238856017
  0
VERTEX
  8
0
 62
7
  6
CONTINUOUS
 10
333.5427347588
 20
-145.7537410935
  0
VERTEX
  8
0
 62
7
  6
CONTINUOUS
 10
332.590410647
 20
-147.1278477106
  0
VERTEX
  8
0
 62
7
  6
CONTINUOUS
 10
331.5989333882
 20
-148.5304961091
  0
VERTEX
  8
0
 62
7
  6
CONTINUOUS
 10
330.574219909
 20
-149.9514302637
  0
VERTEX
  8
0
 62
7
  6
CONTINUOUS
 10
329.5148265613
 20
-151.3909457971
  0
VERTEX
  8
0
 62
7
  6
CONTINUOUS
 10
328.4250688835
 20
-152.8416799169
  0
VERTEX
  8
0
 62
7
  6
CONTINUOUS
 10
327.2939366317
 20
-154.3164665559
  0
VERTEX
  8
0
 62
7
  6
CONTINUOUS
 10
326.1138456757
 20
-155.8226611003
  0
VERTEX
  8
0
 62
7
  6
CONTINUOUS
 10
324.8766852832
 20
-157.3674982449
  0
VERTEX
  8
0
 62
7
  6
CONTINUOUS
 10
323.5738828161
 20
-158.9579110667
  0
VERTEX
  8
0
 62
7
  6
CONTINUOUS
 10
322.1968650967
 20
-160.5999268369
  0
VERTEX
  8
0
 62
7
  6
CONTINUOUS
 10
320.7417933895
 20
-162.293202569
  0
VERTEX
  8
0
 62
7
  6
CONTINUOUS
 10
319.1833145246
 20
-164.0610927874
  0
VERTEX
  8
0
 62
7
  6
CONTINUOUS
 10
317.4970534595
 20
-165.9228908618
  0
VERTEX
  8
0
 62
7
  6
CONTINUOUS
 10
315.6693904298
 20
-167.8834983098
  0
VERTEX
  8
0
 62
7
  6
CONTINUOUS
 10
313.6766566668
 20
-169.9563215587
  0
VERTEX
  8
0
 62
7
  6
CONTINUOUS
 10
311.5188924395
 20
-172.1281373954
  0
SEQEND
  0
POLYLINE
  8
0
 62
7
  6
CONTINUOUS
 66
1
 70
0
  0
VERTEX
  8
0
 62
7
  6
CONTINUOUS
 10
364.9617501664
 20
365.7328231666
  0
VERTEX
  8
0
 62
7
  6
CONTINUOUS
 10
365.4096267037
 20
365.7428394553
  0
VERTEX
  8
0
 62
7
  6
CONTINUOUS
 10
366.0266067347
 20
365.7895746783
  0
VERTEX
  8
0
 62
7
  6
CONTINUOUS
 10
366.6394198996
 20
365.8742920822
  0
VERTEX
  8
0
 62
7
  6
CONTINUOUS
 10
367.2457376979
 20
365.9966519934
  0
VERTEX
  8
0
 62
7
  6
CONTINUOUS
 10
367.8432545939
 20
366.1561810261
  0
VERTEX
  8
0
 62
7
  6
CONTINUOUS
 10
368.4297021658
 20
366.3522522628
  0
VERTEX
  8
0
 62
7
  6
CONTINUOUS
 10
369.0028493312
 20
366.5841168512
  0
VERTEX
  8
0
 62
7
  6
CONTINUOUS
 10
369.5605164713
 20
366.8508854349
  0
VERTEX
  8
0
 62
7
  6
CONTINUOUS
 10
370.1005897864
 20
367.1515167518
  0
VERTEX
  8
0
 62
7
  6
CONTINUOUS
 10
370.6210074183
 20
367.484883701
  0
VERTEX
  8
0
 62
7
  6
CONTINUOUS
 10
371.1198040475
 20
367.8496887643
  0
VERTEX
  8
0
 62
7
  6
CONTINUOUS
 10
371.59507427
 20
368.244556609
  0
VERTEX
  8
0
 62
7
  6
CONTINUOUS
 10
372.045009848
 20
368.667980401
  0
VERTEX
  8
0
 62
7
  6
CONTINUOUS
 10
372.4679142308
 20
369.1183313498
  0
VERTEX
  8
0
 62
7
  6
CONTINUOUS
 10
372.8621683527
 20
369.5939013505
  0
VERTEX
  8
0
 62
7
  6
CONTINUOUS
 10
373.2262713019
 20
370.0928773502
  0
VERTEX
  8
0
 62
7
  6
CONTINUOUS
 10
373.558837669
 20
370.6133530657
  0
VERTEX
  8
0
 62
7
  6
CONTINUOUS
 10
373.858606633
 20
371.1533423613
  0
VERTEX
  8
0
 62
7
  6
CONTINUOUS
 10
374.1244241249
 20
371.7107916027
  0
VERTEX
  8
0
 62
7
  6
CONTINUOUS
 10
374.3552944365
 20
372.2835691471
  0
VERTEX
  8
0
 62
7
  6
CONTINUOUS
 10
374.5503362702
 20
372.8694918849
  0
VERTEX
  8
0
 62
7
  6
CONTINUOUS
 10
374.7087984446
 20
373.4663298561
  0
VERTEX
  8
0
 62
7
  6
CONTINUOUS
 10
374.8300797519
 20
374.0718047354
  0
SEQEND
  0
LINE
  8
0
 62
7
  6
CONTINUOUS
 10
364.9617501662
 20
365.7328232634
 11
7.1036585984
 21
365.7328232634
  0
LINE
  8
0
 62
7
  6
CONTINUOUS
 10
187.2985402608
 20
436.2338322189
 11
194.6937700539
 21
428.8386024259
  0
LINE
  8
0
 62
7
  6
CONTINUOUS
 10
194.9380083557
 20
429.3014709053
 11
187.651677753
 21
436.5878015079
  0
POLYLINE
  8
0
 62
7
  6
CONTINUOUS
 66
1
 70
0
  0
VERTEX
  8
0
 62
7
  6
CONTINUOUS
 10
355.6796936298
 20
-106.1293614091
  0
VERTEX
  8
0
 62
7
  6
CONTINUOUS
 10
355.7245976809
 20
-105.9755071851
  0
VERTEX
  8
0
 62
7
  6
CONTINUOUS
 10
355.7687587512
 20
-105.818120755
  0
VERTEX
  8
0
 62
7
  6
CONTINUOUS
 10
355.8128583993
 20
-105.6566473891
  0
VERTEX
  8
0
 62
7
  6
CONTINUOUS
 10
355.8578403381
 20
-105.4896721333
  0
VERTEX
  8
0
 62
7
  6
CONTINUOUS
 10
355.9043920409
 20
-105.3161505082
  0
VERTEX
  8
0
 62
7
  6
CONTINUOUS
 10
355.9532702735
 20
-105.1342068817
  0
VERTEX
  8
0
 62
7
  6
CONTINUOUS
 10
356.0051800634
 20
-104.9415740936
  0
VERTEX
  8
0
 62
7
  6
CONTINUOUS
 10
356.06018393
 20
-104.7381761808
  0
VERTEX
  8
0
 62
7
  6
CONTINUOUS
 10
356.1183548378
 20
-104.5236599014
  0
VERTEX
  8
0
 62
7
  6
CONTINUOUS
 10
356.1800027947
 20
-104.2965049627
  0
VERTEX
  8
0
 62
7
  6
CONTINUOUS
 10
356.2451760896
 20
-104.0561489683
  0
VERTEX
  8
0
 62
7
  6
CONTINUOUS
 10
356.3146272654
 20
-103.7993515321
  0
VERTEX
  8
0
 62
7
  6
CONTINUOUS
 10
356.3891126921
 20
-103.5228038983
  0
VERTEX
  8
0
 62
7
  6
CONTINUOUS
 10
356.4686008614
 20
-103.2261334696
  0
VERTEX
  8
0
 62
7
  6
CONTINUOUS
 10
356.5529917009
 20
-102.9093035801
  0
VERTEX
  8
0
 62
7
  6
CONTINUOUS
 10
356.6433267378
 20
-102.5680251896
  0
VERTEX
  8
0
 62
7
  6
CONTINUOUS
 10
356.7397269451
 20
-102.2015220974
  0
VERTEX
  8
0
 62
7
  6
CONTINUOUS
 10
356.8448836625
 20
-101.7992343787
  0
VERTEX
  8
0
 62
7
  6
CONTINUOUS
 10
356.9607758103
 20
-101.3531201148
  0
VERTEX
  8
0
 62
7
  6
CONTINUOUS
 10
357.0894471264
 20
-100.8547810217
  0
VERTEX
  8
0
 62
7
  6
CONTINUOUS
 10
357.2315259884
 20
-100.3009838457
  0
VERTEX
  8
0
 62
7
  6
CONTINUOUS
 10
357.3927613333
 20
-99.6680442605
  0
VERTEX
  8
0
 62
7
  6
CONTINUOUS
 10
357.5757522236
 20
-98.9435141071
  0
VERTEX
  8
0
 62
7
  6
CONTINUOUS
 10
357.7889298272
 20
-98.0900466285
  0
VERTEX
  8
0
 62
7
  6
CONTINUOUS
 10
357.8113942428
 20
-97.9987018874
  0
SEQEND
  0
LINE
  8
0
 62
7
  6
CONTINUOUS
 10
355.6707308352
 20
-106.1592887526
 11
355.6796936298
 21
-106.1293614091
  0
POLYLINE
  8
0
 62
7
  6
CONTINUOUS
 66
1
 70
0
  0
VERTEX
  8
0
 62
7
  6
CONTINUOUS
 10
269.5016224871
 20
-119.2067578699
  0
VERTEX
  8
0
 62
7
  6
CONTINUOUS
 10
269.2994946864
 20
-119.4387473494
  0
VERTEX
  8
0
 62
7
  6
CONTINUOUS
 10
269.0988716634
 20
-119.6677456636
  0
VERTEX
  8
0
 62
7
  6
CONTINUOUS
 10
268.8998024632
 20
-119.893735374
  0
VERTEX
  8
0
 62
7
  6
CONTINUOUS
 10
268.7023135951
 20
-120.1167246249
  0
VERTEX
  8
0
 62
7
  6
CONTINUOUS
 10
268.5064413574
 20
-120.3367100955
  0
VERTEX
  8
0
 62
7
  6
CONTINUOUS
 10
268.3122040265
 20
-120.5537071316
  0
SEQEND
  0
POLYLINE
  8
0
 62
7
  6
CONTINUOUS
 66
1
 70
0
  0
VERTEX
  8
0
 62
7
  6
CONTINUOUS
 10
268.3122040265
 20
-120.5537071316
  0
VERTEX
  8
0
 62
7
  6
CONTINUOUS
 10
268.1196236895
 20
-120.7677259287
  0
VERTEX
  8
0
 62
7
  6
CONTINUOUS
 10
267.9287232526
 20
-120.9787757223
  0
VERTEX
  8
0
 62
7
  6
CONTINUOUS
 10
267.7395167794
 20
-121.1868757965
  0
VERTEX
  8
0
 62
7
  6
CONTINUOUS
 10
267.5520567692
 20
-121.3920120555
  0
VERTEX
  8
0
 62
7
  6
CONTINUOUS
 10
267.3663893747
 20
-121.5941848747
  0
VERTEX
  8
0
 62
7
  6
CONTINUOUS
 10
267.182552867
 20
-121.7933756123
  0
SEQEND
  0
POLYLINE
  8
0
 62
7
  6
CONTINUOUS
 66
1
 70
0
  0
VERTEX
  8
0
 62
7
  6
CONTINUOUS
 10
267.182552867
 20
-121.7933756123
  0
VERTEX
  8
0
 62
7
  6
CONTINUOUS
 10
267.0001729325
 20
-121.989966739
  0
VERTEX
  8
0
 62
7
  6
CONTINUOUS
 10
266.8204548279
 20
-122.1826896427
  0
VERTEX
  8
0
 62
7
  6
CONTINUOUS
 10
266.643424763
 20
-122.3717183221
  0
SEQEND
  0
POLYLINE
  8
0
 62
7
  6
CONTINUOUS
 66
1
 70
0
  0
VERTEX
  8
0
 62
7
  6
CONTINUOUS
 10
266.643424763
 20
-122.3717183221
  0
VERTEX
  8
0
 62
7
  6
CONTINUOUS
 10
266.3129232669
 20
-122.723495951
  0
VERTEX
  8
0
 62
7
  6
CONTINUOUS
 10
266.1609909223
 20
-122.8848844769
  0
VERTEX
  8
0
 62
7
  6
CONTINUOUS
 10
266.0173607384
 20
-123.0360338762
  0
VERTEX
  8
0
 62
7
  6
CONTINUOUS
 10
265.8736872525
 20
-123.1852113054
  0
VERTEX
  8
0
 62
7
  6
CONTINUOUS
 10
265.7195272017
 20
-123.3431296734
  0
VERTEX
  8
0
 62
7
  6
CONTINUOUS
 10
265.5627747545
 20
-123.5021496941
  0
VERTEX
  8
0
 62
7
  6
CONTINUOUS
 10
265.4042666564
 20
-123.662744314
  0
SEQEND
  0
LINE
  8
0
 62
7
  6
CONTINUOUS
 10
266.3297041526
 20
-122.7107083206
 11
266.5250067818
 21
-122.5048743424
  0
LINE
  8
0
 62
7
  6
CONTINUOUS
 10
266.13357083
 20
-122.9164268722
 11
266.3297041526
 21
-122.7107083206
  0
LINE
  8
0
 62
7
  6
CONTINUOUS
 10
265.9476863368
 20
-123.1104834944
 11
266.13357083
 21
-122.9164268722
  0
LINE
  8
0
 62
7
  6
CONTINUOUS
 10
265.4042666564
 20
-123.662744314
 11
265.2954915101
 21
-123.7737621566
  0
POLYLINE
  8
0
 62
7
  6
CONTINUOUS
 66
1
 70
0
  0
VERTEX
  8
0
 62
7
  6
CONTINUOUS
 10
265.3078824353
 20
-123.7627727389
  0
VERTEX
  8
0
 62
7
  6
CONTINUOUS
 10
264.8855907347
 20
-124.1934632719
  0
VERTEX
  8
0
 62
7
  6
CONTINUOUS
 10
263.2539962977
 20
-125.8132813116
  0
VERTEX
  8
0
 62
7
  6
CONTINUOUS
 10
261.4268920674
 20
-127.5492314819
  0
VERTEX
  8
0
 62
7
  6
CONTINUOUS
 10
259.3279438775
 20
-129.4471613053
  0
VERTEX
  8
0
 62
7
  6
CONTINUOUS
 10
256.9291804655
 20
-131.49889411
  0
VERTEX
  8
0
 62
7
  6
CONTINUOUS
 10
254.070838627
 20
-133.7922423095
  0
VERTEX
  8
0
 62
7
  6
CONTINUOUS
 10
250.7193930849
 20
-136.2875754164
  0
VERTEX
  8
0
 62
7
  6
CONTINUOUS
 10
246.3795598765
 20
-139.2393533348
  0
VERTEX
  8
0
 62
7
  6
CONTINUOUS
 10
240.43921469
 20
-142.8222605217
  0
VERTEX
  8
0
 62
7
  6
CONTINUOUS
 10
236.5092869115
 20
-144.9270953308
  0
SEQEND
  0
POLYLINE
  8
0
 62
7
  6
CONTINUOUS
 66
1
 70
0
  0
VERTEX
  8
0
 62
7
  6
CONTINUOUS
 10
227.2406365386
 20
-149.1703100236
  0
VERTEX
  8
0
 62
7
  6
CONTINUOUS
 10
234.3221229419
 20
-146.0259181987
  0
VERTEX
  8
0
 62
7
  6
CONTINUOUS
 10
236.5131114277
 20
-144.9345698766
  0
SEQEND
  0
LINE
  8
0
 62
7
  6
CONTINUOUS
 10
327.7349172933
 20
-155.527394053
 11
327.734957591
 21
-155.5273515231
  0
POLYLINE
  8
0
 62
7
  6
CONTINUOUS
 66
1
 70
0
  0
VERTEX
  8
0
 62
7
  6
CONTINUOUS
 10
7.1036266646
 20
528.4764658288
  0
VERTEX
  8
0
 62
7
  6
CONTINUOUS
 10
6.6750215556
 20
528.4671759052
  0
VERTEX
  8
0
 62
7
  6
CONTINUOUS
 10
6.0577466937
 20
528.4214428372
  0
VERTEX
  8
0
 62
7
  6
CONTINUOUS
 10
5.4445291463
 20
528.3376883763
  0
VERTEX
  8
0
 62
7
  6
CONTINUOUS
 10
4.8377137552
 20
528.2162396474
  0
VERTEX
  8
0
 62
7
  6
CONTINUOUS
 10
4.2396145656
 20
528.0575721253
  0
VERTEX
  8
0
 62
7
  6
CONTINUOUS
 10
3.652510863
 20
527.8623109112
  0
VERTEX
  8
0
 62
7
  6
CONTINUOUS
 10
3.0786486602
 20
527.6311886914
  0
VERTEX
  8
0
 62
7
  6
CONTINUOUS
 10
2.5202137424
 20
527.3651077161
  0
VERTEX
  8
0
 62
7
  6
CONTINUOUS
 10
1.9793374215
 20
527.0650917877
  0
VERTEX
  8
0
 62
7
  6
CONTINUOUS
 10
1.4580823813
 20
526.7322902194
  0
VERTEX
  8
0
 62
7
  6
CONTINUOUS
 10
0.9584381779
 20
526.3679789821
  0
VERTEX
  8
0
 62
7
  6
CONTINUOUS
 10
0.482294919
 20
525.9735709365
  0
VERTEX
  8
0
 62
7
  6
CONTINUOUS
 10
0.031479907
 20
525.5505596106
  0
VERTEX
  8
0
 62
7
  6
CONTINUOUS
 10
-0.3922901846
 20
525.1005696809
  0
VERTEX
  8
0
 62
7
  6
CONTINUOUS
 10
-0.7874155162
 20
524.6253393188
  0
VERTEX
  8
0
 62
7
  6
CONTINUOUS
 10
-1.152375109
 20
524.1266772163
  0
VERTEX
  8
0
 62
7
  6
CONTINUOUS
 10
-1.4857966611
 20
523.6065113427
  0
VERTEX
  8
0
 62
7
  6
CONTINUOUS
 10
-1.7864105481
 20
523.0668171748
  0
VERTEX
  8
0
 62
7
  6
CONTINUOUS
 10
-2.0530751204
 20
522.5096601587
  0
VERTEX
  8
0
 62
7
  6
CONTINUOUS
 10
-2.2848007323
 20
521.9371520838
  0
VERTEX
  8
0
 62
7
  6
CONTINUOUS
 10
-2.4807039891
 20
521.351459395
  0
VERTEX
  8
0
 62
7
  6
CONTINUOUS
 10
-2.6400508889
 20
520.7548023127
  0
VERTEX
  8
0
 62
7
  6
CONTINUOUS
 10
-2.7622324077
 20
520.14943967
  0
VERTEX
  8
0
 62
7
  6
CONTINUOUS
 10
-2.8467801247
 20
519.5376629962
  0
VERTEX
  8
0
 62
7
  6
CONTINUOUS
 10
-2.8933740987
 20
518.9217775484
  0
VERTEX
  8
0
 62
7
  6
CONTINUOUS
 10
-2.903303326
 20
518.4764659119
  0
SEQEND
  0
LINE
  8
0
 62
7
  6
CONTINUOUS
 10
4.7143311404
 20
528.4764659119
 11
364.9590721234
 21
528.4764659119
  0
LINE
  8
0
 62
7
  6
CONTINUOUS
 10
364.9590721234
 20
528.4764659119
 11
367.3510776071
 21
528.4764659119
  0
ARC
  8
0
 62
7
  6
CONTINUOUS
 10
184.6938183533
 20
23.8288800762
 40
113.3
 50
359.1501029995
 51
5.8812643337
  0
ARC
  8
0
 62
7
  6
CONTINUOUS
 10
187.3715904114
 20
23.8288800762
 40
113.3
 50
174.1187344754
 51
180.8503961919
  0
ARC
  8
0
 62
7
  6
CONTINUOUS
 10
186.0327043823
 20
-46.1990388873
 40
110.9219135942
 50
204.3959389121
 51
223.4705818817
  0
ARC
  8
0
 62
7
  6
CONTINUOUS
 10
186.0327043823
 20
-46.1990388873
 40
110.9219135942
 50
316.5294181183
 51
335.6040610879
  0
ARC
  8
0
 62
7
  6
CONTINUOUS
 10
186.0327043823
 20
448.4764659119
 40
21.462985367
 50
66.2006451423
 51
293.7993548577
  0
ARC
  8
0
 62
7
  6
CONTINUOUS
 10
186.0327043823
 20
448.4764659119
 40
21.1420168659
 50
293.4615672859
 51
66.5384327141
  0
ARC
  8
0
 62
7
  6
CONTINUOUS
 10
186.0327043823
 20
448.4764659119
 40
18.624232976
 50
69.6299755874
 51
290.3700244126
  0
ARC
  8
0
 62
7
  6
CONTINUOUS
 10
186.0327043823
 20
448.4764659119
 40
18.5087010099
 50
291.8996949002
 51
68.1004275185
  0
ARC
  8
0
 62
7
  6
CONTINUOUS
 10
4.7143099575
 20
523.4764659119
 40
5.0
 50
90.0
 51
152.4724230917
  0
ARC
  8
0
 62
7
  6
CONTINUOUS
 10
367.3510988072
 20
523.4764659119
 40
5.0
 50
27.527638478
 51
90.0
  0
ARC
  8
0
 62
7
  6
CONTINUOUS
 10
189.7729980965
 20
458.2438099724
 40
3.5
 50
135.0
 51
180.0
  0
ARC
  8
0
 62
7
  6
CONTINUOUS
 10
189.7729980965
 20
438.7091218515
 40
3.5
 50
179.9967658328
 51
225.0096284608
  0
ARC
  8
0
 62
7
  6
CONTINUOUS
 10
189.7729980965
 20
438.7091218515
 40
3.0
 50
180.0
 51
225.0
  0
ARC
  8
0
 62
7
  6
CONTINUOUS
 10
189.7729980965
 20
458.2438099724
 40
3.0
 50
135.0
 51
180.0
  0
ENDSEC
  0
EOF
