999
DXF file: K:\Client\125_Heirloom\001\00\Final_Data\Drawings\TOILETS\sentinel-374124d_4.dxf
999
Pro/ENGINEER 2017110 by Parametric Technology Corporation
  0
SECTION
  2
HEADER
  9
$EXTMAX
 10
420.0
 20
297.0
 30
0.0
  9
$EXTMIN
 10
0.0
 20
0.0
 30
0.0
  9
$LIMMIN
 10
0.0
 20
0.0
  9
$LIMMAX
 10
420.0
 20
297.0
  9
$VIEWCTR
 10
210.0
 20
148.5
  9
$VIEWSIZE
 40
297.0
  9
$CLAYER
  8
0
  9
$LTSCALE
 40
23.1
  9
$CELTYPE
  6
BYLAYER
  9
$DIMSCALE
 40
1.0
  9
$DIMASZ
 40
3.0
  9
$DIMEXO
 40
1.0
  9
$DIMDLI
 40
15.96
  9
$DIMEXE
 40
1.0
  9
$DIMCEN
 40
3.78
  9
$DIMLFAC
 40
1.0
  9
$DIMBLK
  1
_FILLED
  9
$DIMALT
 70
0
  9
$DIMALTF
 40
0.0393700787
  9
$DIMTXT
 40
3.0
  9
$AUNITS
 70
0
  9
$PDMODE
 70
3
  9
$PDSIZE
 40
5.0
  9
$TILEMODE
 70
1
  0
ENDSEC
  0
SECTION
  2
TABLES
  0
TABLE
  2
LTYPE
 70
6
  0
LTYPE
  2
BYBLOCK
 70
0
  3

 72
65
 73
0
 40
0.0
  0
LTYPE
  2
BYLAYER
 70
0
  3

 72
65
 73
0
 40
0.0
  0
LTYPE
  2
CONTINUOUS
 70
64
  3
Solid line
 72
65
 73
0
 40
0.0
  0
LTYPE
  2
CENTER
 70
64
  3
____ _ ____ _ ____ _ ____ _ ____ _ ____ _ ____
 72
65
 73
4
 40
0.6
 49
0.375
 49
-0.075
 49
0.075
 49
-0.075
  0
LTYPE
  2
HIDDEN
 70
64
  3
- - - - - - - - - - - - - - - - - - - -
 72
65
 73
2
 40
0.2
 49
0.1
 49
-0.1
  0
LTYPE
  2
PHANTOM
 70
64
  3
_____ _ _ _____ _ _ _____ _ _ _____
 72
65
 73
6
 40
0.8
 49
0.45
 49
-0.05
 49
0.1
 49
-0.05
 49
0.1
 49
-0.05
  0
LTYPE
  2
DOT
 70
64
  3
. . . . . . . . . . . . . . . . . . . .
 72
65
 73
2
 40
0.2
 49
0.1
 49
-0.1
  0
LTYPE
  2
DASHED
 70
64
  3
- - - - - - - - - - - - - - - - - - - -
 72
65
 73
2
 40
0.2
 49
0.1
 49
-0.1
  0
ENDTAB
  0
TABLE
  2
LAYER
 70
36
  0
LAYER
  2
0
 70
0
 62
7
  6
CONTINUOUS
  0
LAYER
  2
DEFAULT_1
 70
0
 62
7
  6
CENTER
  0
LAYER
  2
DEFAULT_2
 70
0
 62
8
  6
HIDDEN
  0
LAYER
  2
DEFAULT_3
 70
0
 62
7
  6
PHANTOM
  0
LAYER
  2
0000_BOM
 70
0
 62
7
  6
CONTINUOUS
  0
LAYER
  2
0000_REV_TABLE
 70
0
 62
7
  6
CONTINUOUS
  0
LAYER
  2
0000_STEVENS_NOTE
 70
0
 62
7
  6
CONTINUOUS
  0
LAYER
  2
01_DATUM_PLANES
 70
0
 62
7
  6
CONTINUOUS
  0
LAYER
  2
01_DEF_PLANES
 70
0
 62
7
  6
CONTINUOUS
  0
LAYER
  2
02_DATUM_COS
 70
0
 62
7
  6
CONTINUOUS
  0
LAYER
  2
90_IMP_FEAT
 70
0
 62
7
  6
CONTINUOUS
  0
LAYER
  2
95_STL
 70
0
 62
7
  6
CONTINUOUS
  0
LAYER
  2
99_SOLID
 70
0
 62
7
  6
CONTINUOUS
  0
LAYER
  2
CAD-MASTER_ZINC-PL
 70
0
 62
7
  6
CONTINUOUS
  0
LAYER
  2
CURVE
 70
0
 62
7
  6
CONTINUOUS
  0
LAYER
  2
SHELL
 70
0
 62
7
  6
CONTINUOUS
  0
LAYER
  2
SKEL
 70
0
 62
7
  6
CONTINUOUS
  0
LAYER
  2
SKETCH
 70
0
 62
7
  6
CONTINUOUS
  0
LAYER
  2
SURFACE
 70
0
 62
7
  6
CONTINUOUS
  0
ENDTAB
  0
TABLE
  2
STYLE
 70
1
  0
STYLE
  2
STANDARD
 70
0
 40
0.0
 41
0.75
 50
0.0
 71
0
 42
0.2
  3
txt
  4

  0
STYLE
  2
TEXTSTYLE_1
 70
0
 40
0.0
 41
0.8
 50
0.0
 71
0
 42
0.2
  3
gdt
  4

  0
ENDTAB
  0
ENDSEC
  0
SECTION
  2
BLOCKS
  0
BLOCK
  8
0
 62
1
  6
CONTINUOUS
  2
PLUMBING_BL1
 70
64
 10
182.8150684944
 20
-83.4219052295
  0
CIRCLE
  8
0
 62
1
  6
CONTINUOUS
 10
182.8150684944
 20
-83.4219052295
 40
12.5
  0
LINE
  8
0
 62
1
  6
CONTINUOUS
 10
195.3150684944
 20
-70.9219052295
 11
170.3150684944
 21
-95.9219052295
  0
LINE
  8
0
 62
1
  6
CONTINUOUS
 10
182.8150684944
 20
-83.4219052295
 11
170.3150684944
 21
-70.9219052295
  0
LINE
  8
0
 62
1
  6
CONTINUOUS
 10
182.8150684944
 20
-83.4219052295
 11
195.3150684944
 21
-95.9219052295
  0
ENDBLK
  8
0
  6
BYBLOCK
 62
0
  0
BLOCK
  8
0
 62
5
  6
CONTINUOUS
  2
PLUMBING_BL0
 70
64
 10
182.8150684944
 20
-268.4219052295
  0
CIRCLE
  8
0
 62
5
  6
CONTINUOUS
 10
182.8150684944
 20
-268.4219052295
 40
12.5
  0
LINE
  8
0
 62
5
  6
CONTINUOUS
 10
195.3150684944
 20
-255.9219052295
 11
170.3150684944
 21
-280.9219052295
  0
LINE
  8
0
 62
5
  6
CONTINUOUS
 10
182.8150684944
 20
-268.4219052295
 11
170.3150684944
 21
-255.9219052295
  0
LINE
  8
0
 62
5
  6
CONTINUOUS
 10
182.8150684944
 20
-268.4219052295
 11
195.3150684944
 21
-280.9219052295
  0
ENDBLK
  8
0
  6
BYBLOCK
 62
0
  0
ENDSEC
  0
SECTION
  2
ENTITIES
  0
INSERT
  8
0
 62
5
  6
CONTINUOUS
  2
PLUMBING_BL0
 10
182.8150684944
 20
-268.4219052295
  0
INSERT
  8
0
 62
1
  6
CONTINUOUS
  2
PLUMBING_BL1
 10
182.8150684944
 20
-83.4219052295
  0
POLYLINE
  8
0
 62
7
  6
CONTINUOUS
 66
1
 70
0
  0
VERTEX
  8
0
 62
7
  6
CONTINUOUS
 10
29.3901131343
 20
-264.1031959503
  0
VERTEX
  8
0
 62
7
  6
CONTINUOUS
 10
28.7363736767
 20
-259.3311210552
  0
VERTEX
  8
0
 62
7
  6
CONTINUOUS
 10
28.0671524598
 20
-254.4033827405
  0
VERTEX
  8
0
 62
7
  6
CONTINUOUS
 10
27.3324134982
 20
-248.940995266
  0
VERTEX
  8
0
 62
7
  6
CONTINUOUS
 10
26.4999695523
 20
-242.6824582356
  0
VERTEX
  8
0
 62
7
  6
CONTINUOUS
 10
25.6147258772
 20
-235.9404749261
  0
VERTEX
  8
0
 62
7
  6
CONTINUOUS
 10
24.7035353826
 20
-228.9012521888
  0
VERTEX
  8
0
 62
7
  6
CONTINUOUS
 10
23.750430825
 20
-221.421884811
  0
VERTEX
  8
0
 62
7
  6
CONTINUOUS
 10
22.7009460312
 20
-213.0370858354
  0
VERTEX
  8
0
 62
7
  6
CONTINUOUS
 10
21.5583173114
 20
-203.7144212922
  0
VERTEX
  8
0
 62
7
  6
CONTINUOUS
 10
20.311362972
 20
-193.2906842915
  0
VERTEX
  8
0
 62
7
  6
CONTINUOUS
 10
18.9257506433
 20
-181.3735192142
  0
VERTEX
  8
0
 62
7
  6
CONTINUOUS
 10
17.3910245324
 20
-167.7177817888
  0
VERTEX
  8
0
 62
7
  6
CONTINUOUS
 10
15.7232093479
 20
-152.2625945784
  0
VERTEX
  8
0
 62
7
  6
CONTINUOUS
 10
13.9262334951
 20
-134.7884251711
  0
VERTEX
  8
0
 62
7
  6
CONTINUOUS
 10
12.1395452454
 20
-116.4378719477
  0
VERTEX
  8
0
 62
7
  6
CONTINUOUS
 10
10.6381241315
 20
-100.1405159745
  0
VERTEX
  8
0
 62
7
  6
CONTINUOUS
 10
9.2955726989
 20
-84.7790193168
  0
VERTEX
  8
0
 62
7
  6
CONTINUOUS
 10
8.0194009639
 20
-69.3793152651
  0
VERTEX
  8
0
 62
7
  6
CONTINUOUS
 10
6.7264367636
 20
-52.8545422038
  0
VERTEX
  8
0
 62
7
  6
CONTINUOUS
 10
5.3587411304
 20
-34.175059873
  0
VERTEX
  8
0
 62
7
  6
CONTINUOUS
 10
4.1689296872
 20
-16.7012680628
  0
VERTEX
  8
0
 62
7
  6
CONTINUOUS
 10
3.1942254323
 20
-1.3385968934
  0
VERTEX
  8
0
 62
7
  6
CONTINUOUS
 10
2.3947978364
 20
12.125793384
  0
VERTEX
  8
0
 62
7
  6
CONTINUOUS
 10
1.7435787645
 20
23.8015788331
  0
VERTEX
  8
0
 62
7
  6
CONTINUOUS
 10
1.2098022611
 20
33.9529288518
  0
VERTEX
  8
0
 62
7
  6
CONTINUOUS
 10
0.7519604258
 20
43.1662383183
  0
VERTEX
  8
0
 62
7
  6
CONTINUOUS
 10
0.3489436224
 20
51.7421194551
  0
VERTEX
  8
0
 62
7
  6
CONTINUOUS
 10
-0.008781908
 20
59.7933602243
  0
VERTEX
  8
0
 62
7
  6
CONTINUOUS
 10
-0.3295433845
 20
67.4376409644
  0
VERTEX
  8
0
 62
7
  6
CONTINUOUS
 10
-0.6184486496
 20
74.7464951414
  0
VERTEX
  8
0
 62
7
  6
CONTINUOUS
 10
-0.8790881834
 20
81.7682388901
  0
VERTEX
  8
0
 62
7
  6
CONTINUOUS
 10
-1.1154561498
 20
88.5757088211
  0
VERTEX
  8
0
 62
7
  6
CONTINUOUS
 10
-1.3291321814
 20
95.1852422441
  0
VERTEX
  8
0
 62
7
  6
CONTINUOUS
 10
-1.52202847
 20
101.6289062974
  0
VERTEX
  8
0
 62
7
  6
CONTINUOUS
 10
-1.6957627021
 20
107.93801737
  0
VERTEX
  8
0
 62
7
  6
CONTINUOUS
 10
-1.8512961397
 20
114.1278683704
  0
VERTEX
  8
0
 62
7
  6
CONTINUOUS
 10
-1.98925487
 20
120.2078467496
  0
VERTEX
  8
0
 62
7
  6
CONTINUOUS
 10
-2.1102428508
 20
126.1983680054
  0
VERTEX
  8
0
 62
7
  6
CONTINUOUS
 10
-2.2148452504
 20
132.1298502708
  0
VERTEX
  8
0
 62
7
  6
CONTINUOUS
 10
-2.3024495416
 20
137.9656434898
  0
VERTEX
  8
0
 62
7
  6
CONTINUOUS
 10
-2.3732106053
 20
143.7001216223
  0
VERTEX
  8
0
 62
7
  6
CONTINUOUS
 10
-2.4291762647
 20
149.5460552697
  0
VERTEX
  8
0
 62
7
  6
CONTINUOUS
 10
-2.4669627446
 20
155.1435486545
  0
VERTEX
  8
0
 62
7
  6
CONTINUOUS
 10
-2.4869538647
 20
160.0376705761
  0
VERTEX
  8
0
 62
7
  6
CONTINUOUS
 10
-2.4943122386
 20
164.5517742234
  0
SEQEND
  0
POLYLINE
  8
0
 62
7
  6
CONTINUOUS
 66
1
 70
0
  0
VERTEX
  8
0
 62
7
  6
CONTINUOUS
 10
368.1244492245
 20
164.5517637278
  0
VERTEX
  8
0
 62
7
  6
CONTINUOUS
 10
368.1237259719
 20
163.5277121225
  0
VERTEX
  8
0
 62
7
  6
CONTINUOUS
 10
368.1224646157
 20
162.5164460327
  0
VERTEX
  8
0
 62
7
  6
CONTINUOUS
 10
368.1206781896
 20
161.5129023796
  0
VERTEX
  8
0
 62
7
  6
CONTINUOUS
 10
368.1183699144
 20
160.5124903624
  0
VERTEX
  8
0
 62
7
  6
CONTINUOUS
 10
368.1155375611
 20
159.5120124961
  0
VERTEX
  8
0
 62
7
  6
CONTINUOUS
 10
368.1121562967
 20
158.5038715664
  0
VERTEX
  8
0
 62
7
  6
CONTINUOUS
 10
368.1081703489
 20
157.4768386834
  0
VERTEX
  8
0
 62
7
  6
CONTINUOUS
 10
368.1034997337
 20
156.4196333582
  0
VERTEX
  8
0
 62
7
  6
CONTINUOUS
 10
368.0980740735
 20
155.3275977647
  0
VERTEX
  8
0
 62
7
  6
CONTINUOUS
 10
368.0918478747
 20
154.2023205215
  0
VERTEX
  8
0
 62
7
  6
CONTINUOUS
 10
368.0847829428
 20
153.0461295764
  0
VERTEX
  8
0
 62
7
  6
CONTINUOUS
 10
368.0768791676
 20
151.8661425496
  0
VERTEX
  8
0
 62
7
  6
CONTINUOUS
 10
368.0681696072
 20
150.6716892158
  0
VERTEX
  8
0
 62
7
  6
CONTINUOUS
 10
368.0587104801
 20
149.4722261281
  0
VERTEX
  8
0
 62
7
  6
CONTINUOUS
 10
368.0485704591
 20
148.276061949
  0
VERTEX
  8
0
 62
7
  6
CONTINUOUS
 10
368.0377879985
 20
147.0861866791
  0
VERTEX
  8
0
 62
7
  6
CONTINUOUS
 10
368.0263945845
 20
145.9042045801
  0
VERTEX
  8
0
 62
7
  6
CONTINUOUS
 10
368.0144273411
 20
144.7319300963
  0
VERTEX
  8
0
 62
7
  6
CONTINUOUS
 10
368.0019141837
 20
143.5700023561
  0
VERTEX
  8
0
 62
7
  6
CONTINUOUS
 10
367.988837182
 20
142.4150163084
  0
VERTEX
  8
0
 62
7
  6
CONTINUOUS
 10
367.9751614093
 20
141.2628058766
  0
VERTEX
  8
0
 62
7
  6
CONTINUOUS
 10
367.9608512166
 20
140.1098729634
  0
VERTEX
  8
0
 62
7
  6
CONTINUOUS
 10
367.9458800089
 20
138.9539779428
  0
VERTEX
  8
0
 62
7
  6
CONTINUOUS
 10
367.930219101
 20
137.7930771801
  0
VERTEX
  8
0
 62
7
  6
CONTINUOUS
 10
367.9138527626
 20
136.626335842
  0
VERTEX
  8
0
 62
7
  6
CONTINUOUS
 10
367.896784001
 20
135.4542978113
  0
VERTEX
  8
0
 62
7
  6
CONTINUOUS
 10
367.8790182094
 20
134.2775811097
  0
VERTEX
  8
0
 62
7
  6
CONTINUOUS
 10
367.8605619371
 20
133.0967885209
  0
VERTEX
  8
0
 62
7
  6
CONTINUOUS
 10
367.8414172553
 20
131.9121677001
  0
VERTEX
  8
0
 62
7
  6
CONTINUOUS
 10
367.8215807319
 20
130.7236065652
  0
VERTEX
  8
0
 62
7
  6
CONTINUOUS
 10
367.8010535875
 20
129.5312687393
  0
VERTEX
  8
0
 62
7
  6
CONTINUOUS
 10
367.7798434558
 20
128.3356510573
  0
VERTEX
  8
0
 62
7
  6
CONTINUOUS
 10
367.7579597213
 20
127.137285244
  0
VERTEX
  8
0
 62
7
  6
CONTINUOUS
 10
367.735413171
 20
125.936715519
  0
VERTEX
  8
0
 62
7
  6
CONTINUOUS
 10
367.7122149901
 20
124.7344463507
  0
VERTEX
  8
0
 62
7
  6
CONTINUOUS
 10
367.6883650248
 20
123.5303633107
  0
VERTEX
  8
0
 62
7
  6
CONTINUOUS
 10
367.6638517405
 20
122.3238081568
  0
VERTEX
  8
0
 62
7
  6
CONTINUOUS
 10
367.6386623518
 20
121.1141244454
  0
VERTEX
  8
0
 62
7
  6
CONTINUOUS
 10
367.6127876785
 20
119.9008814838
  0
VERTEX
  8
0
 62
7
  6
CONTINUOUS
 10
367.5862210206
 20
118.6837970253
  0
VERTEX
  8
0
 62
7
  6
CONTINUOUS
 10
367.5589552718
 20
117.4625925185
  0
VERTEX
  8
0
 62
7
  6
CONTINUOUS
 10
367.5309834091
 20
116.2370136138
  0
VERTEX
  8
0
 62
7
  6
CONTINUOUS
 10
367.5023036979
 20
115.0070482104
  0
VERTEX
  8
0
 62
7
  6
CONTINUOUS
 10
367.4729173414
 20
113.7728037325
  0
VERTEX
  8
0
 62
7
  6
CONTINUOUS
 10
367.4428210286
 20
112.5341916134
  0
VERTEX
  8
0
 62
7
  6
CONTINUOUS
 10
367.4120077385
 20
111.2910020987
  0
VERTEX
  8
0
 62
7
  6
CONTINUOUS
 10
367.3804704904
 20
110.0431014903
  0
VERTEX
  8
0
 62
7
  6
CONTINUOUS
 10
367.3482032407
 20
108.7904103088
  0
VERTEX
  8
0
 62
7
  6
CONTINUOUS
 10
367.3151999434
 20
107.532853337
  0
VERTEX
  8
0
 62
7
  6
CONTINUOUS
 10
367.281455392
 20
106.270390389
  0
VERTEX
  8
0
 62
7
  6
CONTINUOUS
 10
367.2469648475
 20
105.0029996657
  0
VERTEX
  8
0
 62
7
  6
CONTINUOUS
 10
367.2117232123
 20
103.7306465383
  0
VERTEX
  8
0
 62
7
  6
CONTINUOUS
 10
367.1757232887
 20
102.4532233509
  0
VERTEX
  8
0
 62
7
  6
CONTINUOUS
 10
367.1389569769
 20
101.1705969487
  0
VERTEX
  8
0
 62
7
  6
CONTINUOUS
 10
367.1014159787
 20
99.8826346736
  0
VERTEX
  8
0
 62
7
  6
CONTINUOUS
 10
367.0630901772
 20
98.5891500121
  0
VERTEX
  8
0
 62
7
  6
CONTINUOUS
 10
367.0239613982
 20
97.2897012955
  0
VERTEX
  8
0
 62
7
  6
CONTINUOUS
 10
366.9840095923
 20
95.9838120776
  0
VERTEX
  8
0
 62
7
  6
CONTINUOUS
 10
366.9432209492
 20
94.6712328398
  0
VERTEX
  8
0
 62
7
  6
CONTINUOUS
 10
366.9015834461
 20
93.3517837581
  0
VERTEX
  8
0
 62
7
  6
CONTINUOUS
 10
366.8590821336
 20
92.0252034185
  0
VERTEX
  8
0
 62
7
  6
CONTINUOUS
 10
366.815700475
 20
90.6911956453
  0
VERTEX
  8
0
 62
7
  6
CONTINUOUS
 10
366.7714218617
 20
89.3494775802
  0
VERTEX
  8
0
 62
7
  6
CONTINUOUS
 10
366.7262304706
 20
87.9998041128
  0
VERTEX
  8
0
 62
7
  6
CONTINUOUS
 10
366.6801103234
 20
86.641937667
  0
VERTEX
  8
0
 62
7
  6
CONTINUOUS
 10
366.6330473668
 20
85.2757075936
  0
VERTEX
  8
0
 62
7
  6
CONTINUOUS
 10
366.5850307975
 20
83.9010432184
  0
VERTEX
  8
0
 62
7
  6
CONTINUOUS
 10
366.5360499901
 20
82.5178808548
  0
VERTEX
  8
0
 62
7
  6
CONTINUOUS
 10
366.486094443
 20
81.1261617921
  0
VERTEX
  8
0
 62
7
  6
CONTINUOUS
 10
366.4351603177
 20
79.7260104933
  0
VERTEX
  8
0
 62
7
  6
CONTINUOUS
 10
366.3832509888
 20
78.3177374501
  0
VERTEX
  8
0
 62
7
  6
CONTINUOUS
 10
366.3303250027
 20
76.9004425046
  0
VERTEX
  8
0
 62
7
  6
CONTINUOUS
 10
366.2762716348
 20
75.4714494693
  0
VERTEX
  8
0
 62
7
  6
CONTINUOUS
 10
366.221021444
 20
74.0292854128
  0
VERTEX
  8
0
 62
7
  6
CONTINUOUS
 10
366.1645939027
 20
72.5748264025
  0
VERTEX
  8
0
 62
7
  6
CONTINUOUS
 10
366.1070121496
 20
71.1089962931
  0
VERTEX
  8
0
 62
7
  6
CONTINUOUS
 10
366.0482559994
 20
69.6315891463
  0
VERTEX
  8
0
 62
7
  6
CONTINUOUS
 10
365.988287147
 20
68.1419593653
  0
VERTEX
  8
0
 62
7
  6
CONTINUOUS
 10
365.9270570432
 20
66.6392399883
  0
VERTEX
  8
0
 62
7
  6
CONTINUOUS
 10
365.8645094225
 20
65.1224166934
  0
VERTEX
  8
0
 62
7
  6
CONTINUOUS
 10
365.8005878675
 20
63.5905167225
  0
VERTEX
  8
0
 62
7
  6
CONTINUOUS
 10
365.7352371893
 20
62.042639142
  0
VERTEX
  8
0
 62
7
  6
CONTINUOUS
 10
365.6684556175
 20
60.4791656853
  0
VERTEX
  8
0
 62
7
  6
CONTINUOUS
 10
365.6002780191
 20
58.9013014746
  0
VERTEX
  8
0
 62
7
  6
CONTINUOUS
 10
365.5306433953
 20
57.3080171988
  0
VERTEX
  8
0
 62
7
  6
CONTINUOUS
 10
365.4594033308
 20
55.6964079815
  0
VERTEX
  8
0
 62
7
  6
CONTINUOUS
 10
365.3864506666
 20
54.064650233
  0
VERTEX
  8
0
 62
7
  6
CONTINUOUS
 10
365.311721143
 20
52.4119496908
  0
VERTEX
  8
0
 62
7
  6
CONTINUOUS
 10
365.2351503491
 20
50.7375487303
  0
VERTEX
  8
0
 62
7
  6
CONTINUOUS
 10
365.1566711826
 20
49.0406704282
  0
VERTEX
  8
0
 62
7
  6
CONTINUOUS
 10
365.0762028174
 20
47.320285825
  0
VERTEX
  8
0
 62
7
  6
CONTINUOUS
 10
364.9936621544
 20
45.5753694893
  0
VERTEX
  8
0
 62
7
  6
CONTINUOUS
 10
364.9089684409
 20
43.80499638
  0
VERTEX
  8
0
 62
7
  6
CONTINUOUS
 10
364.8220180712
 20
42.0078193928
  0
VERTEX
  8
0
 62
7
  6
CONTINUOUS
 10
364.7326340006
 20
40.1810659263
  0
VERTEX
  8
0
 62
7
  6
CONTINUOUS
 10
364.6406213408
 20
38.3217367595
  0
VERTEX
  8
0
 62
7
  6
CONTINUOUS
 10
364.5457619825
 20
36.4265158884
  0
VERTEX
  8
0
 62
7
  6
CONTINUOUS
 10
364.4478700542
 20
34.4928823499
  0
VERTEX
  8
0
 62
7
  6
CONTINUOUS
 10
364.3468061173
 20
32.5193459195
  0
VERTEX
  8
0
 62
7
  6
CONTINUOUS
 10
364.2424102582
 20
30.5041079863
  0
VERTEX
  8
0
 62
7
  6
CONTINUOUS
 10
364.1345100837
 20
28.4452333725
  0
VERTEX
  8
0
 62
7
  6
CONTINUOUS
 10
364.0228122065
 20
26.338626581
  0
VERTEX
  8
0
 62
7
  6
CONTINUOUS
 10
363.9069677182
 20
24.1793750149
  0
VERTEX
  8
0
 62
7
  6
CONTINUOUS
 10
363.7865676513
 20
21.9617228303
  0
VERTEX
  8
0
 62
7
  6
CONTINUOUS
 10
363.6608437197
 20
19.6737193105
  0
VERTEX
  8
0
 62
7
  6
CONTINUOUS
 10
363.5288771649
 20
17.3013440317
  0
VERTEX
  8
0
 62
7
  6
CONTINUOUS
 10
363.3899803208
 20
14.8354074517
  0
VERTEX
  8
0
 62
7
  6
CONTINUOUS
 10
363.2435973734
 20
12.2695659044
  0
VERTEX
  8
0
 62
7
  6
CONTINUOUS
 10
363.0886305717
 20
9.5885903255
  0
VERTEX
  8
0
 62
7
  6
CONTINUOUS
 10
362.923502118
 20
6.7700398902
  0
VERTEX
  8
0
 62
7
  6
CONTINUOUS
 10
362.7465382348
 20
3.7912616555
  0
VERTEX
  8
0
 62
7
  6
CONTINUOUS
 10
362.5551676816
 20
0.6164010945
  0
VERTEX
  8
0
 62
7
  6
CONTINUOUS
 10
362.3431250718
 20
-2.8475771801
  0
VERTEX
  8
0
 62
7
  6
CONTINUOUS
 10
362.1027488796
 20
-6.7091818717
  0
VERTEX
  8
0
 62
7
  6
CONTINUOUS
 10
361.8274723949
 20
-11.0506468982
  0
VERTEX
  8
0
 62
7
  6
CONTINUOUS
 10
361.515811475
 20
-15.8676119905
  0
VERTEX
  8
0
 62
7
  6
CONTINUOUS
 10
361.1696671926
 20
-21.1025253742
  0
VERTEX
  8
0
 62
7
  6
CONTINUOUS
 10
360.8061545514
 20
-26.478024555
  0
VERTEX
  8
0
 62
7
  6
CONTINUOUS
 10
360.4470795808
 20
-31.6728806511
  0
VERTEX
  8
0
 62
7
  6
CONTINUOUS
 10
360.1027414071
 20
-36.5536740428
  0
VERTEX
  8
0
 62
7
  6
CONTINUOUS
 10
359.7787896303
 20
-41.0604204365
  0
VERTEX
  8
0
 62
7
  6
CONTINUOUS
 10
359.4742722754
 20
-45.225455859
  0
VERTEX
  8
0
 62
7
  6
CONTINUOUS
 10
359.1857862969
 20
-49.1104438809
  0
VERTEX
  8
0
 62
7
  6
CONTINUOUS
 10
358.9097290112
 20
-52.7750732475
  0
VERTEX
  8
0
 62
7
  6
CONTINUOUS
 10
358.6423362652
 20
-56.2771791425
  0
VERTEX
  8
0
 62
7
  6
CONTINUOUS
 10
358.3798134652
 20
-59.6716352283
  0
VERTEX
  8
0
 62
7
  6
CONTINUOUS
 10
358.1202813903
 20
-62.9861440793
  0
VERTEX
  8
0
 62
7
  6
CONTINUOUS
 10
357.8629220248
 20
-66.2337048577
  0
VERTEX
  8
0
 62
7
  6
CONTINUOUS
 10
357.6068882996
 20
-69.4270341525
  0
VERTEX
  8
0
 62
7
  6
CONTINUOUS
 10
357.3514484578
 20
-72.5768340255
  0
VERTEX
  8
0
 62
7
  6
CONTINUOUS
 10
357.0959350918
 20
-75.6925374429
  0
VERTEX
  8
0
 62
7
  6
CONTINUOUS
 10
356.8396501285
 20
-78.7835271279
  0
VERTEX
  8
0
 62
7
  6
CONTINUOUS
 10
356.5819217547
 20
-81.8584690861
  0
VERTEX
  8
0
 62
7
  6
CONTINUOUS
 10
356.322111219
 20
-84.9252740451
  0
VERTEX
  8
0
 62
7
  6
CONTINUOUS
 10
356.0595548343
 20
-87.991811585
  0
VERTEX
  8
0
 62
7
  6
CONTINUOUS
 10
355.7935938231
 20
-91.0655678305
  0
VERTEX
  8
0
 62
7
  6
CONTINUOUS
 10
355.5236092826
 20
-94.1532642839
  0
VERTEX
  8
0
 62
7
  6
CONTINUOUS
 10
355.2489654189
 20
-97.2615316042
  0
VERTEX
  8
0
 62
7
  6
CONTINUOUS
 10
354.9689546135
 20
-100.3975203826
  0
VERTEX
  8
0
 62
7
  6
CONTINUOUS
 10
354.6826535137
 20
-103.5704531346
  0
VERTEX
  8
0
 62
7
  6
CONTINUOUS
 10
354.389051292
 20
-106.7901094585
  0
VERTEX
  8
0
 62
7
  6
CONTINUOUS
 10
354.0869992213
 20
-110.0673479916
  0
VERTEX
  8
0
 62
7
  6
CONTINUOUS
 10
353.7747541436
 20
-113.4188933233
  0
VERTEX
  8
0
 62
7
  6
CONTINUOUS
 10
353.4503087397
 20
-116.8634914502
  0
VERTEX
  8
0
 62
7
  6
CONTINUOUS
 10
353.1112567613
 20
-120.4231555489
  0
VERTEX
  8
0
 62
7
  6
CONTINUOUS
 10
352.7536546751
 20
-124.1346584627
  0
VERTEX
  8
0
 62
7
  6
CONTINUOUS
 10
352.3729078245
 20
-128.0395186896
  0
VERTEX
  8
0
 62
7
  6
CONTINUOUS
 10
351.9601279597
 20
-132.2201525427
  0
VERTEX
  8
0
 62
7
  6
CONTINUOUS
 10
351.4989491882
 20
-136.8283967451
  0
VERTEX
  8
0
 62
7
  6
CONTINUOUS
 10
350.9848623278
 20
-141.8904935703
  0
VERTEX
  8
0
 62
7
  6
CONTINUOUS
 10
350.4578518396
 20
-147.001307078
  0
VERTEX
  8
0
 62
7
  6
CONTINUOUS
 10
349.9229715403
 20
-152.1105205714
  0
VERTEX
  8
0
 62
7
  6
CONTINUOUS
 10
349.380163208
 20
-157.2185212992
  0
VERTEX
  8
0
 62
7
  6
CONTINUOUS
 10
348.8570600697
 20
-162.0707231164
  0
VERTEX
  8
0
 62
7
  6
CONTINUOUS
 10
348.3868606087
 20
-166.3757274055
  0
VERTEX
  8
0
 62
7
  6
CONTINUOUS
 10
347.948061527
 20
-170.3469456362
  0
VERTEX
  8
0
 62
7
  6
CONTINUOUS
 10
347.5378495675
 20
-174.020483097
  0
VERTEX
  8
0
 62
7
  6
CONTINUOUS
 10
347.1594871108
 20
-177.3765208438
  0
VERTEX
  8
0
 62
7
  6
CONTINUOUS
 10
346.8081378058
 20
-180.4660474681
  0
VERTEX
  8
0
 62
7
  6
CONTINUOUS
 10
346.4754578915
 20
-183.3681808865
  0
VERTEX
  8
0
 62
7
  6
CONTINUOUS
 10
346.1573155026
 20
-186.122900039
  0
VERTEX
  8
0
 62
7
  6
CONTINUOUS
 10
345.8523984375
 20
-188.7446579014
  0
VERTEX
  8
0
 62
7
  6
CONTINUOUS
 10
345.5591846653
 20
-191.2491434603
  0
VERTEX
  8
0
 62
7
  6
CONTINUOUS
 10
345.2760762384
 20
-193.6521609836
  0
VERTEX
  8
0
 62
7
  6
CONTINUOUS
 10
345.0015849845
 20
-195.9681113271
  0
VERTEX
  8
0
 62
7
  6
CONTINUOUS
 10
344.7348962238
 20
-198.2053556305
  0
VERTEX
  8
0
 62
7
  6
CONTINUOUS
 10
344.4751950659
 20
-200.3720149141
  0
VERTEX
  8
0
 62
7
  6
CONTINUOUS
 10
344.2217944345
 20
-202.4749334308
  0
VERTEX
  8
0
 62
7
  6
CONTINUOUS
 10
343.9741062316
 20
-204.5199626475
  0
VERTEX
  8
0
 62
7
  6
CONTINUOUS
 10
343.7314950961
 20
-206.5131949336
  0
VERTEX
  8
0
 62
7
  6
CONTINUOUS
 10
343.4935879134
 20
-208.4584416989
  0
VERTEX
  8
0
 62
7
  6
CONTINUOUS
 10
343.2600933493
 20
-210.3587588081
  0
VERTEX
  8
0
 62
7
  6
CONTINUOUS
 10
343.0307192646
 20
-212.2171356354
  0
VERTEX
  8
0
 62
7
  6
CONTINUOUS
 10
342.8051950382
 20
-214.0363250814
  0
VERTEX
  8
0
 62
7
  6
CONTINUOUS
 10
342.5831664657
 20
-215.8197140708
  0
VERTEX
  8
0
 62
7
  6
CONTINUOUS
 10
342.364295311
 20
-217.5704991985
  0
VERTEX
  8
0
 62
7
  6
CONTINUOUS
 10
342.148459913
 20
-219.2900898892
  0
VERTEX
  8
0
 62
7
  6
CONTINUOUS
 10
341.9358754379
 20
-220.9771935572
  0
VERTEX
  8
0
 62
7
  6
CONTINUOUS
 10
341.7268611403
 20
-222.6297041336
  0
VERTEX
  8
0
 62
7
  6
CONTINUOUS
 10
341.5217778497
 20
-224.2452072136
  0
VERTEX
  8
0
 62
7
  6
CONTINUOUS
 10
341.3205249729
 20
-225.82492491
  0
VERTEX
  8
0
 62
7
  6
CONTINUOUS
 10
341.1226560304
 20
-227.3727500991
  0
VERTEX
  8
0
 62
7
  6
CONTINUOUS
 10
340.9278063369
 20
-228.8918751492
  0
VERTEX
  8
0
 62
7
  6
CONTINUOUS
 10
340.735551519
 20
-230.3859043504
  0
VERTEX
  8
0
 62
7
  6
CONTINUOUS
 10
340.5457843062
 20
-231.8559358528
  0
VERTEX
  8
0
 62
7
  6
CONTINUOUS
 10
340.3587716115
 20
-233.3001623604
  0
VERTEX
  8
0
 62
7
  6
CONTINUOUS
 10
340.1743702832
 20
-234.7199443946
  0
VERTEX
  8
0
 62
7
  6
CONTINUOUS
 10
339.991843117
 20
-236.1211737876
  0
VERTEX
  8
0
 62
7
  6
CONTINUOUS
 10
339.8103679228
 20
-237.5103190847
  0
VERTEX
  8
0
 62
7
  6
CONTINUOUS
 10
339.6291210744
 20
-238.8937834804
  0
VERTEX
  8
0
 62
7
  6
CONTINUOUS
 10
339.4476762939
 20
-240.2748767795
  0
VERTEX
  8
0
 62
7
  6
CONTINUOUS
 10
339.2673423025
 20
-241.6437200599
  0
VERTEX
  8
0
 62
7
  6
CONTINUOUS
 10
339.089708067
 20
-242.9884223343
  0
VERTEX
  8
0
 62
7
  6
CONTINUOUS
 10
338.9133234134
 20
-244.3201309252
  0
VERTEX
  8
0
 62
7
  6
CONTINUOUS
 10
338.7346605324
 20
-245.6654978921
  0
VERTEX
  8
0
 62
7
  6
CONTINUOUS
 10
338.552934634
 20
-247.0303217816
  0
VERTEX
  8
0
 62
7
  6
CONTINUOUS
 10
338.3726769096
 20
-248.3805725616
  0
VERTEX
  8
0
 62
7
  6
CONTINUOUS
 10
338.1982348008
 20
-249.6839419419
  0
VERTEX
  8
0
 62
7
  6
CONTINUOUS
 10
338.0292919812
 20
-250.9431512376
  0
SEQEND
  0
POLYLINE
  8
0
 62
7
  6
CONTINUOUS
 66
1
 70
0
  0
VERTEX
  8
0
 62
7
  6
CONTINUOUS
 10
338.0292919812
 20
-250.9431512376
  0
VERTEX
  8
0
 62
7
  6
CONTINUOUS
 10
337.863803588
 20
-252.1737194729
  0
VERTEX
  8
0
 62
7
  6
CONTINUOUS
 10
337.7008750823
 20
-253.3824887059
  0
VERTEX
  8
0
 62
7
  6
CONTINUOUS
 10
337.5413882458
 20
-254.5630996467
  0
VERTEX
  8
0
 62
7
  6
CONTINUOUS
 10
337.3864980754
 20
-255.7072268269
  0
VERTEX
  8
0
 62
7
  6
CONTINUOUS
 10
337.2363587394
 20
-256.8139763196
  0
VERTEX
  8
0
 62
7
  6
CONTINUOUS
 10
337.0903475142
 20
-257.8881616118
  0
VERTEX
  8
0
 62
7
  6
CONTINUOUS
 10
336.9478208505
 20
-258.9347032508
  0
VERTEX
  8
0
 62
7
  6
CONTINUOUS
 10
336.8079248329
 20
-259.9600189348
  0
VERTEX
  8
0
 62
7
  6
CONTINUOUS
 10
336.6697972462
 20
-260.9705358589
  0
VERTEX
  8
0
 62
7
  6
CONTINUOUS
 10
336.5325963073
 20
-261.9724836238
  0
VERTEX
  8
0
 62
7
  6
CONTINUOUS
 10
336.3960661403
 20
-262.9677791629
  0
VERTEX
  8
0
 62
7
  6
CONTINUOUS
 10
336.2400238546
 20
-264.1031959503
  0
SEQEND
  0
LINE
  8
0
 62
7
  6
CONTINUOUS
 10
176.2981968811
 20
581.0483482617
 11
175.9117002892
 21
580.927707583
  0
POLYLINE
  8
0
 62
7
  6
CONTINUOUS
 66
1
 70
0
  0
VERTEX
  8
0
 62
7
  6
CONTINUOUS
 10
176.3323149626
 20
581.1051122292
  0
VERTEX
  8
0
 62
7
  6
CONTINUOUS
 10
176.9124917375
 20
581.2849123611
  0
VERTEX
  8
0
 62
7
  6
CONTINUOUS
 10
177.4608311985
 20
581.447674345
  0
VERTEX
  8
0
 62
7
  6
CONTINUOUS
 10
177.9762415498
 20
581.5924633075
  0
VERTEX
  8
0
 62
7
  6
CONTINUOUS
 10
178.4619981789
 20
581.7220838685
  0
VERTEX
  8
0
 62
7
  6
CONTINUOUS
 10
178.9202549072
 20
581.8385875207
  0
VERTEX
  8
0
 62
7
  6
CONTINUOUS
 10
179.3532846372
 20
581.9432987719
  0
VERTEX
  8
0
 62
7
  6
CONTINUOUS
 10
179.7632975244
 20
582.0378714167
  0
VERTEX
  8
0
 62
7
  6
CONTINUOUS
 10
180.152635632
 20
582.1233690877
  0
VERTEX
  8
0
 62
7
  6
CONTINUOUS
 10
180.5235938883
 20
582.2011276144
  0
VERTEX
  8
0
 62
7
  6
CONTINUOUS
 10
180.878523853
 20
582.2719842005
  0
SEQEND
  0
LINE
  8
0
 62
7
  6
CONTINUOUS
 10
34.3431449524
 20
-268.4219052295
 11
331.2869920363
 21
-268.4219052295
  0
LINE
  8
0
 62
7
  6
CONTINUOUS
 10
164.3063674845
 20
580.9276976899
 11
161.6730516285
 21
577.5301898369
  0
POLYLINE
  8
0
 62
7
  6
CONTINUOUS
 66
1
 70
0
  0
VERTEX
  8
0
 62
7
  6
CONTINUOUS
 10
174.1540028229
 20
577.4425490792
  0
VERTEX
  8
0
 62
7
  6
CONTINUOUS
 10
174.5148133079
 20
578.0556461139
  0
VERTEX
  8
0
 62
7
  6
CONTINUOUS
 10
174.8765224835
 20
578.6676786832
  0
VERTEX
  8
0
 62
7
  6
CONTINUOUS
 10
175.2391322953
 20
579.2786500422
  0
VERTEX
  8
0
 62
7
  6
CONTINUOUS
 10
175.6026369065
 20
579.8885504261
  0
VERTEX
  8
0
 62
7
  6
CONTINUOUS
 10
175.9670304804
 20
580.4973700701
  0
SEQEND
  0
POLYLINE
  8
0
 62
7
  6
CONTINUOUS
 66
1
 70
0
  0
VERTEX
  8
0
 62
7
  6
CONTINUOUS
 10
175.9117002892
 20
580.927707583
  0
VERTEX
  8
0
 62
7
  6
CONTINUOUS
 10
175.5763005441
 20
580.363491249
  0
VERTEX
  8
0
 62
7
  6
CONTINUOUS
 10
175.24160247
 20
579.7984570131
  0
VERTEX
  8
0
 62
7
  6
CONTINUOUS
 10
174.9076099646
 20
579.2326115187
  0
VERTEX
  8
0
 62
7
  6
CONTINUOUS
 10
174.5743113349
 20
578.6659348355
  0
VERTEX
  8
0
 62
7
  6
CONTINUOUS
 10
174.2416948879
 20
578.0984070333
  0
VERTEX
  8
0
 62
7
  6
CONTINUOUS
 10
173.9097645211
 20
577.5300347555
  0
SEQEND
  0
LINE
  8
0
 62
7
  6
CONTINUOUS
 10
175.9670304804
 20
580.4973700701
 11
176.3323149626
 21
581.1051122292
  0
LINE
  8
0
 62
7
  6
CONTINUOUS
 10
-3.5031230433
 20
506.3082479128
 11
-1.1215146662
 21
193.507564224
  0
LINE
  8
0
 62
7
  6
CONTINUOUS
 10
-3.6071950794
 20
558.9780803233
 11
-6.1113177973
 21
518.6715804539
  0
LINE
  8
0
 62
7
  6
CONTINUOUS
 10
25.9281479288
 20
-238.3414938427
 11
29.3897842789
 21
-264.1032407336
  0
LINE
  8
0
 62
7
  6
CONTINUOUS
 10
5.3700230035
 20
182.0641252538
 11
5.3574336454
 21
181.8860281329
  0
LINE
  8
0
 62
7
  6
CONTINUOUS
 10
5.3818247819
 20
182.2300902135
 11
5.3700230035
 21
182.0641252538
  0
LINE
  8
0
 62
7
  6
CONTINUOUS
 10
5.4027116736
 20
182.5217777889
 11
5.3818247819
 21
182.2300902135
  0
LINE
  8
0
 62
7
  6
CONTINUOUS
 10
5.4051896928
 20
182.5526435479
 11
5.6943570397
 21
186.5740848385
  0
LINE
  8
0
 62
7
  6
CONTINUOUS
 10
155.0607917141
 20
575.2867017001
 11
153.9529837229
 21
572.2430242593
  0
POLYLINE
  8
0
 62
7
  6
CONTINUOUS
 66
1
 70
0
  0
VERTEX
  8
0
 62
7
  6
CONTINUOUS
 10
182.0747747802
 20
582.5583088204
  0
VERTEX
  8
0
 62
7
  6
CONTINUOUS
 10
182.0601827288
 20
582.5196205395
  0
VERTEX
  8
0
 62
7
  6
CONTINUOUS
 10
182.0385836738
 20
582.5001119356
  0
SEQEND
  0
LINE
  8
0
 62
7
  6
CONTINUOUS
 10
182.0747747802
 20
582.5096120995
 11
182.0747747802
 21
583.1797244819
  0
LINE
  8
0
 62
7
  6
CONTINUOUS
 10
182.5747747802
 20
583.3829074309
 11
182.5747747802
 21
582.7631427929
  0
POLYLINE
  8
0
 62
7
  6
CONTINUOUS
 66
1
 70
0
  0
VERTEX
  8
0
 62
7
  6
CONTINUOUS
 10
18.9096340994
 20
186.5608594254
  0
VERTEX
  8
0
 62
7
  6
CONTINUOUS
 10
17.9807616927
 20
186.5412397584
  0
VERTEX
  8
0
 62
7
  6
CONTINUOUS
 10
17.0535049415
 20
186.4824157511
  0
VERTEX
  8
0
 62
7
  6
CONTINUOUS
 10
16.1295588671
 20
186.3844923222
  0
VERTEX
  8
0
 62
7
  6
CONTINUOUS
 10
15.2105714251
 20
186.2476441288
  0
VERTEX
  8
0
 62
7
  6
CONTINUOUS
 10
14.2981817273
 20
186.0721152539
  0
VERTEX
  8
0
 62
7
  6
CONTINUOUS
 10
13.3940171174
 20
185.8582187721
  0
VERTEX
  8
0
 62
7
  6
CONTINUOUS
 10
12.4996902689
 20
185.6063361903
  0
VERTEX
  8
0
 62
7
  6
CONTINUOUS
 10
11.6167963087
 20
185.3169167679
  0
VERTEX
  8
0
 62
7
  6
CONTINUOUS
 10
10.7469099718
 20
184.990476715
  0
VERTEX
  8
0
 62
7
  6
CONTINUOUS
 10
9.8915827928
 20
184.6275982722
  0
VERTEX
  8
0
 62
7
  6
CONTINUOUS
 10
9.0523403383
 20
184.2289286717
  0
VERTEX
  8
0
 62
7
  6
CONTINUOUS
 10
8.2306794865
 20
183.7951789829
  0
VERTEX
  8
0
 62
7
  6
CONTINUOUS
 10
7.4280657566
 20
183.3271228445
  0
VERTEX
  8
0
 62
7
  6
CONTINUOUS
 10
6.6459306953
 20
182.8255950841
  0
VERTEX
  8
0
 62
7
  6
CONTINUOUS
 10
5.8856693235
 20
182.2914902299
  0
VERTEX
  8
0
 62
7
  6
CONTINUOUS
 10
5.1486376481
 20
181.7257609144
  0
VERTEX
  8
0
 62
7
  6
CONTINUOUS
 10
4.4361502432
 20
181.1294161758
  0
VERTEX
  8
0
 62
7
  6
CONTINUOUS
 10
3.7494779056
 20
180.5035196584
  0
VERTEX
  8
0
 62
7
  6
CONTINUOUS
 10
3.0898453885
 20
179.8491877149
  0
VERTEX
  8
0
 62
7
  6
CONTINUOUS
 10
2.4584292164
 20
179.1675874157
  0
VERTEX
  8
0
 62
7
  6
CONTINUOUS
 10
1.8563555869
 20
178.4599344674
  0
VERTEX
  8
0
 62
7
  6
CONTINUOUS
 10
1.2846983624
 20
177.7274910439
  0
VERTEX
  8
0
 62
7
  6
CONTINUOUS
 10
0.7444771541
 20
176.9715635359
  0
VERTEX
  8
0
 62
7
  6
CONTINUOUS
 10
0.236655504
 20
176.1935002203
  0
VERTEX
  8
0
 62
7
  6
CONTINUOUS
 10
-0.2378608343
 20
175.3946888556
  0
VERTEX
  8
0
 62
7
  6
CONTINUOUS
 10
-0.6782255104
 20
174.5765542065
  0
VERTEX
  8
0
 62
7
  6
CONTINUOUS
 10
-1.0836530872
 20
173.7405555031
  0
VERTEX
  8
0
 62
7
  6
CONTINUOUS
 10
-1.4534204416
 20
172.8881838376
  0
VERTEX
  8
0
 62
7
  6
CONTINUOUS
 10
-1.7868680544
 20
172.0209595055
  0
VERTEX
  8
0
 62
7
  6
CONTINUOUS
 10
-2.0834011862
 20
171.1404292933
  0
VERTEX
  8
0
 62
7
  6
CONTINUOUS
 10
-2.3424909387
 20
170.24816372
  0
VERTEX
  8
0
 62
7
  6
CONTINUOUS
 10
-2.563675198
 20
169.3457542361
  0
VERTEX
  8
0
 62
7
  6
CONTINUOUS
 10
-2.7465594584
 20
168.4348103846
  0
VERTEX
  8
0
 62
7
  6
CONTINUOUS
 10
-2.8908175264
 20
167.5169569305
  0
VERTEX
  8
0
 62
7
  6
CONTINUOUS
 10
-2.9961921024
 20
166.5938309628
  0
VERTEX
  8
0
 62
7
  6
CONTINUOUS
 10
-3.0645888806
 20
165.6246797297
  0
SEQEND
  0
LINE
  8
0
 62
7
  6
CONTINUOUS
 10
7.8027780619
 20
186.0851477696
 11
14.365924046
 21
186.0851477696
  0
LINE
  8
0
 62
7
  6
CONTINUOUS
 10
351.2614805549
 20
186.0851477696
 11
357.8273589269
 21
186.0851477696
  0
LINE
  8
0
 62
7
  6
CONTINUOUS
 10
5.8782824466
 20
186.5608594255
 11
359.7518545421
 21
186.5608594255
  0
LINE
  8
0
 62
7
  6
CONTINUOUS
 10
359.9357799491
 20
186.5740848385
 11
360.224947296
 21
182.5526435479
  0
POLYLINE
  8
0
 62
7
  6
CONTINUOUS
 66
1
 70
0
  0
VERTEX
  8
0
 62
7
  6
CONTINUOUS
 10
360.2592270101
 20
182.0766282733
  0
VERTEX
  8
0
 62
7
  6
CONTINUOUS
 10
360.2476499179
 20
182.2393765538
  0
VERTEX
  8
0
 62
7
  6
CONTINUOUS
 10
360.2274252359
 20
182.5217774972
  0
SEQEND
  0
LINE
  8
0
 62
7
  6
CONTINUOUS
 10
360.2727695035
 20
181.8850577066
 11
360.2592270101
 21
182.0766282733
  0
LINE
  8
0
 62
7
  6
CONTINUOUS
 10
366.751651655
 20
193.507564224
 11
369.1332600321
 21
506.3082479128
  0
LINE
  8
0
 62
7
  6
CONTINUOUS
 10
210.5693452747
 20
575.2867017001
 11
211.6771532658
 21
572.2430242593
  0
LINE
  8
0
 62
7
  6
CONTINUOUS
 10
369.4621085758
 20
555.3600581619
 11
369.384916908
 21
556.602546479
  0
LINE
  8
0
 62
7
  6
CONTINUOUS
 10
369.2508070965
 20
558.7596662129
 11
369.2542888315
 21
558.705143309
  0
LINE
  8
0
 62
7
  6
CONTINUOUS
 10
371.7414547861
 20
518.6715804539
 11
369.2373320127
 21
558.978081217
  0
LINE
  8
0
 62
7
  6
CONTINUOUS
 10
369.2550839672
 20
558.6923451566
 11
369.2544961912
 21
558.7018056362
  0
LINE
  8
0
 62
7
  6
CONTINUOUS
 10
369.254308254
 20
558.7047606479
 11
369.2536853921
 21
558.7148563039
  0
POLYLINE
  8
0
 62
7
  6
CONTINUOUS
 66
1
 70
0
  0
VERTEX
  8
0
 62
7
  6
CONTINUOUS
 10
336.2403527093
 20
-264.1032407384
  0
VERTEX
  8
0
 62
7
  6
CONTINUOUS
 10
337.3311291519
 20
-256.1179489418
  0
VERTEX
  8
0
 62
7
  6
CONTINUOUS
 10
338.4039021157
 20
-248.1499018863
  0
VERTEX
  8
0
 62
7
  6
CONTINUOUS
 10
339.4463218557
 20
-240.2885999652
  0
VERTEX
  8
0
 62
7
  6
CONTINUOUS
 10
339.7021025699
 20
-238.3406276547
  0
SEQEND
  0
LINE
  8
0
 62
7
  6
CONTINUOUS
 10
201.4393014704
 20
581.1051114411
 11
204.2780538614
 21
577.4425490792
  0
LINE
  8
0
 62
7
  6
CONTINUOUS
 10
-1.12093937
 20
513.3615431142
 11
366.7510763587
 21
513.3615431142
  0
LINE
  8
0
 62
7
  6
CONTINUOUS
 10
161.6730516285
 20
577.5301898369
 11
155.7370763017
 21
575.9093660689
  0
POLYLINE
  8
0
 62
7
  6
CONTINUOUS
 66
1
 70
0
  0
VERTEX
  8
0
 62
7
  6
CONTINUOUS
 10
181.9861531667
 20
582.4863489298
  0
VERTEX
  8
0
 62
7
  6
CONTINUOUS
 10
182.1621277321
 20
582.5325422456
  0
VERTEX
  8
0
 62
7
  6
CONTINUOUS
 10
182.3083107649
 20
582.5792037664
  0
VERTEX
  8
0
 62
7
  6
CONTINUOUS
 10
182.4236274732
 20
582.6259674537
  0
VERTEX
  8
0
 62
7
  6
CONTINUOUS
 10
182.5070687878
 20
582.6724600959
  0
VERTEX
  8
0
 62
7
  6
CONTINUOUS
 10
182.5577512878
 20
582.7181245654
  0
VERTEX
  8
0
 62
7
  6
CONTINUOUS
 10
182.5747747802
 20
582.7631465714
  0
SEQEND
  0
POLYLINE
  8
0
 62
7
  6
CONTINUOUS
 66
1
 70
0
  0
VERTEX
  8
0
 62
7
  6
CONTINUOUS
 10
181.5496485143
 20
582.3968382406
  0
VERTEX
  8
0
 62
7
  6
CONTINUOUS
 10
181.7813777837
 20
582.4411755667
  0
VERTEX
  8
0
 62
7
  6
CONTINUOUS
 10
181.9861531667
 20
582.4863489298
  0
SEQEND
  0
POLYLINE
  8
0
 62
7
  6
CONTINUOUS
 66
1
 70
0
  0
VERTEX
  8
0
 62
7
  6
CONTINUOUS
 10
180.878523853
 20
582.2719842005
  0
VERTEX
  8
0
 62
7
  6
CONTINUOUS
 10
181.2209316286
 20
582.3373816366
  0
VERTEX
  8
0
 62
7
  6
CONTINUOUS
 10
181.5496485143
 20
582.3968389924
  0
SEQEND
  0
LINE
  8
0
 62
7
  6
CONTINUOUS
 10
204.2780538614
 20
577.4425490792
 11
174.1540028229
 21
577.4425490792
  0
LINE
  8
0
 62
7
  6
CONTINUOUS
 10
174.2055798205
 20
577.5301898369
 11
161.6730516285
 21
577.5301898369
  0
LINE
  8
0
 62
7
  6
CONTINUOUS
 10
164.3063674845
 20
580.9276976899
 11
175.911677285
 21
580.9276976899
  0
LINE
  8
0
 62
7
  6
CONTINUOUS
 10
176.3323149495
 20
581.1051114411
 11
201.4393014704
 21
581.1051114411
  0
LINE
  8
0
 62
7
  6
CONTINUOUS
 10
204.2780538614
 20
577.4425490792
 11
209.8930606871
 21
575.9093660689
  0
ARC
  8
0
 62
7
  6
CONTINUOUS
 10
182.8150684944
 20
-3326.0815665824
 40
3898.4447222419
 50
87.3992618499
 51
92.6007381238
  0
ARC
  8
0
 62
7
  6
CONTINUOUS
 10
182.8150684944
 20
506.1201390175
 40
77.2632392753
 50
76.0515336486
 51
90.1781938991
  0
ARC
  8
0
 62
7
  6
CONTINUOUS
 10
182.8150684944
 20
506.1201390175
 40
77.0632392753
 50
90.5504097442
 51
103.8968979651
  0
ARC
  8
0
 62
7
  6
CONTINUOUS
 10
346.7203862042
 20
164.5608594255
 40
22.0000000003
 50
2.7807209551
 51
89.998111072
  0
ARC
  8
0
 62
7
  6
CONTINUOUS
 10
359.2565755171
 20
558.3580007566
 40
10.0000000001
 50
3.5550468461
 51
87.3992619765
  0
ARC
  8
0
 62
7
  6
CONTINUOUS
 10
6.3735614716
 20
558.3580007566
 40
10.0
 50
92.6007380222
 51
176.4449531537
  0
ARC
  8
0
 62
7
  6
CONTINUOUS
 10
362.1334629192
 20
506.3615431142
 40
7.0
 50
359.5637686269
 51
90.0
  0
ARC
  8
0
 62
7
  6
CONTINUOUS
 10
5.8782824466
 20
193.5608594255
 40
7.0
 50
180.4362313731
 51
270.0
  0
ARC
  8
0
 62
7
  6
CONTINUOUS
 10
3.4966740696
 20
506.3615431142
 40
7.0
 50
90.0
 51
180.4362313731
  0
ARC
  8
0
 62
7
  6
CONTINUOUS
 10
359.7518545421
 20
193.5608594255
 40
7.0
 50
270.0
 51
359.5637686269
  0
ARC
  8
0
 62
7
  6
CONTINUOUS
 10
-1.1209380011
 20
518.3615431142
 40
5.0
 50
176.4449541263
 51
269.9999843144
  0
ARC
  8
0
 62
7
  6
CONTINUOUS
 10
34.3431449503
 20
-263.4219052295
 40
5.0
 50
187.8318965658
 51
270.0
  0
ARC
  8
0
 62
7
  6
CONTINUOUS
 10
331.2869920385
 20
-263.4219052295
 40
5.0
 50
270.0001925372
 51
352.1681033787
  0
ARC
  8
0
 62
7
  6
CONTINUOUS
 10
366.7510749899
 20
518.3615431142
 40
4.9999986338
 50
270.0000156856
 51
3.5550468463
  0
ARC
  8
0
 62
7
  6
CONTINUOUS
 10
156.0004843349
 20
574.9446815567
 40
1.0
 50
105.2723793091
 51
159.9999999999
  0
ARC
  8
0
 62
7
  6
CONTINUOUS
 10
209.6296526539
 20
574.9446815567
 40
1.0
 50
20.0000000001
 51
74.7276206909
  0
ENDSEC
  0
EOF
