999
DXF file: k:\Client\125_Heirloom\001\00\Creo\ASM WITH VIEWS\sentinel-374124d_3.dxf
999
Pro/ENGINEER 2017110 by Parametric Technology Corporation
  0
SECTION
  2
HEADER
  9
$EXTMAX
 10
420.0
 20
297.0
 30
0.0
  9
$EXTMIN
 10
0.0
 20
0.0
 30
0.0
  9
$LIMMIN
 10
0.0
 20
0.0
  9
$LIMMAX
 10
420.0
 20
297.0
  9
$VIEWCTR
 10
210.0
 20
148.5
  9
$VIEWSIZE
 40
297.0
  9
$CLAYER
  8
0
  9
$LTSCALE
 40
23.1
  9
$CELTYPE
  6
BYLAYER
  9
$DIMSCALE
 40
1.0
  9
$DIMASZ
 40
3.0
  9
$DIMEXO
 40
1.0
  9
$DIMDLI
 40
15.96
  9
$DIMEXE
 40
1.0
  9
$DIMCEN
 40
3.78
  9
$DIMLFAC
 40
1.0
  9
$DIMBLK
  1
_FILLED
  9
$DIMALT
 70
0
  9
$DIMALTF
 40
0.0393700787
  9
$DIMTXT
 40
3.0
  9
$AUNITS
 70
0
  9
$PDMODE
 70
3
  9
$PDSIZE
 40
5.0
  9
$TILEMODE
 70
1
  0
ENDSEC
  0
SECTION
  2
TABLES
  0
TABLE
  2
LTYPE
 70
6
  0
LTYPE
  2
BYBLOCK
 70
0
  3

 72
65
 73
0
 40
0.0
  0
LTYPE
  2
BYLAYER
 70
0
  3

 72
65
 73
0
 40
0.0
  0
LTYPE
  2
CONTINUOUS
 70
64
  3
Solid line
 72
65
 73
0
 40
0.0
  0
LTYPE
  2
CENTER
 70
64
  3
____ _ ____ _ ____ _ ____ _ ____ _ ____ _ ____
 72
65
 73
4
 40
0.6
 49
0.375
 49
-0.075
 49
0.075
 49
-0.075
  0
LTYPE
  2
HIDDEN
 70
64
  3
- - - - - - - - - - - - - - - - - - - -
 72
65
 73
2
 40
0.2
 49
0.1
 49
-0.1
  0
LTYPE
  2
PHANTOM
 70
64
  3
_____ _ _ _____ _ _ _____ _ _ _____
 72
65
 73
6
 40
0.8
 49
0.45
 49
-0.05
 49
0.1
 49
-0.05
 49
0.1
 49
-0.05
  0
LTYPE
  2
DOT
 70
64
  3
. . . . . . . . . . . . . . . . . . . .
 72
65
 73
2
 40
0.2
 49
0.1
 49
-0.1
  0
LTYPE
  2
DASHED
 70
64
  3
- - - - - - - - - - - - - - - - - - - -
 72
65
 73
2
 40
0.2
 49
0.1
 49
-0.1
  0
ENDTAB
  0
TABLE
  2
LAYER
 70
36
  0
LAYER
  2
0
 70
0
 62
7
  6
CONTINUOUS
  0
LAYER
  2
DEFAULT_1
 70
0
 62
7
  6
CENTER
  0
LAYER
  2
DEFAULT_2
 70
0
 62
8
  6
HIDDEN
  0
LAYER
  2
DEFAULT_3
 70
0
 62
7
  6
PHANTOM
  0
LAYER
  2
0000_BOM
 70
0
 62
7
  6
CONTINUOUS
  0
LAYER
  2
0000_REV_TABLE
 70
0
 62
7
  6
CONTINUOUS
  0
LAYER
  2
0000_STEVENS_NOTE
 70
0
 62
7
  6
CONTINUOUS
  0
LAYER
  2
01_DATUM_PLANES
 70
0
 62
7
  6
CONTINUOUS
  0
LAYER
  2
01_DEF_PLANES
 70
0
 62
7
  6
CONTINUOUS
  0
LAYER
  2
02_DATUM_COS
 70
0
 62
7
  6
CONTINUOUS
  0
LAYER
  2
90_IMP_FEAT
 70
0
 62
7
  6
CONTINUOUS
  0
LAYER
  2
95_STL
 70
0
 62
7
  6
CONTINUOUS
  0
LAYER
  2
99_SOLID
 70
0
 62
7
  6
CONTINUOUS
  0
LAYER
  2
CAD-MASTER_ZINC-PL
 70
0
 62
7
  6
CONTINUOUS
  0
LAYER
  2
CURVE
 70
0
 62
7
  6
CONTINUOUS
  0
LAYER
  2
SHELL
 70
0
 62
7
  6
CONTINUOUS
  0
LAYER
  2
SKEL
 70
0
 62
7
  6
CONTINUOUS
  0
LAYER
  2
SKETCH
 70
0
 62
7
  6
CONTINUOUS
  0
LAYER
  2
SURFACE
 70
0
 62
7
  6
CONTINUOUS
  0
ENDTAB
  0
TABLE
  2
STYLE
 70
1
  0
STYLE
  2
STANDARD
 70
0
 40
0.0
 41
0.75
 50
0.0
 71
0
 42
0.2
  3
txt
  4

  0
STYLE
  2
TEXTSTYLE_1
 70
0
 40
0.0
 41
0.8
 50
0.0
 71
0
 42
0.2
  3
gdt
  4

  0
ENDTAB
  0
ENDSEC
  0
SECTION
  2
BLOCKS
  0
BLOCK
  8
0
 62
5
  6
CONTINUOUS
  2
PLUMBING_BL1
 70
64
 10
186.0327043823
 20
528.0149442268
  0
CIRCLE
  8
0
 62
5
  6
CONTINUOUS
 10
186.0327043823
 20
528.0149442268
 40
12.5
  0
LINE
  8
0
 62
5
  6
CONTINUOUS
 10
198.5327043823
 20
540.5149442268
 11
173.5327043823
 21
515.5149442268
  0
LINE
  8
0
 62
5
  6
CONTINUOUS
 10
186.0327043823
 20
528.0149442268
 11
173.5327043823
 21
540.5149442268
  0
LINE
  8
0
 62
5
  6
CONTINUOUS
 10
186.0327043823
 20
528.0149442268
 11
198.5327043823
 21
515.5149442268
  0
ENDBLK
  8
0
  6
BYBLOCK
 62
0
  0
BLOCK
  8
0
 62
1
  6
CONTINUOUS
  2
PLUMBING_BL0
 70
64
 10
186.0327043823
 20
253.0149442268
  0
CIRCLE
  8
0
 62
1
  6
CONTINUOUS
 10
186.0327043823
 20
253.0149442268
 40
12.5
  0
LINE
  8
0
 62
1
  6
CONTINUOUS
 10
198.5327043823
 20
265.5149442268
 11
173.5327043823
 21
240.5149442268
  0
LINE
  8
0
 62
1
  6
CONTINUOUS
 10
186.0327043823
 20
253.0149442268
 11
173.5327043823
 21
265.5149442268
  0
LINE
  8
0
 62
1
  6
CONTINUOUS
 10
186.0327043823
 20
253.0149442268
 11
198.5327043823
 21
240.5149442268
  0
ENDBLK
  8
0
  6
BYBLOCK
 62
0
  0
ENDSEC
  0
SECTION
  2
ENTITIES
  0
INSERT
  8
0
 62
1
  6
CONTINUOUS
  2
PLUMBING_BL0
 10
186.0327043823
 20
253.0149442268
  0
INSERT
  8
0
 62
5
  6
CONTINUOUS
  2
PLUMBING_BL1
 10
186.0327043823
 20
528.0149442268
  0
POLYLINE
  8
0
 62
7
  6
CONTINUOUS
 66
1
 70
0
  0
VERTEX
  8
0
 62
7
  6
CONTINUOUS
 10
12.8287969334
 20
-90.9826161431
  0
VERTEX
  8
0
 62
7
  6
CONTINUOUS
 10
12.249346856
 20
-88.1283885718
  0
VERTEX
  8
0
 62
7
  6
CONTINUOUS
 10
11.7491946305
 20
-85.5585313268
  0
VERTEX
  8
0
 62
7
  6
CONTINUOUS
 10
11.3199301902
 20
-83.264874446
  0
VERTEX
  8
0
 62
7
  6
CONTINUOUS
 10
10.9564505142
 20
-81.2520779953
  0
VERTEX
  8
0
 62
7
  6
CONTINUOUS
 10
10.6473722712
 20
-79.4845285361
  0
VERTEX
  8
0
 62
7
  6
CONTINUOUS
 10
10.3702919974
 20
-77.8523028778
  0
VERTEX
  8
0
 62
7
  6
CONTINUOUS
 10
10.116984128
 20
-76.3174425134
  0
VERTEX
  8
0
 62
7
  6
CONTINUOUS
 10
9.8554268832
 20
-74.6863306529
  0
VERTEX
  8
0
 62
7
  6
CONTINUOUS
 10
9.573393025
 20
-72.8702998737
  0
VERTEX
  8
0
 62
7
  6
CONTINUOUS
 10
9.2887590811
 20
-70.9716973251
  0
VERTEX
  8
0
 62
7
  6
CONTINUOUS
 10
9.0048224524
 20
-69.0051130103
  0
VERTEX
  8
0
 62
7
  6
CONTINUOUS
 10
8.7181569544
 20
-66.9380108865
  0
VERTEX
  8
0
 62
7
  6
CONTINUOUS
 10
8.4300453988
 20
-64.7681382207
  0
VERTEX
  8
0
 62
7
  6
CONTINUOUS
 10
8.1375239199
 20
-62.4584251571
  0
VERTEX
  8
0
 62
7
  6
CONTINUOUS
 10
7.8667865802
 20
-60.212177263
  0
VERTEX
  8
0
 62
7
  6
CONTINUOUS
 10
7.596456218
 20
-57.8505222361
  0
VERTEX
  8
0
 62
7
  6
CONTINUOUS
 10
7.3347596823
 20
-55.4345629539
  0
VERTEX
  8
0
 62
7
  6
CONTINUOUS
 10
7.1041549072
 20
-53.1838471755
  0
VERTEX
  8
0
 62
7
  6
CONTINUOUS
 10
6.8811001997
 20
-50.8815053957
  0
VERTEX
  8
0
 62
7
  6
CONTINUOUS
 10
6.6624155422
 20
-48.4857064674
  0
VERTEX
  8
0
 62
7
  6
CONTINUOUS
 10
6.4528822186
 20
-46.0398832134
  0
VERTEX
  8
0
 62
7
  6
CONTINUOUS
 10
6.2806442935
 20
-43.9006419579
  0
VERTEX
  8
0
 62
7
  6
CONTINUOUS
 10
6.1385063265
 20
-42.0338378962
  0
VERTEX
  8
0
 62
7
  6
CONTINUOUS
 10
6.0192130573
 20
-40.386226236
  0
VERTEX
  8
0
 62
7
  6
CONTINUOUS
 10
5.9175062828
 20
-38.9158341773
  0
VERTEX
  8
0
 62
7
  6
CONTINUOUS
 10
5.8263329348
 20
-37.5403654568
  0
VERTEX
  8
0
 62
7
  6
CONTINUOUS
 10
5.7275375401
 20
-35.9815829836
  0
VERTEX
  8
0
 62
7
  6
CONTINUOUS
 10
5.6241802439
 20
-34.2652178399
  0
VERTEX
  8
0
 62
7
  6
CONTINUOUS
 10
5.5188629346
 20
-32.4134505123
  0
VERTEX
  8
0
 62
7
  6
CONTINUOUS
 10
5.426142705
 20
-30.6842766431
  0
VERTEX
  8
0
 62
7
  6
CONTINUOUS
 10
5.3480140754
 20
-29.1446178581
  0
VERTEX
  8
0
 62
7
  6
CONTINUOUS
 10
5.2826999624
 20
-27.7915825595
  0
VERTEX
  8
0
 62
7
  6
CONTINUOUS
 10
5.2275348355
 20
-26.5963190156
  0
VERTEX
  8
0
 62
7
  6
CONTINUOUS
 10
5.1798693415
 20
-25.5206057215
  0
VERTEX
  8
0
 62
7
  6
CONTINUOUS
 10
5.1383678927
 20
-24.5483653984
  0
VERTEX
  8
0
 62
7
  6
CONTINUOUS
 10
5.1020619227
 20
-23.6682096575
  0
VERTEX
  8
0
 62
7
  6
CONTINUOUS
 10
5.070093091
 20
-22.8684055945
  0
VERTEX
  8
0
 62
7
  6
CONTINUOUS
 10
5.0423373891
 20
-22.1536903351
  0
VERTEX
  8
0
 62
7
  6
CONTINUOUS
 10
5.0174450221
 20
-21.4955863966
  0
VERTEX
  8
0
 62
7
  6
CONTINUOUS
 10
4.9910029342
 20
-20.777665234
  0
VERTEX
  8
0
 62
7
  6
CONTINUOUS
 10
4.9622049093
 20
-19.9720905645
  0
VERTEX
  8
0
 62
7
  6
CONTINUOUS
 10
4.930189855
 20
-19.0451764573
  0
VERTEX
  8
0
 62
7
  6
CONTINUOUS
 10
4.8974693941
 20
-18.0607019634
  0
VERTEX
  8
0
 62
7
  6
CONTINUOUS
 10
4.8661732654
 20
-17.0805314219
  0
VERTEX
  8
0
 62
7
  6
CONTINUOUS
 10
4.83631803
 20
-16.1068397744
  0
VERTEX
  8
0
 62
7
  6
CONTINUOUS
 10
4.8066544076
 20
-15.0982147984
  0
VERTEX
  8
0
 62
7
  6
CONTINUOUS
 10
4.7763750969
 20
-14.0217826591
  0
VERTEX
  8
0
 62
7
  6
CONTINUOUS
 10
4.7446801264
 20
-12.8384118419
  0
VERTEX
  8
0
 62
7
  6
CONTINUOUS
 10
4.7119926392
 20
-11.5495324071
  0
VERTEX
  8
0
 62
7
  6
CONTINUOUS
 10
4.6768476789
 20
-10.0749217209
  0
VERTEX
  8
0
 62
7
  6
CONTINUOUS
 10
4.6431686834
 20
-8.5615063263
  0
VERTEX
  8
0
 62
7
  6
CONTINUOUS
 10
4.6152364155
 20
-7.2195268854
  0
VERTEX
  8
0
 62
7
  6
CONTINUOUS
 10
4.5919421332
 20
-6.0308110556
  0
VERTEX
  8
0
 62
7
  6
CONTINUOUS
 10
4.5698152194
 20
-4.8346452139
  0
VERTEX
  8
0
 62
7
  6
CONTINUOUS
 10
4.5497692613
 20
-3.6869040147
  0
VERTEX
  8
0
 62
7
  6
CONTINUOUS
 10
4.5299855199
 20
-2.4862101595
  0
VERTEX
  8
0
 62
7
  6
CONTINUOUS
 10
4.509774755
 20
-1.1800178092
  0
VERTEX
  8
0
 62
7
  6
CONTINUOUS
 10
4.489636066
 20
0.213717291
  0
VERTEX
  8
0
 62
7
  6
CONTINUOUS
 10
4.4710124177
 20
1.5975294716
  0
VERTEX
  8
0
 62
7
  6
CONTINUOUS
 10
4.452184513
 20
3.1043930484
  0
VERTEX
  8
0
 62
7
  6
CONTINUOUS
 10
4.4323796155
 20
4.8267926242
  0
VERTEX
  8
0
 62
7
  6
CONTINUOUS
 10
4.414371491
 20
6.5369609667
  0
VERTEX
  8
0
 62
7
  6
CONTINUOUS
 10
4.3995324457
 20
8.0666460216
  0
VERTEX
  8
0
 62
7
  6
CONTINUOUS
 10
4.3872787423
 20
9.4234910608
  0
VERTEX
  8
0
 62
7
  6
CONTINUOUS
 10
4.3766698023
 20
10.6742067511
  0
VERTEX
  8
0
 62
7
  6
CONTINUOUS
 10
4.3677634868
 20
11.7833627311
  0
VERTEX
  8
0
 62
7
  6
CONTINUOUS
 10
4.3603712209
 20
12.7474811943
  0
VERTEX
  8
0
 62
7
  6
CONTINUOUS
 10
4.3541974969
 20
13.5841729177
  0
VERTEX
  8
0
 62
7
  6
CONTINUOUS
 10
4.3488251721
 20
14.3361717097
  0
VERTEX
  8
0
 62
7
  6
CONTINUOUS
 10
4.3434204246
 20
15.1154169301
  0
VERTEX
  8
0
 62
7
  6
CONTINUOUS
 10
4.337531705
 20
15.9903913135
  0
VERTEX
  8
0
 62
7
  6
CONTINUOUS
 10
4.3322569628
 20
16.7969101084
  0
VERTEX
  8
0
 62
7
  6
CONTINUOUS
 10
4.3277645884
 20
17.4999672515
  0
VERTEX
  8
0
 62
7
  6
CONTINUOUS
 10
4.3239084723
 20
18.1150593006
  0
VERTEX
  8
0
 62
7
  6
CONTINUOUS
 10
4.3205691328
 20
18.656002852
  0
VERTEX
  8
0
 62
7
  6
CONTINUOUS
 10
4.3170224208
 20
19.2383956781
  0
VERTEX
  8
0
 62
7
  6
CONTINUOUS
 10
4.3134891958
 20
19.8261823989
  0
VERTEX
  8
0
 62
7
  6
CONTINUOUS
 10
4.3099839241
 20
20.4167962906
  0
VERTEX
  8
0
 62
7
  6
CONTINUOUS
 10
4.3060500397
 20
21.0882569675
  0
VERTEX
  8
0
 62
7
  6
CONTINUOUS
 10
4.3016167739
 20
21.8552272798
  0
VERTEX
  8
0
 62
7
  6
CONTINUOUS
 10
4.2969303901
 20
22.6774276263
  0
VERTEX
  8
0
 62
7
  6
CONTINUOUS
 10
4.2918536778
 20
23.5802202817
  0
VERTEX
  8
0
 62
7
  6
CONTINUOUS
 10
4.2861281605
 20
24.61211585
  0
VERTEX
  8
0
 62
7
  6
CONTINUOUS
 10
4.2798449985
 20
25.759095704
  0
VERTEX
  8
0
 62
7
  6
CONTINUOUS
 10
4.2732998961
 20
26.9671536982
  0
VERTEX
  8
0
 62
7
  6
CONTINUOUS
 10
4.2658998021
 20
28.3451586638
  0
VERTEX
  8
0
 62
7
  6
CONTINUOUS
 10
4.2575342567
 20
29.9122740544
  0
VERTEX
  8
0
 62
7
  6
CONTINUOUS
 10
4.2496064456
 20
31.400111122
  0
VERTEX
  8
0
 62
7
  6
CONTINUOUS
 10
4.2363977994
 20
33.8685392276
  0
SEQEND
  0
POLYLINE
  8
0
 62
7
  6
CONTINUOUS
 66
1
 70
0
  0
VERTEX
  8
0
 62
7
  6
CONTINUOUS
 10
3.5954037834
 20
104.2124805912
  0
VERTEX
  8
0
 62
7
  6
CONTINUOUS
 10
3.5830448389
 20
105.2360155459
  0
VERTEX
  8
0
 62
7
  6
CONTINUOUS
 10
3.5689759518
 20
106.4024533431
  0
VERTEX
  8
0
 62
7
  6
CONTINUOUS
 10
3.5531605153
 20
107.716173379
  0
VERTEX
  8
0
 62
7
  6
CONTINUOUS
 10
3.5359532677
 20
109.1498696669
  0
VERTEX
  8
0
 62
7
  6
CONTINUOUS
 10
3.5167683962
 20
110.7555496532
  0
VERTEX
  8
0
 62
7
  6
CONTINUOUS
 10
3.4986038374
 20
112.2845788066
  0
VERTEX
  8
0
 62
7
  6
CONTINUOUS
 10
3.4826520374
 20
113.6357642449
  0
VERTEX
  8
0
 62
7
  6
CONTINUOUS
 10
3.4664359953
 20
115.0190355082
  0
VERTEX
  8
0
 62
7
  6
CONTINUOUS
 10
3.4502744323
 20
116.408982652
  0
VERTEX
  8
0
 62
7
  6
CONTINUOUS
 10
3.4340260339
 20
117.8192481448
  0
VERTEX
  8
0
 62
7
  6
CONTINUOUS
 10
3.4171180219
 20
119.3023116272
  0
VERTEX
  8
0
 62
7
  6
CONTINUOUS
 10
3.4018210498
 20
120.6596882668
  0
VERTEX
  8
0
 62
7
  6
CONTINUOUS
 10
3.3886212445
 20
121.8444433414
  0
VERTEX
  8
0
 62
7
  6
CONTINUOUS
 10
3.3769533952
 20
122.9030907455
  0
VERTEX
  8
0
 62
7
  6
CONTINUOUS
 10
3.3660738654
 20
123.9005522331
  0
VERTEX
  8
0
 62
7
  6
CONTINUOUS
 10
3.355795218
 20
124.8528861796
  0
VERTEX
  8
0
 62
7
  6
CONTINUOUS
 10
3.3456923955
 20
125.7991216996
  0
VERTEX
  8
0
 62
7
  6
CONTINUOUS
 10
3.3357180139
 20
126.7439567863
  0
VERTEX
  8
0
 62
7
  6
CONTINUOUS
 10
3.3248456514
 20
127.7868286042
  0
VERTEX
  8
0
 62
7
  6
CONTINUOUS
 10
3.3146518526
 20
128.7779388175
  0
VERTEX
  8
0
 62
7
  6
CONTINUOUS
 10
3.3057738157
 20
129.6524805461
  0
VERTEX
  8
0
 62
7
  6
CONTINUOUS
 10
3.29737325
 20
130.4904373957
  0
VERTEX
  8
0
 62
7
  6
CONTINUOUS
 10
3.2878763436
 20
131.4508677272
  0
VERTEX
  8
0
 62
7
  6
CONTINUOUS
 10
3.277134196
 20
132.5552020273
  0
VERTEX
  8
0
 62
7
  6
CONTINUOUS
 10
3.2652459633
 20
133.8013432414
  0
VERTEX
  8
0
 62
7
  6
CONTINUOUS
 10
3.2542929029
 20
134.9740271939
  0
VERTEX
  8
0
 62
7
  6
CONTINUOUS
 10
3.244660071
 20
136.0269875939
  0
VERTEX
  8
0
 62
7
  6
CONTINUOUS
 10
3.2362043292
 20
136.9694555831
  0
VERTEX
  8
0
 62
7
  6
CONTINUOUS
 10
3.2288629646
 20
137.8025911153
  0
VERTEX
  8
0
 62
7
  6
CONTINUOUS
 10
3.2223301354
 20
138.5564620253
  0
VERTEX
  8
0
 62
7
  6
CONTINUOUS
 10
3.2155031522
 20
139.3577337321
  0
VERTEX
  8
0
 62
7
  6
CONTINUOUS
 10
3.2078286805
 20
140.27598732
  0
VERTEX
  8
0
 62
7
  6
CONTINUOUS
 10
3.2004230391
 20
141.1810836308
  0
VERTEX
  8
0
 62
7
  6
CONTINUOUS
 10
3.1938587532
 20
142.0003360934
  0
VERTEX
  8
0
 62
7
  6
CONTINUOUS
 10
3.1875289986
 20
142.8066534408
  0
VERTEX
  8
0
 62
7
  6
CONTINUOUS
 10
3.1807758496
 20
143.6859763192
  0
VERTEX
  8
0
 62
7
  6
CONTINUOUS
 10
3.1732549694
 20
144.6904818771
  0
VERTEX
  8
0
 62
7
  6
CONTINUOUS
 10
3.1648662654
 20
145.8455613953
  0
VERTEX
  8
0
 62
7
  6
CONTINUOUS
 10
3.1561906574
 20
147.0832987878
  0
VERTEX
  8
0
 62
7
  6
CONTINUOUS
 10
3.1485659649
 20
148.2119789951
  0
SEQEND
  0
POLYLINE
  8
0
 62
7
  6
CONTINUOUS
 66
1
 70
0
  0
VERTEX
  8
0
 62
7
  6
CONTINUOUS
 10
3.6670151829
 20
98.2777642292
  0
VERTEX
  8
0
 62
7
  6
CONTINUOUS
 10
3.6547554418
 20
99.29671397
  0
VERTEX
  8
0
 62
7
  6
CONTINUOUS
 10
3.6413956411
 20
100.405031798
  0
VERTEX
  8
0
 62
7
  6
CONTINUOUS
 10
3.6291906829
 20
101.4161316673
  0
VERTEX
  8
0
 62
7
  6
CONTINUOUS
 10
3.5954037834
 20
104.2124805912
  0
SEQEND
  0
POLYLINE
  8
0
 62
7
  6
CONTINUOUS
 66
1
 70
0
  0
VERTEX
  8
0
 62
7
  6
CONTINUOUS
 10
3.7198519724
 20
93.8544733987
  0
VERTEX
  8
0
 62
7
  6
CONTINUOUS
 10
3.7110731828
 20
94.5941152099
  0
VERTEX
  8
0
 62
7
  6
CONTINUOUS
 10
3.7033012297
 20
95.2470988215
  0
VERTEX
  8
0
 62
7
  6
CONTINUOUS
 10
3.6957734798
 20
95.878095067
  0
VERTEX
  8
0
 62
7
  6
CONTINUOUS
 10
3.6872609701
 20
96.5900665557
  0
VERTEX
  8
0
 62
7
  6
CONTINUOUS
 10
3.6670151829
 20
98.2777642292
  0
SEQEND
  0
POLYLINE
  8
0
 62
7
  6
CONTINUOUS
 66
1
 70
0
  0
VERTEX
  8
0
 62
7
  6
CONTINUOUS
 10
3.7496551126
 20
91.3256150865
  0
VERTEX
  8
0
 62
7
  6
CONTINUOUS
 10
3.7403236004
 20
92.120569756
  0
VERTEX
  8
0
 62
7
  6
CONTINUOUS
 10
3.7198519724
 20
93.8544733987
  0
SEQEND
  0
POLYLINE
  8
0
 62
7
  6
CONTINUOUS
 66
1
 70
0
  0
VERTEX
  8
0
 62
7
  6
CONTINUOUS
 10
3.1485659649
 20
148.2119789951
  0
VERTEX
  8
0
 62
7
  6
CONTINUOUS
 10
3.1420546146
 20
149.2099925334
  0
VERTEX
  8
0
 62
7
  6
CONTINUOUS
 10
3.1361426385
 20
150.1466876364
  0
VERTEX
  8
0
 62
7
  6
CONTINUOUS
 10
3.1306307554
 20
151.049201151
  0
VERTEX
  8
0
 62
7
  6
CONTINUOUS
 10
3.1252539708
 20
151.9599081693
  0
VERTEX
  8
0
 62
7
  6
CONTINUOUS
 10
3.1196681002
 20
152.9416267272
  0
VERTEX
  8
0
 62
7
  6
CONTINUOUS
 10
3.1139814411
 20
153.9830328296
  0
VERTEX
  8
0
 62
7
  6
CONTINUOUS
 10
3.1083031332
 20
155.0711840026
  0
VERTEX
  8
0
 62
7
  6
CONTINUOUS
 10
3.1025628099
 20
156.2282645082
  0
VERTEX
  8
0
 62
7
  6
CONTINUOUS
 10
3.0971921027
 20
157.3721351334
  0
VERTEX
  8
0
 62
7
  6
CONTINUOUS
 10
3.0915246609
 20
158.6563746879
  0
VERTEX
  8
0
 62
7
  6
CONTINUOUS
 10
3.0858233102
 20
160.0461444091
  0
VERTEX
  8
0
 62
7
  6
CONTINUOUS
 10
3.0808059228
 20
161.3708455737
  0
VERTEX
  8
0
 62
7
  6
CONTINUOUS
 10
3.0764745593
 20
162.6120307352
  0
VERTEX
  8
0
 62
7
  6
CONTINUOUS
 10
3.0723416187
 20
163.9055756532
  0
VERTEX
  8
0
 62
7
  6
CONTINUOUS
 10
3.0684337012
 20
165.2585570677
  0
VERTEX
  8
0
 62
7
  6
CONTINUOUS
 10
3.0650881435
 20
166.5530972882
  0
VERTEX
  8
0
 62
7
  6
CONTINUOUS
 10
3.0624600214
 20
167.6918917752
  0
VERTEX
  8
0
 62
7
  6
CONTINUOUS
 10
3.0603769535
 20
168.700079303
  0
VERTEX
  8
0
 62
7
  6
CONTINUOUS
 10
3.0586575136
 20
169.629273514
  0
VERTEX
  8
0
 62
7
  6
CONTINUOUS
 10
3.0571321816
 20
170.5558668792
  0
VERTEX
  8
0
 62
7
  6
CONTINUOUS
 10
3.0557249109
 20
171.5350517417
  0
VERTEX
  8
0
 62
7
  6
CONTINUOUS
 10
3.0544727094
 20
172.5619231453
  0
VERTEX
  8
0
 62
7
  6
CONTINUOUS
 10
3.053547812
 20
173.4746010768
  0
VERTEX
  8
0
 62
7
  6
CONTINUOUS
 10
3.0527768969
 20
174.4154003911
  0
VERTEX
  8
0
 62
7
  6
CONTINUOUS
 10
3.0521201659
 20
175.4883507771
  0
VERTEX
  8
0
 62
7
  6
CONTINUOUS
 10
3.0516909822
 20
176.5766060664
  0
VERTEX
  8
0
 62
7
  6
CONTINUOUS
 10
3.0515043964
 20
177.5570482032
  0
VERTEX
  8
0
 62
7
  6
CONTINUOUS
 10
3.0514957017
 20
178.4317383258
  0
VERTEX
  8
0
 62
7
  6
CONTINUOUS
 10
3.0516074345
 20
179.2012478425
  0
VERTEX
  8
0
 62
7
  6
CONTINUOUS
 10
3.0517955728
 20
179.8784462917
  0
VERTEX
  8
0
 62
7
  6
CONTINUOUS
 10
3.0520533459
 20
180.5273788186
  0
VERTEX
  8
0
 62
7
  6
CONTINUOUS
 10
3.0524275333
 20
181.2489973327
  0
VERTEX
  8
0
 62
7
  6
CONTINUOUS
 10
3.0529617318
 20
182.068739244
  0
VERTEX
  8
0
 62
7
  6
CONTINUOUS
 10
3.0537058328
 20
183.0009496158
  0
VERTEX
  8
0
 62
7
  6
CONTINUOUS
 10
3.054584781
 20
183.9275636114
  0
VERTEX
  8
0
 62
7
  6
CONTINUOUS
 10
3.0554743738
 20
184.7477201121
  0
VERTEX
  8
0
 62
7
  6
CONTINUOUS
 10
3.0563471211
 20
185.4749362188
  0
VERTEX
  8
0
 62
7
  6
CONTINUOUS
 10
3.057297695
 20
186.2034543711
  0
VERTEX
  8
0
 62
7
  6
CONTINUOUS
 10
3.0584766106
 20
187.0375507581
  0
VERTEX
  8
0
 62
7
  6
CONTINUOUS
 10
3.0598666884
 20
187.9462561707
  0
VERTEX
  8
0
 62
7
  6
CONTINUOUS
 10
3.0614176821
 20
188.8893095782
  0
VERTEX
  8
0
 62
7
  6
CONTINUOUS
 10
3.0630354643
 20
189.8120925177
  0
VERTEX
  8
0
 62
7
  6
CONTINUOUS
 10
3.0649870546
 20
190.8615450822
  0
VERTEX
  8
0
 62
7
  6
CONTINUOUS
 10
3.0671933376
 20
191.982983338
  0
VERTEX
  8
0
 62
7
  6
CONTINUOUS
 10
3.0692649993
 20
192.9878485527
  0
VERTEX
  8
0
 62
7
  6
CONTINUOUS
 10
3.0711780309
 20
193.8834999264
  0
VERTEX
  8
0
 62
7
  6
CONTINUOUS
 10
3.0730544181
 20
194.7378676595
  0
VERTEX
  8
0
 62
7
  6
CONTINUOUS
 10
3.0752380964
 20
195.7081943586
  0
SEQEND
  0
POLYLINE
  8
0
 62
7
  6
CONTINUOUS
 66
1
 70
0
  0
VERTEX
  8
0
 62
7
  6
CONTINUOUS
 10
4.2363977994
 20
33.8685392276
  0
VERTEX
  8
0
 62
7
  6
CONTINUOUS
 10
4.2296953368
 20
35.1094562051
  0
VERTEX
  8
0
 62
7
  6
CONTINUOUS
 10
4.2231945901
 20
36.3020168548
  0
VERTEX
  8
0
 62
7
  6
CONTINUOUS
 10
4.2169653204
 20
37.4326781697
  0
VERTEX
  8
0
 62
7
  6
CONTINUOUS
 10
4.21108079
 20
38.4884229451
  0
VERTEX
  8
0
 62
7
  6
CONTINUOUS
 10
4.2054084003
 20
39.4938675163
  0
VERTEX
  8
0
 62
7
  6
CONTINUOUS
 10
4.1989146688
 20
40.6290470789
  0
VERTEX
  8
0
 62
7
  6
CONTINUOUS
 10
4.1915055593
 20
41.9026362202
  0
VERTEX
  8
0
 62
7
  6
CONTINUOUS
 10
4.1828618646
 20
43.3583485172
  0
VERTEX
  8
0
 62
7
  6
CONTINUOUS
 10
4.1736853272
 20
44.8676535956
  0
VERTEX
  8
0
 62
7
  6
CONTINUOUS
 10
4.1639845688
 20
46.422653615
  0
VERTEX
  8
0
 62
7
  6
CONTINUOUS
 10
4.1544044687
 20
47.917997637
  0
VERTEX
  8
0
 62
7
  6
CONTINUOUS
 10
4.1457934593
 20
49.2287293993
  0
VERTEX
  8
0
 62
7
  6
CONTINUOUS
 10
4.1379906735
 20
50.3899993119
  0
VERTEX
  8
0
 62
7
  6
CONTINUOUS
 10
4.1309553979
 20
51.4162055716
  0
VERTEX
  8
0
 62
7
  6
CONTINUOUS
 10
4.1246078892
 20
52.3256756747
  0
VERTEX
  8
0
 62
7
  6
CONTINUOUS
 10
4.118927861
 20
53.1267222989
  0
VERTEX
  8
0
 62
7
  6
CONTINUOUS
 10
4.1138483363
 20
53.8331537739
  0
VERTEX
  8
0
 62
7
  6
CONTINUOUS
 10
4.1086979115
 20
54.5401464426
  0
VERTEX
  8
0
 62
7
  6
CONTINUOUS
 10
4.1028198111
 20
55.3359200924
  0
VERTEX
  8
0
 62
7
  6
CONTINUOUS
 10
4.0960467924
 20
56.2386618123
  0
VERTEX
  8
0
 62
7
  6
CONTINUOUS
 10
4.0883060742
 20
57.252494031
  0
VERTEX
  8
0
 62
7
  6
CONTINUOUS
 10
4.0793907201
 20
58.3975813376
  0
VERTEX
  8
0
 62
7
  6
CONTINUOUS
 10
4.0689694085
 20
59.7070911362
  0
VERTEX
  8
0
 62
7
  6
CONTINUOUS
 10
4.0567286369
 20
61.2077020974
  0
VERTEX
  8
0
 62
7
  6
CONTINUOUS
 10
4.0426075489
 20
62.892095565
  0
VERTEX
  8
0
 62
7
  6
CONTINUOUS
 10
4.0284491151
 20
64.5346382471
  0
VERTEX
  8
0
 62
7
  6
CONTINUOUS
 10
4.0153974662
 20
66.010957866
  0
VERTEX
  8
0
 62
7
  6
CONTINUOUS
 10
4.0034724255
 20
67.3305685424
  0
VERTEX
  8
0
 62
7
  6
CONTINUOUS
 10
3.99262148
 20
68.5086405806
  0
VERTEX
  8
0
 62
7
  6
CONTINUOUS
 10
3.9828400177
 20
69.5532808743
  0
VERTEX
  8
0
 62
7
  6
CONTINUOUS
 10
3.9724808946
 20
70.6427397186
  0
VERTEX
  8
0
 62
7
  6
CONTINUOUS
 10
3.961516344
 20
71.7780222037
  0
VERTEX
  8
0
 62
7
  6
CONTINUOUS
 10
3.9510744533
 20
72.8429647575
  0
VERTEX
  8
0
 62
7
  6
CONTINUOUS
 10
3.9415669151
 20
73.7997667901
  0
VERTEX
  8
0
 62
7
  6
CONTINUOUS
 10
3.931938855
 20
74.7573568516
  0
VERTEX
  8
0
 62
7
  6
CONTINUOUS
 10
3.9226372958
 20
75.6720060499
  0
VERTEX
  8
0
 62
7
  6
CONTINUOUS
 10
3.9135828033
 20
76.5527414884
  0
VERTEX
  8
0
 62
7
  6
CONTINUOUS
 10
3.9050840966
 20
77.3711577578
  0
VERTEX
  8
0
 62
7
  6
CONTINUOUS
 10
3.8972801107
 20
78.1160190105
  0
VERTEX
  8
0
 62
7
  6
CONTINUOUS
 10
3.8895129997
 20
78.8513846696
  0
VERTEX
  8
0
 62
7
  6
CONTINUOUS
 10
3.8806229373
 20
79.6861412096
  0
VERTEX
  8
0
 62
7
  6
CONTINUOUS
 10
3.8705085587
 20
80.6271724738
  0
VERTEX
  8
0
 62
7
  6
CONTINUOUS
 10
3.8588915055
 20
81.6973180404
  0
VERTEX
  8
0
 62
7
  6
CONTINUOUS
 10
3.84619382
 20
82.8548529905
  0
VERTEX
  8
0
 62
7
  6
CONTINUOUS
 10
3.8347638143
 20
83.8866212509
  0
VERTEX
  8
0
 62
7
  6
CONTINUOUS
 10
3.8245637873
 20
84.7996797376
  0
VERTEX
  8
0
 62
7
  6
CONTINUOUS
 10
3.8155013401
 20
85.6052207875
  0
VERTEX
  8
0
 62
7
  6
CONTINUOUS
 10
3.8063193302
 20
86.4163654378
  0
VERTEX
  8
0
 62
7
  6
CONTINUOUS
 10
3.7966655285
 20
87.2641533405
  0
VERTEX
  8
0
 62
7
  6
CONTINUOUS
 10
3.7861410384
 20
88.1826958064
  0
VERTEX
  8
0
 62
7
  6
CONTINUOUS
 10
3.7756494062
 20
89.0927058849
  0
VERTEX
  8
0
 62
7
  6
CONTINUOUS
 10
3.766247791
 20
89.9036948484
  0
VERTEX
  8
0
 62
7
  6
CONTINUOUS
 10
3.7496551126
 20
91.3256150865
  0
SEQEND
  0
POLYLINE
  8
0
 62
7
  6
CONTINUOUS
 66
1
 70
0
  0
VERTEX
  8
0
 62
7
  6
CONTINUOUS
 10
3.0752380964
 20
195.7081943586
  0
VERTEX
  8
0
 62
7
  6
CONTINUOUS
 10
3.0798794001
 20
197.7114266155
  0
VERTEX
  8
0
 62
7
  6
CONTINUOUS
 10
3.0819010335
 20
198.5682509559
  0
VERTEX
  8
0
 62
7
  6
CONTINUOUS
 10
3.084083845
 20
199.4882461936
  0
VERTEX
  8
0
 62
7
  6
CONTINUOUS
 10
3.0865592092
 20
200.5302665684
  0
VERTEX
  8
0
 62
7
  6
CONTINUOUS
 10
3.0893406442
 20
201.7072860266
  0
VERTEX
  8
0
 62
7
  6
CONTINUOUS
 10
3.0921847561
 20
202.927333965
  0
VERTEX
  8
0
 62
7
  6
CONTINUOUS
 10
3.095310715
 20
204.3020503511
  0
VERTEX
  8
0
 62
7
  6
CONTINUOUS
 10
3.0987284258
 20
205.8706750241
  0
VERTEX
  8
0
 62
7
  6
CONTINUOUS
 10
3.1019726991
 20
207.460796525
  0
VERTEX
  8
0
 62
7
  6
CONTINUOUS
 10
3.1046351585
 20
208.8835394643
  0
VERTEX
  8
0
 62
7
  6
CONTINUOUS
 10
3.1068306932
 20
210.1856472171
  0
VERTEX
  8
0
 62
7
  6
CONTINUOUS
 10
3.1085745046
 20
211.3557073587
  0
VERTEX
  8
0
 62
7
  6
CONTINUOUS
 10
3.1099268148
 20
212.4027792838
  0
VERTEX
  8
0
 62
7
  6
CONTINUOUS
 10
3.1109581081
 20
213.3456034187
  0
VERTEX
  8
0
 62
7
  6
CONTINUOUS
 10
3.1117267707
 20
214.2004223339
  0
VERTEX
  8
0
 62
7
  6
CONTINUOUS
 10
3.1122765173
 20
214.9755204342
  0
VERTEX
  8
0
 62
7
  6
CONTINUOUS
 10
3.112641871
 20
215.6688117525
  0
VERTEX
  8
0
 62
7
  6
CONTINUOUS
 10
3.1128839531
 20
216.3744654065
  0
VERTEX
  8
0
 62
7
  6
CONTINUOUS
 10
3.1129910899
 20
217.1815703637
  0
VERTEX
  8
0
 62
7
  6
CONTINUOUS
 10
3.112890271
 20
218.0578148676
  0
VERTEX
  8
0
 62
7
  6
CONTINUOUS
 10
3.1125916899
 20
218.8525786383
  0
VERTEX
  8
0
 62
7
  6
CONTINUOUS
 10
3.1121525851
 20
219.5577125948
  0
VERTEX
  8
0
 62
7
  6
CONTINUOUS
 10
3.1116119542
 20
220.1911004454
  0
VERTEX
  8
0
 62
7
  6
CONTINUOUS
 10
3.1110064142
 20
220.7584904647
  0
VERTEX
  8
0
 62
7
  6
CONTINUOUS
 10
3.110359718
 20
221.271806143
  0
VERTEX
  8
0
 62
7
  6
CONTINUOUS
 10
3.1096060163
 20
221.7940103866
  0
VERTEX
  8
0
 62
7
  6
CONTINUOUS
 10
3.1086470497
 20
222.3792127934
  0
VERTEX
  8
0
 62
7
  6
CONTINUOUS
 10
3.1074009381
 20
223.0495414405
  0
VERTEX
  8
0
 62
7
  6
CONTINUOUS
 10
3.1057904885
 20
223.8134183165
  0
VERTEX
  8
0
 62
7
  6
CONTINUOUS
 10
3.1037308849
 20
224.675668879
  0
VERTEX
  8
0
 62
7
  6
CONTINUOUS
 10
3.1010740117
 20
225.6582939644
  0
VERTEX
  8
0
 62
7
  6
CONTINUOUS
 10
3.0978522757
 20
226.7150329887
  0
VERTEX
  8
0
 62
7
  6
CONTINUOUS
 10
3.0939506417
 20
227.857185781
  0
VERTEX
  8
0
 62
7
  6
CONTINUOUS
 10
3.0889860276
 20
229.1572831293
  0
VERTEX
  8
0
 62
7
  6
CONTINUOUS
 10
3.0834085666
 20
230.4716162951
  0
VERTEX
  8
0
 62
7
  6
CONTINUOUS
 10
3.0780328837
 20
231.6302807853
  0
VERTEX
  8
0
 62
7
  6
CONTINUOUS
 10
3.0728733341
 20
232.6650772005
  0
VERTEX
  8
0
 62
7
  6
CONTINUOUS
 10
3.0674813706
 20
233.6813080982
  0
VERTEX
  8
0
 62
7
  6
CONTINUOUS
 10
3.0619248443
 20
234.671035455
  0
VERTEX
  8
0
 62
7
  6
CONTINUOUS
 10
3.0567966641
 20
235.5406214454
  0
VERTEX
  8
0
 62
7
  6
CONTINUOUS
 10
3.0520581071
 20
236.3117494877
  0
VERTEX
  8
0
 62
7
  6
CONTINUOUS
 10
3.0477561206
 20
236.9880581643
  0
VERTEX
  8
0
 62
7
  6
CONTINUOUS
 10
3.0435732945
 20
237.6261664288
  0
VERTEX
  8
0
 62
7
  6
CONTINUOUS
 10
3.0388128444
 20
238.3312535237
  0
VERTEX
  8
0
 62
7
  6
CONTINUOUS
 10
3.0332490848
 20
239.1296124605
  0
VERTEX
  8
0
 62
7
  6
CONTINUOUS
 10
3.0267223621
 20
240.0344941001
  0
VERTEX
  8
0
 62
7
  6
CONTINUOUS
 10
3.0191426469
 20
241.0471275429
  0
VERTEX
  8
0
 62
7
  6
CONTINUOUS
 10
3.0116967086
 20
242.0063781502
  0
VERTEX
  8
0
 62
7
  6
CONTINUOUS
 10
3.0047338275
 20
242.8750600153
  0
VERTEX
  8
0
 62
7
  6
CONTINUOUS
 10
2.9974265992
 20
243.7602409925
  0
VERTEX
  8
0
 62
7
  6
CONTINUOUS
 10
2.9895393822
 20
244.6882121625
  0
VERTEX
  8
0
 62
7
  6
CONTINUOUS
 10
2.9802616529
 20
245.7469241824
  0
VERTEX
  8
0
 62
7
  6
CONTINUOUS
 10
2.9706859089
 20
246.806140642
  0
VERTEX
  8
0
 62
7
  6
CONTINUOUS
 10
2.9607955275
 20
247.8680265349
  0
VERTEX
  8
0
 62
7
  6
CONTINUOUS
 10
2.9490980113
 20
249.0860516044
  0
VERTEX
  8
0
 62
7
  6
CONTINUOUS
 10
2.9353964136
 20
250.4661361522
  0
VERTEX
  8
0
 62
7
  6
CONTINUOUS
 10
2.9192513484
 20
252.0354121587
  0
VERTEX
  8
0
 62
7
  6
CONTINUOUS
 10
2.9010557739
 20
253.7394748877
  0
VERTEX
  8
0
 62
7
  6
CONTINUOUS
 10
2.8829811286
 20
255.3729782951
  0
VERTEX
  8
0
 62
7
  6
CONTINUOUS
 10
2.865535788
 20
256.9003027246
  0
VERTEX
  8
0
 62
7
  6
CONTINUOUS
 10
2.8497342531
 20
258.2464688585
  0
VERTEX
  8
0
 62
7
  6
CONTINUOUS
 10
2.8352147291
 20
259.4551324074
  0
VERTEX
  8
0
 62
7
  6
CONTINUOUS
 10
2.8218630836
 20
260.5446264343
  0
VERTEX
  8
0
 62
7
  6
CONTINUOUS
 10
2.8069125006
 20
261.7415621314
  0
VERTEX
  8
0
 62
7
  6
CONTINUOUS
 10
2.789585013
 20
263.1007603001
  0
VERTEX
  8
0
 62
7
  6
CONTINUOUS
 10
2.7693008959
 20
264.6569485862
  0
VERTEX
  8
0
 62
7
  6
CONTINUOUS
 10
2.7488325748
 20
266.1924765599
  0
VERTEX
  8
0
 62
7
  6
CONTINUOUS
 10
2.7305766829
 20
267.5351501101
  0
VERTEX
  8
0
 62
7
  6
CONTINUOUS
 10
2.7140863306
 20
268.7279914613
  0
VERTEX
  8
0
 62
7
  6
CONTINUOUS
 10
2.6993704162
 20
269.7775831595
  0
VERTEX
  8
0
 62
7
  6
CONTINUOUS
 10
2.6860882587
 20
270.7134751923
  0
VERTEX
  8
0
 62
7
  6
CONTINUOUS
 10
2.6741713824
 20
271.544398933
  0
VERTEX
  8
0
 62
7
  6
CONTINUOUS
 10
2.6626294282
 20
272.3416731233
  0
VERTEX
  8
0
 62
7
  6
CONTINUOUS
 10
2.6505327159
 20
273.1697030292
  0
VERTEX
  8
0
 62
7
  6
CONTINUOUS
 10
2.6364798542
 20
274.1223969538
  0
VERTEX
  8
0
 62
7
  6
CONTINUOUS
 10
2.6206885797
 20
275.1817618841
  0
VERTEX
  8
0
 62
7
  6
CONTINUOUS
 10
2.6033236646
 20
276.3338651075
  0
VERTEX
  8
0
 62
7
  6
CONTINUOUS
 10
2.5850762559
 20
277.530801895
  0
VERTEX
  8
0
 62
7
  6
CONTINUOUS
 10
2.5661550361
 20
278.7578901803
  0
VERTEX
  8
0
 62
7
  6
CONTINUOUS
 10
2.5464092757
 20
280.0242058314
  0
VERTEX
  8
0
 62
7
  6
CONTINUOUS
 10
2.5241660443
 20
281.43446194
  0
VERTEX
  8
0
 62
7
  6
CONTINUOUS
 10
2.4983369119
 20
283.0521514025
  0
VERTEX
  8
0
 62
7
  6
CONTINUOUS
 10
2.4685491576
 20
284.8933972472
  0
VERTEX
  8
0
 62
7
  6
CONTINUOUS
 10
2.4386764205
 20
286.7159184432
  0
VERTEX
  8
0
 62
7
  6
CONTINUOUS
 10
2.4104142258
 20
288.4200244721
  0
VERTEX
  8
0
 62
7
  6
CONTINUOUS
 10
2.3815749042
 20
290.1404881428
  0
VERTEX
  8
0
 62
7
  6
CONTINUOUS
 10
2.349630351
 20
292.0264269714
  0
VERTEX
  8
0
 62
7
  6
CONTINUOUS
 10
2.3127977718
 20
294.1777384763
  0
VERTEX
  8
0
 62
7
  6
CONTINUOUS
 10
2.2716152314
 20
296.5570230308
  0
VERTEX
  8
0
 62
7
  6
CONTINUOUS
 10
2.233129978
 20
298.7586172701
  0
VERTEX
  8
0
 62
7
  6
CONTINUOUS
 10
2.1949634659
 20
300.9238288958
  0
VERTEX
  8
0
 62
7
  6
CONTINUOUS
 10
2.1527807733
 20
303.2987036208
  0
VERTEX
  8
0
 62
7
  6
CONTINUOUS
 10
2.1059633753
 20
305.9156390826
  0
VERTEX
  8
0
 62
7
  6
CONTINUOUS
 10
2.062420984
 20
308.3349460025
  0
VERTEX
  8
0
 62
7
  6
CONTINUOUS
 10
2.0210423627
 20
310.6236857711
  0
VERTEX
  8
0
 62
7
  6
CONTINUOUS
 10
1.9742829464
 20
313.2008573966
  0
VERTEX
  8
0
 62
7
  6
CONTINUOUS
 10
1.9278563664
 20
315.7530817098
  0
VERTEX
  8
0
 62
7
  6
CONTINUOUS
 10
1.8805760111
 20
318.3486210422
  0
VERTEX
  8
0
 62
7
  6
CONTINUOUS
 10
1.8352786916
 20
320.8347364593
  0
VERTEX
  8
0
 62
7
  6
CONTINUOUS
 10
1.7944515364
 20
323.0773134178
  0
VERTEX
  8
0
 62
7
  6
CONTINUOUS
 10
1.7567399917
 20
325.1520466964
  0
VERTEX
  8
0
 62
7
  6
CONTINUOUS
 10
1.7233689477
 20
326.991911974
  0
VERTEX
  8
0
 62
7
  6
CONTINUOUS
 10
1.693314115
 20
328.6530334066
  0
VERTEX
  8
0
 62
7
  6
CONTINUOUS
 10
1.666385136
 20
330.1453845399
  0
VERTEX
  8
0
 62
7
  6
CONTINUOUS
 10
1.6423363892
 20
331.4818098759
  0
VERTEX
  8
0
 62
7
  6
CONTINUOUS
 10
1.6184594604
 20
332.8125751471
  0
VERTEX
  8
0
 62
7
  6
CONTINUOUS
 10
1.5913016967
 20
334.331455722
  0
VERTEX
  8
0
 62
7
  6
CONTINUOUS
 10
1.5624629012
 20
335.9511811679
  0
VERTEX
  8
0
 62
7
  6
CONTINUOUS
 10
1.5365038854
 20
337.4158337593
  0
VERTEX
  8
0
 62
7
  6
CONTINUOUS
 10
1.5131181431
 20
338.7412241427
  0
VERTEX
  8
0
 62
7
  6
CONTINUOUS
 10
1.4923369894
 20
339.9241019896
  0
VERTEX
  8
0
 62
7
  6
CONTINUOUS
 10
1.4733668196
 20
341.0083818139
  0
VERTEX
  8
0
 62
7
  6
CONTINUOUS
 10
1.4524090302
 20
342.2115678596
  0
VERTEX
  8
0
 62
7
  6
CONTINUOUS
 10
1.431718744
 20
343.4052053335
  0
VERTEX
  8
0
 62
7
  6
CONTINUOUS
 10
1.4133328364
 20
344.4710270097
  0
VERTEX
  8
0
 62
7
  6
CONTINUOUS
 10
1.3950889512
 20
345.5336692679
  0
VERTEX
  8
0
 62
7
  6
CONTINUOUS
 10
1.3761849915
 20
346.6403457506
  0
VERTEX
  8
0
 62
7
  6
CONTINUOUS
 10
1.354900638
 20
347.8935690126
  0
VERTEX
  8
0
 62
7
  6
CONTINUOUS
 10
1.3307797422
 20
349.3235842863
  0
VERTEX
  8
0
 62
7
  6
CONTINUOUS
 10
1.3049559074
 20
350.8667896515
  0
VERTEX
  8
0
 62
7
  6
CONTINUOUS
 10
1.2816481604
 20
352.2713549252
  0
VERTEX
  8
0
 62
7
  6
CONTINUOUS
 10
1.2611806056
 20
353.5144414709
  0
VERTEX
  8
0
 62
7
  6
CONTINUOUS
 10
1.2434141751
 20
354.6012340313
  0
VERTEX
  8
0
 62
7
  6
CONTINUOUS
 10
1.2276909238
 20
355.5693748959
  0
VERTEX
  8
0
 62
7
  6
CONTINUOUS
 10
1.2130329018
 20
356.4774997817
  0
VERTEX
  8
0
 62
7
  6
CONTINUOUS
 10
1.1976034751
 20
357.4394846616
  0
VERTEX
  8
0
 62
7
  6
CONTINUOUS
 10
1.1802862073
 20
358.526891451
  0
VERTEX
  8
0
 62
7
  6
CONTINUOUS
 10
1.1632048403
 20
359.6078747916
  0
VERTEX
  8
0
 62
7
  6
CONTINUOUS
 10
1.1460148588
 20
360.7045284945
  0
VERTEX
  8
0
 62
7
  6
CONTINUOUS
 10
1.1271006101
 20
361.9219007336
  0
VERTEX
  8
0
 62
7
  6
CONTINUOUS
 10
1.1076752188
 20
363.1844814467
  0
VERTEX
  8
0
 62
7
  6
CONTINUOUS
 10
1.085851941
 20
364.6186571743
  0
VERTEX
  8
0
 62
7
  6
CONTINUOUS
 10
1.0638307417
 20
366.0837752222
  0
VERTEX
  8
0
 62
7
  6
CONTINUOUS
 10
1.0478558444
 20
367.1585687558
  0
SEQEND
  0
LINE
  8
0
 62
7
  6
CONTINUOUS
 10
73.0327043823
 20
237.5849252164
 11
73.0327043823
 21
240.0249572012
  0
LINE
  8
0
 62
7
  6
CONTINUOUS
 10
89.5327043823
 20
240.0249572012
 11
89.5327043823
 21
237.5849252164
  0
POLYLINE
  8
0
 62
7
  6
CONTINUOUS
 66
1
 70
0
  0
VERTEX
  8
0
 62
7
  6
CONTINUOUS
 10
371.0172557741
 20
367.1583444126
  0
VERTEX
  8
0
 62
7
  6
CONTINUOUS
 10
370.8479946688
 20
367.0322613686
  0
VERTEX
  8
0
 62
7
  6
CONTINUOUS
 10
370.6761102701
 20
366.9097766496
  0
VERTEX
  8
0
 62
7
  6
CONTINUOUS
 10
370.5016790984
 20
366.7909448792
  0
VERTEX
  8
0
 62
7
  6
CONTINUOUS
 10
370.3247776742
 20
366.675820681
  0
VERTEX
  8
0
 62
7
  6
CONTINUOUS
 10
370.1425911094
 20
366.5627035081
  0
VERTEX
  8
0
 62
7
  6
CONTINUOUS
 10
369.9580195137
 20
366.4535186051
  0
VERTEX
  8
0
 62
7
  6
CONTINUOUS
 10
369.7711489247
 20
366.3483144978
  0
VERTEX
  8
0
 62
7
  6
CONTINUOUS
 10
369.58206538
 20
366.2471397116
  0
VERTEX
  8
0
 62
7
  6
CONTINUOUS
 10
369.3908549172
 20
366.1500427724
  0
VERTEX
  8
0
 62
7
  6
CONTINUOUS
 10
369.1919955736
 20
366.0544480952
  0
VERTEX
  8
0
 62
7
  6
CONTINUOUS
 10
368.9910741547
 20
365.9632638696
  0
VERTEX
  8
0
 62
7
  6
CONTINUOUS
 10
368.7881890107
 20
365.8765324716
  0
VERTEX
  8
0
 62
7
  6
CONTINUOUS
 10
368.5834384919
 20
365.7942962769
  0
VERTEX
  8
0
 62
7
  6
CONTINUOUS
 10
368.3769209483
 20
365.7165976617
  0
VERTEX
  8
0
 62
7
  6
CONTINUOUS
 10
368.1988287373
 20
365.6537283154
  0
VERTEX
  8
0
 62
7
  6
CONTINUOUS
 10
368.0195795474
 20
365.5942337852
  0
VERTEX
  8
0
 62
7
  6
CONTINUOUS
 10
367.8392388859
 20
365.5381335697
  0
VERTEX
  8
0
 62
7
  6
CONTINUOUS
 10
367.6578722604
 20
365.4854471673
  0
VERTEX
  8
0
 62
7
  6
CONTINUOUS
 10
367.4755451783
 20
365.4361940765
  0
VERTEX
  8
0
 62
7
  6
CONTINUOUS
 10
367.2923231471
 20
365.390393796
  0
VERTEX
  8
0
 62
7
  6
CONTINUOUS
 10
367.1035662198
 20
365.347030372
  0
VERTEX
  8
0
 62
7
  6
CONTINUOUS
 10
366.9140047624
 20
365.3073315502
  0
VERTEX
  8
0
 62
7
  6
CONTINUOUS
 10
366.7237065399
 20
365.2713102249
  0
VERTEX
  8
0
 62
7
  6
CONTINUOUS
 10
366.5327393177
 20
365.2389792902
  0
VERTEX
  8
0
 62
7
  6
CONTINUOUS
 10
366.3411708609
 20
365.2103516402
  0
VERTEX
  8
0
 62
7
  6
CONTINUOUS
 10
366.1490689349
 20
365.1854401691
  0
VERTEX
  8
0
 62
7
  6
CONTINUOUS
 10
365.951863324
 20
365.163792375
  0
VERTEX
  8
0
 62
7
  6
CONTINUOUS
 10
365.7542619113
 20
365.1460602066
  0
VERTEX
  8
0
 62
7
  6
CONTINUOUS
 10
365.5563572931
 20
365.1322484984
  0
VERTEX
  8
0
 62
7
  6
CONTINUOUS
 10
365.3582420655
 20
365.1223620852
  0
VERTEX
  8
0
 62
7
  6
CONTINUOUS
 10
365.1600088245
 20
365.1164058017
  0
VERTEX
  8
0
 62
7
  6
CONTINUOUS
 10
364.9617501662
 20
365.1143844824
  0
SEQEND
  0
POLYLINE
  8
0
 62
7
  6
CONTINUOUS
 66
1
 70
0
  0
VERTEX
  8
0
 62
7
  6
CONTINUOUS
 10
1.0478558444
 20
367.1585687558
  0
VERTEX
  8
0
 62
7
  6
CONTINUOUS
 10
1.2209838059
 20
367.0296609262
  0
VERTEX
  8
0
 62
7
  6
CONTINUOUS
 10
1.3968546147
 20
366.9045206257
  0
VERTEX
  8
0
 62
7
  6
CONTINUOUS
 10
1.5753843473
 20
366.783203557
  0
VERTEX
  8
0
 62
7
  6
CONTINUOUS
 10
1.75648908
 20
366.6657654229
  0
VERTEX
  8
0
 62
7
  6
CONTINUOUS
 10
1.9400848892
 20
366.5522619263
  0
VERTEX
  8
0
 62
7
  6
CONTINUOUS
 10
2.1260878513
 20
366.4427487698
  0
VERTEX
  8
0
 62
7
  6
CONTINUOUS
 10
2.3154849538
 20
366.3366946453
  0
VERTEX
  8
0
 62
7
  6
CONTINUOUS
 10
2.507140117
 20
366.2347775649
  0
VERTEX
  8
0
 62
7
  6
CONTINUOUS
 10
2.70096181
 20
366.1370426175
  0
VERTEX
  8
0
 62
7
  6
CONTINUOUS
 10
2.8968585016
 20
366.0435348923
  0
VERTEX
  8
0
 62
7
  6
CONTINUOUS
 10
3.094738661
 20
365.9542994782
  0
VERTEX
  8
0
 62
7
  6
CONTINUOUS
 10
3.2945107569
 20
365.8693814642
  0
VERTEX
  8
0
 62
7
  6
CONTINUOUS
 10
3.4960927728
 20
365.7888197674
  0
VERTEX
  8
0
 62
7
  6
CONTINUOUS
 10
3.6993770575
 20
365.7126538035
  0
VERTEX
  8
0
 62
7
  6
CONTINUOUS
 10
3.9042652849
 20
365.6409163574
  0
VERTEX
  8
0
 62
7
  6
CONTINUOUS
 10
4.1106591287
 20
365.5736402141
  0
VERTEX
  8
0
 62
7
  6
CONTINUOUS
 10
4.3184602629
 20
365.5108581585
  0
VERTEX
  8
0
 62
7
  6
CONTINUOUS
 10
4.5275703612
 20
365.4526029755
  0
VERTEX
  8
0
 62
7
  6
CONTINUOUS
 10
4.737919772
 20
365.39889843
  0
VERTEX
  8
0
 62
7
  6
CONTINUOUS
 10
4.949384691
 20
365.3497746635
  0
VERTEX
  8
0
 62
7
  6
CONTINUOUS
 10
5.1618696648
 20
365.3052515788
  0
VERTEX
  8
0
 62
7
  6
CONTINUOUS
 10
5.3752792398
 20
365.2653490784
  0
VERTEX
  8
0
 62
7
  6
CONTINUOUS
 10
5.5895179626
 20
365.2300870648
  0
VERTEX
  8
0
 62
7
  6
CONTINUOUS
 10
5.8044903797
 20
365.1994854405
  0
VERTEX
  8
0
 62
7
  6
CONTINUOUS
 10
6.0201278187
 20
365.1735585261
  0
VERTEX
  8
0
 62
7
  6
CONTINUOUS
 10
6.2362827455
 20
365.1523199908
  0
VERTEX
  8
0
 62
7
  6
CONTINUOUS
 10
6.4528342234
 20
365.1357765766
  0
VERTEX
  8
0
 62
7
  6
CONTINUOUS
 10
6.6696613158
 20
365.1239350258
  0
VERTEX
  8
0
 62
7
  6
CONTINUOUS
 10
6.8866430864
 20
365.1168020804
  0
VERTEX
  8
0
 62
7
  6
CONTINUOUS
 10
7.1036585984
 20
365.1143844824
  0
SEQEND
  0
LINE
  8
0
 62
7
  6
CONTINUOUS
 10
282.5327043823
 20
237.5849252164
 11
282.5327043823
 21
240.0249572012
  0
LINE
  8
0
 62
7
  6
CONTINUOUS
 10
299.0327043823
 20
240.0249572012
 11
299.0327043823
 21
237.5849252164
  0
LINE
  8
0
 62
7
  6
CONTINUOUS
 10
299.0327043823
 20
240.0249572012
 11
282.5327043823
 21
240.0249572012
  0
LINE
  8
0
 62
7
  6
CONTINUOUS
 10
89.5327043823
 20
240.0249572012
 11
73.0327043823
 21
240.0249572012
  0
POLYLINE
  8
0
 62
7
  6
CONTINUOUS
 66
1
 70
0
  0
VERTEX
  8
0
 62
7
  6
CONTINUOUS
 10
368.9600645959
 20
209.4284072374
  0
VERTEX
  8
0
 62
7
  6
CONTINUOUS
 10
368.9611062881
 20
208.4815441584
  0
VERTEX
  8
0
 62
7
  6
CONTINUOUS
 10
368.9622298109
 20
207.6193635765
  0
VERTEX
  8
0
 62
7
  6
CONTINUOUS
 10
368.9637679726
 20
206.6586036339
  0
VERTEX
  8
0
 62
7
  6
CONTINUOUS
 10
368.9658760113
 20
205.5689054057
  0
VERTEX
  8
0
 62
7
  6
CONTINUOUS
 10
368.9686000819
 20
204.3469928002
  0
VERTEX
  8
0
 62
7
  6
CONTINUOUS
 10
368.9716169714
 20
203.1182354886
  0
VERTEX
  8
0
 62
7
  6
CONTINUOUS
 10
368.9744336376
 20
202.0381563041
  0
VERTEX
  8
0
 62
7
  6
CONTINUOUS
 10
368.9771413004
 20
201.0342071236
  0
VERTEX
  8
0
 62
7
  6
CONTINUOUS
 10
368.9796162903
 20
200.1305055131
  0
VERTEX
  8
0
 62
7
  6
CONTINUOUS
 10
368.9821157188
 20
199.2192627251
  0
VERTEX
  8
0
 62
7
  6
CONTINUOUS
 10
368.9845950395
 20
198.3040728796
  0
VERTEX
  8
0
 62
7
  6
CONTINUOUS
 10
368.9871083848
 20
197.3491836435
  0
VERTEX
  8
0
 62
7
  6
CONTINUOUS
 10
368.9897839732
 20
196.2798674293
  0
VERTEX
  8
0
 62
7
  6
CONTINUOUS
 10
368.9924186528
 20
195.1388371925
  0
VERTEX
  8
0
 62
7
  6
CONTINUOUS
 10
368.9945317835
 20
194.1268337312
  0
VERTEX
  8
0
 62
7
  6
CONTINUOUS
 10
368.9963305886
 20
193.1679864922
  0
VERTEX
  8
0
 62
7
  6
CONTINUOUS
 10
368.9980783824
 20
192.109837862
  0
VERTEX
  8
0
 62
7
  6
CONTINUOUS
 10
368.9997358172
 20
190.9811923689
  0
VERTEX
  8
0
 62
7
  6
CONTINUOUS
 10
369.0014567828
 20
189.8340074923
  0
VERTEX
  8
0
 62
7
  6
CONTINUOUS
 10
369.0035067871
 20
188.5539721606
  0
VERTEX
  8
0
 62
7
  6
CONTINUOUS
 10
369.0056687919
 20
187.1985769827
  0
VERTEX
  8
0
 62
7
  6
CONTINUOUS
 10
369.0075401928
 20
185.9841072044
  0
VERTEX
  8
0
 62
7
  6
CONTINUOUS
 10
369.0093177349
 20
184.7596244803
  0
VERTEX
  8
0
 62
7
  6
CONTINUOUS
 10
369.0111230103
 20
183.3807795963
  0
VERTEX
  8
0
 62
7
  6
CONTINUOUS
 10
369.0128255821
 20
181.8217236772
  0
VERTEX
  8
0
 62
7
  6
CONTINUOUS
 10
369.0141967697
 20
180.051045455
  0
VERTEX
  8
0
 62
7
  6
CONTINUOUS
 10
369.0148603738
 20
178.0285568164
  0
VERTEX
  8
0
 62
7
  6
CONTINUOUS
 10
369.0143193475
 20
175.7887295301
  0
VERTEX
  8
0
 62
7
  6
CONTINUOUS
 10
369.012044552
 20
173.3289331443
  0
VERTEX
  8
0
 62
7
  6
CONTINUOUS
 10
369.0084117259
 20
171.0023704512
  0
VERTEX
  8
0
 62
7
  6
CONTINUOUS
 10
369.0036788294
 20
168.676105435
  0
VERTEX
  8
0
 62
7
  6
CONTINUOUS
 10
368.9987951313
 20
166.6115776417
  0
VERTEX
  8
0
 62
7
  6
CONTINUOUS
 10
368.9938475278
 20
164.7427635425
  0
VERTEX
  8
0
 62
7
  6
CONTINUOUS
 10
368.9883447814
 20
162.89041677
  0
VERTEX
  8
0
 62
7
  6
CONTINUOUS
 10
368.9822810503
 20
161.0759953296
  0
VERTEX
  8
0
 62
7
  6
CONTINUOUS
 10
368.975929103
 20
159.3730619476
  0
VERTEX
  8
0
 62
7
  6
CONTINUOUS
 10
368.9698226983
 20
157.8821076609
  0
VERTEX
  8
0
 62
7
  6
CONTINUOUS
 10
368.9637037051
 20
156.502352193
  0
VERTEX
  8
0
 62
7
  6
CONTINUOUS
 10
368.9575716786
 20
155.2139978797
  0
VERTEX
  8
0
 62
7
  6
CONTINUOUS
 10
368.9518637002
 20
154.0869732535
  0
VERTEX
  8
0
 62
7
  6
CONTINUOUS
 10
368.946548912
 20
153.092262428
  0
VERTEX
  8
0
 62
7
  6
CONTINUOUS
 10
368.9416377937
 20
152.2148334664
  0
VERTEX
  8
0
 62
7
  6
CONTINUOUS
 10
368.9369850908
 20
151.4169495993
  0
VERTEX
  8
0
 62
7
  6
CONTINUOUS
 10
368.9322684452
 20
150.6379741127
  0
VERTEX
  8
0
 62
7
  6
CONTINUOUS
 10
368.9272710747
 20
149.8414412612
  0
VERTEX
  8
0
 62
7
  6
CONTINUOUS
 10
368.9214432943
 20
148.9450892419
  0
VERTEX
  8
0
 62
7
  6
CONTINUOUS
 10
368.9147311819
 20
147.9499976969
  0
VERTEX
  8
0
 62
7
  6
CONTINUOUS
 10
368.9073590733
 20
146.8960176758
  0
VERTEX
  8
0
 62
7
  6
CONTINUOUS
 10
368.8996221358
 20
145.8271530531
  0
VERTEX
  8
0
 62
7
  6
CONTINUOUS
 10
368.8906199707
 20
144.6244318442
  0
VERTEX
  8
0
 62
7
  6
CONTINUOUS
 10
368.8820566142
 20
143.5153956342
  0
VERTEX
  8
0
 62
7
  6
CONTINUOUS
 10
368.8741183428
 20
142.5137992281
  0
VERTEX
  8
0
 62
7
  6
CONTINUOUS
 10
368.8657500877
 20
141.4822301933
  0
VERTEX
  8
0
 62
7
  6
CONTINUOUS
 10
368.8568406455
 20
140.4082306829
  0
VERTEX
  8
0
 62
7
  6
CONTINUOUS
 10
368.8470191349
 20
139.2499984755
  0
VERTEX
  8
0
 62
7
  6
CONTINUOUS
 10
368.8360078663
 20
137.9797757649
  0
VERTEX
  8
0
 62
7
  6
CONTINUOUS
 10
368.8233286014
 20
136.5496496928
  0
VERTEX
  8
0
 62
7
  6
CONTINUOUS
 10
368.8102771698
 20
135.1092205778
  0
VERTEX
  8
0
 62
7
  6
CONTINUOUS
 10
368.7985788797
 20
133.8419920973
  0
VERTEX
  8
0
 62
7
  6
CONTINUOUS
 10
368.7881478133
 20
132.7289191626
  0
VERTEX
  8
0
 62
7
  6
CONTINUOUS
 10
368.7789357643
 20
131.7580078309
  0
VERTEX
  8
0
 62
7
  6
CONTINUOUS
 10
368.7708098776
 20
130.9103015925
  0
VERTEX
  8
0
 62
7
  6
CONTINUOUS
 10
368.7625203312
 20
130.0532668254
  0
VERTEX
  8
0
 62
7
  6
CONTINUOUS
 10
368.7541600996
 20
129.195904437
  0
VERTEX
  8
0
 62
7
  6
CONTINUOUS
 10
368.7448225406
 20
128.2454644409
  0
VERTEX
  8
0
 62
7
  6
CONTINUOUS
 10
368.7347494274
 20
127.2293036576
  0
VERTEX
  8
0
 62
7
  6
CONTINUOUS
 10
368.72536229
 20
126.2969319278
  0
VERTEX
  8
0
 62
7
  6
CONTINUOUS
 10
368.7166080251
 20
125.4446743574
  0
VERTEX
  8
0
 62
7
  6
CONTINUOUS
 10
368.7070426411
 20
124.531938771
  0
VERTEX
  8
0
 62
7
  6
CONTINUOUS
 10
368.6960625497
 20
123.504949952
  0
VERTEX
  8
0
 62
7
  6
CONTINUOUS
 10
368.6832967226
 20
122.3348895203
  0
VERTEX
  8
0
 62
7
  6
CONTINUOUS
 10
368.6685507627
 20
121.0103550826
  0
VERTEX
  8
0
 62
7
  6
CONTINUOUS
 10
368.6520197306
 20
119.5538140981
  0
VERTEX
  8
0
 62
7
  6
CONTINUOUS
 10
368.6363968534
 20
118.199625867
  0
VERTEX
  8
0
 62
7
  6
CONTINUOUS
 10
368.6218075302
 20
116.9508931664
  0
VERTEX
  8
0
 62
7
  6
CONTINUOUS
 10
368.6081074594
 20
115.7895192676
  0
VERTEX
  8
0
 62
7
  6
CONTINUOUS
 10
368.59433936
 20
114.6310511062
  0
VERTEX
  8
0
 62
7
  6
CONTINUOUS
 10
368.5810565358
 20
113.5197559603
  0
VERTEX
  8
0
 62
7
  6
CONTINUOUS
 10
368.5676336906
 20
112.4014106922
  0
VERTEX
  8
0
 62
7
  6
CONTINUOUS
 10
368.5541864164
 20
111.2841283714
  0
VERTEX
  8
0
 62
7
  6
CONTINUOUS
 10
368.5400092486
 20
110.1077979331
  0
VERTEX
  8
0
 62
7
  6
CONTINUOUS
 10
368.5249755751
 20
108.8597278793
  0
VERTEX
  8
0
 62
7
  6
CONTINUOUS
 10
368.5111085465
 20
107.7042965667
  0
VERTEX
  8
0
 62
7
  6
CONTINUOUS
 10
368.4969815902
 20
106.5189179155
  0
VERTEX
  8
0
 62
7
  6
CONTINUOUS
 10
368.4826951248
 20
105.3082155438
  0
VERTEX
  8
0
 62
7
  6
CONTINUOUS
 10
368.4699135264
 20
104.2175463887
  0
VERTEX
  8
0
 62
7
  6
CONTINUOUS
 10
368.4565407853
 20
103.0740298122
  0
VERTEX
  8
0
 62
7
  6
CONTINUOUS
 10
368.4412376926
 20
101.7694799167
  0
VERTEX
  8
0
 62
7
  6
CONTINUOUS
 10
368.4237707079
 20
100.2911157894
  0
VERTEX
  8
0
 62
7
  6
CONTINUOUS
 10
368.4039848867
 20
98.6279423175
  0
VERTEX
  8
0
 62
7
  6
CONTINUOUS
 10
368.3815430461
 20
96.7516032322
  0
VERTEX
  8
0
 62
7
  6
CONTINUOUS
 10
368.3559836693
 20
94.6202262116
  0
VERTEX
  8
0
 62
7
  6
CONTINUOUS
 10
368.3267252923
 20
92.1760959486
  0
VERTEX
  8
0
 62
7
  6
CONTINUOUS
 10
368.2945806984
 20
89.4665766299
  0
VERTEX
  8
0
 62
7
  6
CONTINUOUS
 10
368.266114049
 20
87.0243522723
  0
VERTEX
  8
0
 62
7
  6
CONTINUOUS
 10
368.2402874797
 20
84.7569582794
  0
VERTEX
  8
0
 62
7
  6
CONTINUOUS
 10
368.2125591429
 20
82.2555152273
  0
VERTEX
  8
0
 62
7
  6
CONTINUOUS
 10
368.1820566988
 20
79.4144297207
  0
VERTEX
  8
0
 62
7
  6
CONTINUOUS
 10
368.1492082255
 20
76.2493651291
  0
VERTEX
  8
0
 62
7
  6
CONTINUOUS
 10
368.1197782531
 20
73.3239005459
  0
VERTEX
  8
0
 62
7
  6
CONTINUOUS
 10
368.094802331
 20
70.771814304
  0
VERTEX
  8
0
 62
7
  6
CONTINUOUS
 10
368.0714559267
 20
68.3146571317
  0
VERTEX
  8
0
 62
7
  6
CONTINUOUS
 10
368.0482758338
 20
65.7894830172
  0
VERTEX
  8
0
 62
7
  6
CONTINUOUS
 10
368.0284014051
 20
63.5412105689
  0
VERTEX
  8
0
 62
7
  6
CONTINUOUS
 10
368.008672709
 20
61.216207519
  0
VERTEX
  8
0
 62
7
  6
CONTINUOUS
 10
367.9887857494
 20
58.7552247797
  0
VERTEX
  8
0
 62
7
  6
CONTINUOUS
 10
367.969397482
 20
56.2207724811
  0
VERTEX
  8
0
 62
7
  6
CONTINUOUS
 10
367.9521500311
 20
53.8589957084
  0
VERTEX
  8
0
 62
7
  6
CONTINUOUS
 10
367.9336506086
 20
51.2341066354
  0
SEQEND
  0
POLYLINE
  8
0
 62
7
  6
CONTINUOUS
 66
1
 70
0
  0
VERTEX
  8
0
 62
7
  6
CONTINUOUS
 10
367.9336506086
 20
51.2341066354
  0
VERTEX
  8
0
 62
7
  6
CONTINUOUS
 10
367.9153467871
 20
48.5452305302
  0
VERTEX
  8
0
 62
7
  6
CONTINUOUS
 10
367.899878292
 20
46.1844844151
  0
VERTEX
  8
0
 62
7
  6
CONTINUOUS
 10
367.8866691309
 20
44.0860186765
  0
VERTEX
  8
0
 62
7
  6
CONTINUOUS
 10
367.8736287164
 20
41.9122875556
  0
VERTEX
  8
0
 62
7
  6
CONTINUOUS
 10
367.8596257993
 20
39.4411338153
  0
VERTEX
  8
0
 62
7
  6
CONTINUOUS
 10
367.8454999692
 20
36.8421638347
  0
VERTEX
  8
0
 62
7
  6
CONTINUOUS
 10
367.8330946674
 20
34.5347249034
  0
VERTEX
  8
0
 62
7
  6
CONTINUOUS
 10
367.8219654756
 20
32.5016507977
  0
VERTEX
  8
0
 62
7
  6
CONTINUOUS
 10
367.8119367525
 20
30.7019760565
  0
VERTEX
  8
0
 62
7
  6
CONTINUOUS
 10
367.8014012296
 20
28.7772550727
  0
VERTEX
  8
0
 62
7
  6
CONTINUOUS
 10
367.7899936805
 20
26.6135307419
  0
VERTEX
  8
0
 62
7
  6
CONTINUOUS
 10
367.7791960913
 20
24.5514637454
  0
VERTEX
  8
0
 62
7
  6
CONTINUOUS
 10
367.7695116294
 20
22.749797891
  0
VERTEX
  8
0
 62
7
  6
CONTINUOUS
 10
367.7591455243
 20
20.9198594565
  0
VERTEX
  8
0
 62
7
  6
CONTINUOUS
 10
367.7489025153
 20
19.2381379797
  0
VERTEX
  8
0
 62
7
  6
CONTINUOUS
 10
367.7393518801
 20
17.764632555
  0
VERTEX
  8
0
 62
7
  6
CONTINUOUS
 10
367.7301554905
 20
16.3988274475
  0
VERTEX
  8
0
 62
7
  6
CONTINUOUS
 10
367.7201833936
 20
14.9493947699
  0
VERTEX
  8
0
 62
7
  6
CONTINUOUS
 10
367.7111625856
 20
13.6597177733
  0
VERTEX
  8
0
 62
7
  6
CONTINUOUS
 10
367.7030489417
 20
12.531975898
  0
VERTEX
  8
0
 62
7
  6
CONTINUOUS
 10
367.6956560402
 20
11.5413182926
  0
VERTEX
  8
0
 62
7
  6
CONTINUOUS
 10
367.6887717193
 20
10.6558728122
  0
VERTEX
  8
0
 62
7
  6
CONTINUOUS
 10
367.6813923247
 20
9.7494464729
  0
VERTEX
  8
0
 62
7
  6
CONTINUOUS
 10
367.6729054344
 20
8.7628879753
  0
VERTEX
  8
0
 62
7
  6
CONTINUOUS
 10
367.6633400788
 20
7.7230027709
  0
VERTEX
  8
0
 62
7
  6
CONTINUOUS
 10
367.6533597381
 20
6.716356914
  0
VERTEX
  8
0
 62
7
  6
CONTINUOUS
 10
367.6438302705
 20
5.8172334295
  0
VERTEX
  8
0
 62
7
  6
CONTINUOUS
 10
367.633680069
 20
4.9030655035
  0
VERTEX
  8
0
 62
7
  6
CONTINUOUS
 10
367.6228221363
 20
3.9590503922
  0
VERTEX
  8
0
 62
7
  6
CONTINUOUS
 10
367.6103545593
 20
2.915088109
  0
VERTEX
  8
0
 62
7
  6
CONTINUOUS
 10
367.5960764098
 20
1.7704572479
  0
VERTEX
  8
0
 62
7
  6
CONTINUOUS
 10
367.5819143402
 20
0.6865379389
  0
VERTEX
  8
0
 62
7
  6
CONTINUOUS
 10
367.5682392072
 20
-0.3131866695
  0
VERTEX
  8
0
 62
7
  6
CONTINUOUS
 10
367.5540060054
 20
-1.3028150402
  0
VERTEX
  8
0
 62
7
  6
CONTINUOUS
 10
367.5373524551
 20
-2.3938557614
  0
VERTEX
  8
0
 62
7
  6
CONTINUOUS
 10
367.5188774573
 20
-3.5234929852
  0
VERTEX
  8
0
 62
7
  6
CONTINUOUS
 10
367.4966663803
 20
-4.7883406691
  0
VERTEX
  8
0
 62
7
  6
CONTINUOUS
 10
367.4696685741
 20
-6.2207141589
  0
VERTEX
  8
0
 62
7
  6
CONTINUOUS
 10
367.436609173
 20
-7.8556277335
  0
VERTEX
  8
0
 62
7
  6
CONTINUOUS
 10
367.3974566309
 20
-9.6612884936
  0
VERTEX
  8
0
 62
7
  6
CONTINUOUS
 10
367.3592581262
 20
-11.2994044149
  0
VERTEX
  8
0
 62
7
  6
CONTINUOUS
 10
367.3232497505
 20
-12.7383606963
  0
VERTEX
  8
0
 62
7
  6
CONTINUOUS
 10
367.2894029484
 20
-14.0069963865
  0
VERTEX
  8
0
 62
7
  6
CONTINUOUS
 10
367.2511973548
 20
-15.3557138463
  0
VERTEX
  8
0
 62
7
  6
CONTINUOUS
 10
367.2051240226
 20
-16.8826625059
  0
VERTEX
  8
0
 62
7
  6
CONTINUOUS
 10
367.1533458894
 20
-18.4895098464
  0
VERTEX
  8
0
 62
7
  6
CONTINUOUS
 10
367.1038433006
 20
-19.9347006007
  0
VERTEX
  8
0
 62
7
  6
CONTINUOUS
 10
367.0569278204
 20
-21.2340001062
  0
VERTEX
  8
0
 62
7
  6
CONTINUOUS
 10
367.0139756852
 20
-22.3704621606
  0
VERTEX
  8
0
 62
7
  6
CONTINUOUS
 10
366.9752567159
 20
-23.3555808632
  0
VERTEX
  8
0
 62
7
  6
CONTINUOUS
 10
366.9386371762
 20
-24.2557076516
  0
VERTEX
  8
0
 62
7
  6
CONTINUOUS
 10
366.9022802806
 20
-25.1211224098
  0
VERTEX
  8
0
 62
7
  6
CONTINUOUS
 10
366.8603427308
 20
-26.0867127696
  0
VERTEX
  8
0
 62
7
  6
CONTINUOUS
 10
366.811395578
 20
-27.1724134169
  0
VERTEX
  8
0
 62
7
  6
CONTINUOUS
 10
366.7545732243
 20
-28.3811275621
  0
VERTEX
  8
0
 62
7
  6
CONTINUOUS
 10
366.6871994086
 20
-29.7487723349
  0
VERTEX
  8
0
 62
7
  6
CONTINUOUS
 10
366.6067137197
 20
-31.2994899092
  0
VERTEX
  8
0
 62
7
  6
CONTINUOUS
 10
366.5101696908
 20
-33.0592049959
  0
VERTEX
  8
0
 62
7
  6
CONTINUOUS
 10
366.3940999827
 20
-35.0539904267
  0
VERTEX
  8
0
 62
7
  6
CONTINUOUS
 10
366.2657469626
 20
-37.125799944
  0
VERTEX
  8
0
 62
7
  6
CONTINUOUS
 10
366.1359696164
 20
-39.0946374736
  0
VERTEX
  8
0
 62
7
  6
CONTINUOUS
 10
365.9879647184
 20
-41.2035705081
  0
VERTEX
  8
0
 62
7
  6
CONTINUOUS
 10
365.8322037295
 20
-43.2878202828
  0
VERTEX
  8
0
 62
7
  6
CONTINUOUS
 10
365.6737130496
 20
-45.2902668731
  0
VERTEX
  8
0
 62
7
  6
CONTINUOUS
 10
365.5179948961
 20
-47.1602178144
  0
VERTEX
  8
0
 62
7
  6
CONTINUOUS
 10
365.3753598231
 20
-48.7976263159
  0
VERTEX
  8
0
 62
7
  6
CONTINUOUS
 10
365.2452099921
 20
-50.2328860565
  0
VERTEX
  8
0
 62
7
  6
CONTINUOUS
 10
365.1259391312
 20
-51.5016319364
  0
VERTEX
  8
0
 62
7
  6
CONTINUOUS
 10
365.0162027686
 20
-52.6319793554
  0
VERTEX
  8
0
 62
7
  6
CONTINUOUS
 10
364.915146474
 20
-53.6446128117
  0
VERTEX
  8
0
 62
7
  6
CONTINUOUS
 10
364.8136768772
 20
-54.6369036793
  0
VERTEX
  8
0
 62
7
  6
CONTINUOUS
 10
364.7027032559
 20
-55.6969855795
  0
VERTEX
  8
0
 62
7
  6
CONTINUOUS
 10
364.5763458673
 20
-56.8748280919
  0
VERTEX
  8
0
 62
7
  6
CONTINUOUS
 10
364.4503899031
 20
-58.0185760319
  0
VERTEX
  8
0
 62
7
  6
CONTINUOUS
 10
364.3112593719
 20
-59.2470626443
  0
VERTEX
  8
0
 62
7
  6
CONTINUOUS
 10
364.1737313568
 20
-60.4271206468
  0
VERTEX
  8
0
 62
7
  6
CONTINUOUS
 10
364.0508338609
 20
-61.4548831494
  0
VERTEX
  8
0
 62
7
  6
CONTINUOUS
 10
363.9361267864
 20
-62.3930853141
  0
VERTEX
  8
0
 62
7
  6
CONTINUOUS
 10
363.8209198942
 20
-63.3164415333
  0
VERTEX
  8
0
 62
7
  6
CONTINUOUS
 10
363.6910311995
 20
-64.3364770241
  0
VERTEX
  8
0
 62
7
  6
CONTINUOUS
 10
363.5442836607
 20
-65.464216333
  0
VERTEX
  8
0
 62
7
  6
CONTINUOUS
 10
363.3733258853
 20
-66.7464079988
  0
VERTEX
  8
0
 62
7
  6
CONTINUOUS
 10
363.1970314896
 20
-68.0340593119
  0
VERTEX
  8
0
 62
7
  6
CONTINUOUS
 10
363.0344500476
 20
-69.1914474292
  0
VERTEX
  8
0
 62
7
  6
CONTINUOUS
 10
362.8763681267
 20
-70.2909764059
  0
VERTEX
  8
0
 62
7
  6
CONTINUOUS
 10
362.7122808413
 20
-71.4076570277
  0
VERTEX
  8
0
 62
7
  6
CONTINUOUS
 10
362.5439401066
 20
-72.5291905926
  0
VERTEX
  8
0
 62
7
  6
CONTINUOUS
 10
362.3614296102
 20
-73.7188284979
  0
VERTEX
  8
0
 62
7
  6
CONTINUOUS
 10
362.1930016491
 20
-74.7934176515
  0
VERTEX
  8
0
 62
7
  6
CONTINUOUS
 10
362.0416126513
 20
-75.7410151112
  0
VERTEX
  8
0
 62
7
  6
CONTINUOUS
 10
361.8952775521
 20
-76.6412247047
  0
VERTEX
  8
0
 62
7
  6
CONTINUOUS
 10
361.7536363393
 20
-77.498785319
  0
VERTEX
  8
0
 62
7
  6
CONTINUOUS
 10
361.6105754212
 20
-78.3521311736
  0
VERTEX
  8
0
 62
7
  6
CONTINUOUS
 10
361.4543257761
 20
-79.2703683437
  0
VERTEX
  8
0
 62
7
  6
CONTINUOUS
 10
361.2771437275
 20
-80.2951504653
  0
VERTEX
  8
0
 62
7
  6
CONTINUOUS
 10
361.0926506875
 20
-81.3437033632
  0
VERTEX
  8
0
 62
7
  6
CONTINUOUS
 10
360.9185068636
 20
-82.3159577594
  0
VERTEX
  8
0
 62
7
  6
CONTINUOUS
 10
360.7642633665
 20
-83.162932777
  0
VERTEX
  8
0
 62
7
  6
CONTINUOUS
 10
360.6131307427
 20
-83.9803373273
  0
VERTEX
  8
0
 62
7
  6
CONTINUOUS
 10
360.4642802827
 20
-84.7744686376
  0
VERTEX
  8
0
 62
7
  6
CONTINUOUS
 10
360.318014683
 20
-85.5452794168
  0
VERTEX
  8
0
 62
7
  6
CONTINUOUS
 10
360.1517214138
 20
-86.4111842725
  0
VERTEX
  8
0
 62
7
  6
CONTINUOUS
 10
359.9627277076
 20
-87.3822007511
  0
VERTEX
  8
0
 62
7
  6
CONTINUOUS
 10
359.7500808862
 20
-88.458098982
  0
VERTEX
  8
0
 62
7
  6
CONTINUOUS
 10
359.5099061828
 20
-89.6521012076
  0
VERTEX
  8
0
 62
7
  6
CONTINUOUS
 10
359.236784121
 20
-90.9826512197
  0
SEQEND
  0
POLYLINE
  8
0
 62
7
  6
CONTINUOUS
 66
1
 70
0
  0
VERTEX
  8
0
 62
7
  6
CONTINUOUS
 10
371.0172557741
 20
367.1583444126
  0
VERTEX
  8
0
 62
7
  6
CONTINUOUS
 10
370.9944752672
 20
365.6495915105
  0
VERTEX
  8
0
 62
7
  6
CONTINUOUS
 10
370.9699104878
 20
364.0443210399
  0
VERTEX
  8
0
 62
7
  6
CONTINUOUS
 10
370.948134938
 20
362.6381344409
  0
VERTEX
  8
0
 62
7
  6
CONTINUOUS
 10
370.9289359542
 20
361.4101372773
  0
VERTEX
  8
0
 62
7
  6
CONTINUOUS
 10
370.9113658366
 20
360.2951465838
  0
VERTEX
  8
0
 62
7
  6
CONTINUOUS
 10
370.8930367565
 20
359.1401580154
  0
VERTEX
  8
0
 62
7
  6
CONTINUOUS
 10
370.8761545283
 20
358.0829405306
  0
VERTEX
  8
0
 62
7
  6
CONTINUOUS
 10
370.8591621733
 20
357.0244942102
  0
VERTEX
  8
0
 62
7
  6
CONTINUOUS
 10
370.8420014838
 20
355.9606491192
  0
VERTEX
  8
0
 62
7
  6
CONTINUOUS
 10
370.8241027891
 20
354.8557826122
  0
VERTEX
  8
0
 62
7
  6
CONTINUOUS
 10
370.8039698791
 20
353.6178772638
  0
VERTEX
  8
0
 62
7
  6
CONTINUOUS
 10
370.7811449158
 20
352.2194642106
  0
VERTEX
  8
0
 62
7
  6
CONTINUOUS
 10
370.7583727443
 20
350.8282222108
  0
VERTEX
  8
0
 62
7
  6
CONTINUOUS
 10
370.7378134403
 20
349.5743704941
  0
VERTEX
  8
0
 62
7
  6
CONTINUOUS
 10
370.7194271374
 20
348.4546067358
  0
VERTEX
  8
0
 62
7
  6
CONTINUOUS
 10
370.6993934106
 20
347.2389704099
  0
VERTEX
  8
0
 62
7
  6
CONTINUOUS
 10
370.6763388667
 20
345.8503794694
  0
VERTEX
  8
0
 62
7
  6
CONTINUOUS
 10
370.6511509911
 20
344.3516246569
  0
VERTEX
  8
0
 62
7
  6
CONTINUOUS
 10
370.6244026156
 20
342.7828989831
  0
VERTEX
  8
0
 62
7
  6
CONTINUOUS
 10
370.5968923865
 20
341.1904997313
  0
VERTEX
  8
0
 62
7
  6
CONTINUOUS
 10
370.5674597013
 20
339.5065748781
  0
VERTEX
  8
0
 62
7
  6
CONTINUOUS
 10
370.5410469421
 20
338.0104770601
  0
VERTEX
  8
0
 62
7
  6
CONTINUOUS
 10
370.5178300385
 20
336.7056649694
  0
VERTEX
  8
0
 62
7
  6
CONTINUOUS
 10
370.4950520895
 20
335.4336979663
  0
VERTEX
  8
0
 62
7
  6
CONTINUOUS
 10
370.4716454616
 20
334.1339540655
  0
VERTEX
  8
0
 62
7
  6
CONTINUOUS
 10
370.4457488473
 20
332.7031882307
  0
VERTEX
  8
0
 62
7
  6
CONTINUOUS
 10
370.4162088167
 20
331.0784746189
  0
VERTEX
  8
0
 62
7
  6
CONTINUOUS
 10
370.3850944863
 20
329.3732890677
  0
VERTEX
  8
0
 62
7
  6
CONTINUOUS
 10
370.352172771
 20
327.5733237687
  0
VERTEX
  8
0
 62
7
  6
CONTINUOUS
 10
370.3173262247
 20
325.669945499
  0
VERTEX
  8
0
 62
7
  6
CONTINUOUS
 10
370.2821884739
 20
323.7492556416
  0
VERTEX
  8
0
 62
7
  6
CONTINUOUS
 10
370.24981368
 20
321.9752071408
  0
VERTEX
  8
0
 62
7
  6
CONTINUOUS
 10
370.2208228379
 20
320.3795820367
  0
VERTEX
  8
0
 62
7
  6
CONTINUOUS
 10
370.1892908239
 20
318.6317289137
  0
VERTEX
  8
0
 62
7
  6
CONTINUOUS
 10
370.1582011306
 20
316.8931733708
  0
VERTEX
  8
0
 62
7
  6
CONTINUOUS
 10
370.1290144344
 20
315.2563341334
  0
VERTEX
  8
0
 62
7
  6
CONTINUOUS
 10
370.0965936441
 20
313.4447171906
  0
VERTEX
  8
0
 62
7
  6
CONTINUOUS
 10
370.0602620254
 20
311.4233941066
  0
VERTEX
  8
0
 62
7
  6
CONTINUOUS
 10
370.0196112455
 20
309.1689406025
  0
VERTEX
  8
0
 62
7
  6
CONTINUOUS
 10
369.9740488858
 20
306.645576895
  0
VERTEX
  8
0
 62
7
  6
CONTINUOUS
 10
369.922879003
 20
303.8082688049
  0
VERTEX
  8
0
 62
7
  6
CONTINUOUS
 10
369.8662625958
 20
300.6531815754
  0
VERTEX
  8
0
 62
7
  6
CONTINUOUS
 10
369.8136391709
 20
297.6921608019
  0
VERTEX
  8
0
 62
7
  6
CONTINUOUS
 10
369.7681377446
 20
295.0950133785
  0
VERTEX
  8
0
 62
7
  6
CONTINUOUS
 10
369.7286882368
 20
292.8029167301
  0
VERTEX
  8
0
 62
7
  6
CONTINUOUS
 10
369.6942373789
 20
290.7647701131
  0
VERTEX
  8
0
 62
7
  6
CONTINUOUS
 10
369.6606165927
 20
288.7458766635
  0
VERTEX
  8
0
 62
7
  6
CONTINUOUS
 10
369.624142711
 20
286.5276451101
  0
VERTEX
  8
0
 62
7
  6
CONTINUOUS
 10
369.5834313953
 20
284.022193319
  0
VERTEX
  8
0
 62
7
  6
CONTINUOUS
 10
369.5380558726
 20
281.1871614637
  0
VERTEX
  8
0
 62
7
  6
CONTINUOUS
 10
369.488671646
 20
278.0375218281
  0
VERTEX
  8
0
 62
7
  6
CONTINUOUS
 10
369.443870741
 20
275.1057210202
  0
VERTEX
  8
0
 62
7
  6
CONTINUOUS
 10
369.4035771262
 20
272.3915026033
  0
VERTEX
  8
0
 62
7
  6
CONTINUOUS
 10
369.3602028087
 20
269.365593821
  0
VERTEX
  8
0
 62
7
  6
CONTINUOUS
 10
369.3209411816
 20
266.5141554167
  0
VERTEX
  8
0
 62
7
  6
CONTINUOUS
 10
369.283851639
 20
263.7082969043
  0
VERTEX
  8
0
 62
7
  6
CONTINUOUS
 10
369.2439425953
 20
260.548981692
  0
VERTEX
  8
0
 62
7
  6
CONTINUOUS
 10
369.2045918852
 20
257.2647786981
  0
VERTEX
  8
0
 62
7
  6
CONTINUOUS
 10
369.1717867712
 20
254.3702616804
  0
VERTEX
  8
0
 62
7
  6
CONTINUOUS
 10
369.1443578669
 20
251.8162708258
  0
VERTEX
  8
0
 62
7
  6
CONTINUOUS
 10
369.1212772939
 20
249.5525107658
  0
VERTEX
  8
0
 62
7
  6
CONTINUOUS
 10
369.1020076624
 20
247.5653717033
  0
VERTEX
  8
0
 62
7
  6
CONTINUOUS
 10
369.0848855642
 20
245.7079938371
  0
VERTEX
  8
0
 62
7
  6
CONTINUOUS
 10
369.0672047743
 20
243.6756305591
  0
VERTEX
  8
0
 62
7
  6
CONTINUOUS
 10
369.0491508587
 20
241.4447239571
  0
VERTEX
  8
0
 62
7
  6
CONTINUOUS
 10
369.0340797687
 20
239.4231081143
  0
VERTEX
  8
0
 62
7
  6
CONTINUOUS
 10
369.0219478194
 20
237.6572457046
  0
VERTEX
  8
0
 62
7
  6
CONTINUOUS
 10
369.0113258689
 20
235.9820313393
  0
VERTEX
  8
0
 62
7
  6
CONTINUOUS
 10
369.001158294
 20
234.2350543349
  0
VERTEX
  8
0
 62
7
  6
CONTINUOUS
 10
368.99225244
 20
232.5552081545
  0
VERTEX
  8
0
 62
7
  6
CONTINUOUS
 10
368.9847275508
 20
230.9912765279
  0
VERTEX
  8
0
 62
7
  6
CONTINUOUS
 10
368.9783896281
 20
229.5410201362
  0
VERTEX
  8
0
 62
7
  6
CONTINUOUS
 10
368.9733071518
 20
228.2705438116
  0
VERTEX
  8
0
 62
7
  6
CONTINUOUS
 10
368.9691845448
 20
227.1553597166
  0
VERTEX
  8
0
 62
7
  6
CONTINUOUS
 10
368.9657013505
 20
226.1243505779
  0
VERTEX
  8
0
 62
7
  6
CONTINUOUS
 10
368.9626296145
 20
225.0957087296
  0
VERTEX
  8
0
 62
7
  6
CONTINUOUS
 10
368.9597942981
 20
223.9577871511
  0
VERTEX
  8
0
 62
7
  6
CONTINUOUS
 10
368.9575018119
 20
222.7913941198
  0
VERTEX
  8
0
 62
7
  6
CONTINUOUS
 10
368.9559641711
 20
221.7606282823
  0
VERTEX
  8
0
 62
7
  6
CONTINUOUS
 10
368.9549687794
 20
220.8561934863
  0
VERTEX
  8
0
 62
7
  6
CONTINUOUS
 10
368.9543311436
 20
220.032517875
  0
VERTEX
  8
0
 62
7
  6
CONTINUOUS
 10
368.9539131396
 20
219.154426831
  0
VERTEX
  8
0
 62
7
  6
CONTINUOUS
 10
368.9537386541
 20
218.199890018
  0
VERTEX
  8
0
 62
7
  6
CONTINUOUS
 10
368.9538571375
 20
217.1070673617
  0
VERTEX
  8
0
 62
7
  6
CONTINUOUS
 10
368.9543424295
 20
215.8688326776
  0
VERTEX
  8
0
 62
7
  6
CONTINUOUS
 10
368.955242589
 20
214.4892152367
  0
VERTEX
  8
0
 62
7
  6
CONTINUOUS
 10
368.9565228293
 20
213.0117541149
  0
VERTEX
  8
0
 62
7
  6
CONTINUOUS
 10
368.9578501704
 20
211.6651953562
  0
VERTEX
  8
0
 62
7
  6
CONTINUOUS
 10
368.9600645959
 20
209.4284072374
  0
SEQEND
  0
POLYLINE
  8
0
 62
7
  6
CONTINUOUS
 66
1
 70
0
  0
VERTEX
  8
0
 62
7
  6
CONTINUOUS
 10
232.2170830899
 20
-219.4496427026
  0
VERTEX
  8
0
 62
7
  6
CONTINUOUS
 10
242.0686501927
 20
-216.8236410621
  0
VERTEX
  8
0
 62
7
  6
CONTINUOUS
 10
251.3253020143
 20
-213.8559832326
  0
VERTEX
  8
0
 62
7
  6
CONTINUOUS
 10
259.9816272487
 20
-210.584567981
  0
VERTEX
  8
0
 62
7
  6
CONTINUOUS
 10
268.2286323918
 20
-206.9672623557
  0
VERTEX
  8
0
 62
7
  6
CONTINUOUS
 10
276.0794009085
 20
-203.0181783461
  0
VERTEX
  8
0
 62
7
  6
CONTINUOUS
 10
283.5988307392
 20
-198.7234418304
  0
VERTEX
  8
0
 62
7
  6
CONTINUOUS
 10
290.8595829641
 20
-194.051667797
  0
VERTEX
  8
0
 62
7
  6
CONTINUOUS
 10
297.8955289955
 20
-188.9849983922
  0
VERTEX
  8
0
 62
7
  6
CONTINUOUS
 10
304.6907096596
 20
-183.5351514857
  0
VERTEX
  8
0
 62
7
  6
CONTINUOUS
 10
311.2199170171
 20
-177.7212881247
  0
VERTEX
  8
0
 62
7
  6
CONTINUOUS
 10
317.451813189
 20
-171.5694419601
  0
VERTEX
  8
0
 62
7
  6
CONTINUOUS
 10
323.3383634343
 20
-165.127027674
  0
VERTEX
  8
0
 62
7
  6
CONTINUOUS
 10
328.8295503097
 20
-158.4550439576
  0
VERTEX
  8
0
 62
7
  6
CONTINUOUS
 10
333.8923756706
 20
-151.6073937391
  0
VERTEX
  8
0
 62
7
  6
CONTINUOUS
 10
338.5262167272
 20
-144.6010997741
  0
VERTEX
  8
0
 62
7
  6
CONTINUOUS
 10
342.7433308624
 20
-137.4285806388
  0
VERTEX
  8
0
 62
7
  6
CONTINUOUS
 10
346.5621810928
 20
-130.0581668427
  0
VERTEX
  8
0
 62
7
  6
CONTINUOUS
 10
349.9942947552
 20
-122.4573624866
  0
VERTEX
  8
0
 62
7
  6
CONTINUOUS
 10
353.0445941417
 20
-114.6023232788
  0
VERTEX
  8
0
 62
7
  6
CONTINUOUS
 10
355.6707792649
 20
-106.6206761199
  0
SEQEND
  0
POLYLINE
  8
0
 62
7
  6
CONTINUOUS
 66
1
 70
0
  0
VERTEX
  8
0
 62
7
  6
CONTINUOUS
 10
161.1054875387
 20
-217.5107259427
  0
VERTEX
  8
0
 62
7
  6
CONTINUOUS
 10
186.0703698681
 20
-219.2909914029
  0
VERTEX
  8
0
 62
7
  6
CONTINUOUS
 10
211.0342256723
 20
-217.5000440334
  0
VERTEX
  8
0
 62
7
  6
CONTINUOUS
 10
235.4889773214
 20
-212.1744110592
  0
VERTEX
  8
0
 62
7
  6
CONTINUOUS
 10
258.9369524116
 20
-203.4224622637
  0
VERTEX
  8
0
 62
7
  6
CONTINUOUS
 10
280.9009255771
 20
-191.4222082951
  0
VERTEX
  8
0
 62
7
  6
CONTINUOUS
 10
300.9337287957
 20
-176.4177574812
  0
VERTEX
  8
0
 62
7
  6
CONTINUOUS
 10
318.6273416498
 20
-158.7144574468
  0
VERTEX
  8
0
 62
7
  6
CONTINUOUS
 10
333.6213309412
 20
-138.6726520866
  0
VERTEX
  8
0
 62
7
  6
CONTINUOUS
 10
345.6102248421
 20
-116.700349928
  0
VERTEX
  8
0
 62
7
  6
CONTINUOUS
 10
354.3497176533
 20
-93.2448866715
  0
VERTEX
  8
0
 62
7
  6
CONTINUOUS
 10
359.6616671504
 20
-68.7838407178
  0
VERTEX
  8
0
 62
7
  6
CONTINUOUS
 10
361.435557215
 20
-44.7581842555
  0
SEQEND
  0
POLYLINE
  8
0
 62
7
  6
CONTINUOUS
 66
1
 70
0
  0
VERTEX
  8
0
 62
7
  6
CONTINUOUS
 10
139.8574869435
 20
-219.4521829276
  0
VERTEX
  8
0
 62
7
  6
CONTINUOUS
 10
146.5552281519
 20
-220.9510964706
  0
VERTEX
  8
0
 62
7
  6
CONTINUOUS
 10
152.9811669599
 20
-222.1657134564
  0
VERTEX
  8
0
 62
7
  6
CONTINUOUS
 10
158.6567850218
 20
-223.0732491813
  0
VERTEX
  8
0
 62
7
  6
CONTINUOUS
 10
163.6033215874
 20
-223.7130486727
  0
VERTEX
  8
0
 62
7
  6
CONTINUOUS
 10
168.7904195907
 20
-224.2063391888
  0
VERTEX
  8
0
 62
7
  6
CONTINUOUS
 10
174.7645267083
 20
-224.5888950057
  0
VERTEX
  8
0
 62
7
  6
CONTINUOUS
 10
181.5816279094
 20
-224.8482503519
  0
VERTEX
  8
0
 62
7
  6
CONTINUOUS
 10
189.4885733727
 20
-224.8773173789
  0
VERTEX
  8
0
 62
7
  6
CONTINUOUS
 10
199.0979887702
 20
-224.492635492
  0
VERTEX
  8
0
 62
7
  6
CONTINUOUS
 10
207.639509189
 20
-223.7780445322
  0
VERTEX
  8
0
 62
7
  6
CONTINUOUS
 10
214.8334843395
 20
-222.8733732465
  0
VERTEX
  8
0
 62
7
  6
CONTINUOUS
 10
221.160504821
 20
-221.8175876064
  0
VERTEX
  8
0
 62
7
  6
CONTINUOUS
 10
227.1811584418
 20
-220.60081022
  0
VERTEX
  8
0
 62
7
  6
CONTINUOUS
 10
232.2171214059
 20
-219.4496641703
  0
SEQEND
  0
POLYLINE
  8
0
 62
7
  6
CONTINUOUS
 66
1
 70
0
  0
VERTEX
  8
0
 62
7
  6
CONTINUOUS
 10
71.1869646544
 20
-176.4656667032
  0
VERTEX
  8
0
 62
7
  6
CONTINUOUS
 10
91.2261396393
 20
-191.4618353095
  0
VERTEX
  8
0
 62
7
  6
CONTINUOUS
 10
113.1955686181
 20
-203.4531115303
  0
VERTEX
  8
0
 62
7
  6
CONTINUOUS
 10
136.6478763724
 20
-212.1953889853
  0
VERTEX
  8
0
 62
7
  6
CONTINUOUS
 10
161.1054875387
 20
-217.5107259427
  0
SEQEND
  0
POLYLINE
  8
0
 62
7
  6
CONTINUOUS
 66
1
 70
0
  0
VERTEX
  8
0
 62
7
  6
CONTINUOUS
 10
16.3946295554
 20
-106.6206761418
  0
VERTEX
  8
0
 62
7
  6
CONTINUOUS
 10
19.0208899451
 20
-114.6025336361
  0
VERTEX
  8
0
 62
7
  6
CONTINUOUS
 10
22.0711870533
 20
-122.4575367345
  0
VERTEX
  8
0
 62
7
  6
CONTINUOUS
 10
25.5032918558
 20
-130.0582993594
  0
VERTEX
  8
0
 62
7
  6
CONTINUOUS
 10
29.3221503792
 20
-137.4287117424
  0
VERTEX
  8
0
 62
7
  6
CONTINUOUS
 10
33.5392808938
 20
-144.6012422311
  0
VERTEX
  8
0
 62
7
  6
CONTINUOUS
 10
38.1731308169
 20
-151.607533519
  0
VERTEX
  8
0
 62
7
  6
CONTINUOUS
 10
43.2359651624
 20
-158.4551807694
  0
VERTEX
  8
0
 62
7
  6
CONTINUOUS
 10
48.7271663999
 20
-165.1271672561
  0
VERTEX
  8
0
 62
7
  6
CONTINUOUS
 10
54.6137176682
 20
-171.5695688327
  0
VERTEX
  8
0
 62
7
  6
CONTINUOUS
 10
60.8455660923
 20
-177.7213578278
  0
VERTEX
  8
0
 62
7
  6
CONTINUOUS
 10
67.3746556784
 20
-183.5351147564
  0
VERTEX
  8
0
 62
7
  6
CONTINUOUS
 10
74.1696578322
 20
-188.9848296459
  0
VERTEX
  8
0
 62
7
  6
CONTINUOUS
 10
81.205380843
 20
-194.0513647403
  0
VERTEX
  8
0
 62
7
  6
CONTINUOUS
 10
88.4658794516
 20
-198.7230179568
  0
VERTEX
  8
0
 62
7
  6
CONTINUOUS
 10
95.9850325099
 20
-203.0176549281
  0
VERTEX
  8
0
 62
7
  6
CONTINUOUS
 10
103.8355453125
 20
-206.9666831626
  0
VERTEX
  8
0
 62
7
  6
CONTINUOUS
 10
112.0824004301
 20
-210.5840043579
  0
VERTEX
  8
0
 62
7
  6
CONTINUOUS
 10
120.7386890523
 20
-213.8554885366
  0
VERTEX
  8
0
 62
7
  6
CONTINUOUS
 10
129.9954898826
 20
-216.8232689265
  0
VERTEX
  8
0
 62
7
  6
CONTINUOUS
 10
139.8550104969
 20
-219.4512537061
  0
SEQEND
  0
LINE
  8
0
 62
7
  6
CONTINUOUS
 10
187.2981243624
 20
460.2571620214
 11
194.6952725419
 21
467.6543102009
  0
LINE
  8
0
 62
7
  6
CONTINUOUS
 10
194.938008441
 20
467.1899393188
 11
187.651677753
 21
459.9036086308
  0
POLYLINE
  8
0
 62
7
  6
CONTINUOUS
 66
1
 70
0
  0
VERTEX
  8
0
 62
7
  6
CONTINUOUS
 10
12.5053111144
 20
-90.8021361179
  0
VERTEX
  8
0
 62
7
  6
CONTINUOUS
 10
12.779785411
 20
-92.1051725752
  0
VERTEX
  8
0
 62
7
  6
CONTINUOUS
 10
13.1738817225
 20
-93.899562995
  0
VERTEX
  8
0
 62
7
  6
CONTINUOUS
 10
13.7368081325
 20
-96.3322771581
  0
VERTEX
  8
0
 62
7
  6
CONTINUOUS
 10
14.2764790503
 20
-98.551568768
  0
VERTEX
  8
0
 62
7
  6
CONTINUOUS
 10
14.6726475123
 20
-100.1295662643
  0
VERTEX
  8
0
 62
7
  6
CONTINUOUS
 10
14.9759616965
 20
-101.3163029328
  0
VERTEX
  8
0
 62
7
  6
CONTINUOUS
 10
15.2205251517
 20
-102.2607562537
  0
VERTEX
  8
0
 62
7
  6
CONTINUOUS
 10
15.422082064
 20
-103.0295470154
  0
VERTEX
  8
0
 62
7
  6
CONTINUOUS
 10
15.5968079329
 20
-103.6876552658
  0
VERTEX
  8
0
 62
7
  6
CONTINUOUS
 10
15.7507815213
 20
-104.2608732988
  0
VERTEX
  8
0
 62
7
  6
CONTINUOUS
 10
15.8854059866
 20
-104.7580267089
  0
VERTEX
  8
0
 62
7
  6
CONTINUOUS
 10
16.0052248478
 20
-105.1996979141
  0
VERTEX
  8
0
 62
7
  6
CONTINUOUS
 10
16.1121385007
 20
-105.5957286024
  0
VERTEX
  8
0
 62
7
  6
CONTINUOUS
 10
16.2075684323
 20
-105.9511938394
  0
VERTEX
  8
0
 62
7
  6
CONTINUOUS
 10
16.2966500155
 20
-106.2796424477
  0
VERTEX
  8
0
 62
7
  6
CONTINUOUS
 10
16.3946779313
 20
-106.6208104436
  0
SEQEND
  0
POLYLINE
  8
0
 62
7
  6
CONTINUOUS
 66
1
 70
0
  0
VERTEX
  8
0
 62
7
  6
CONTINUOUS
 10
10.6298502224
 20
-44.7581842619
  0
VERTEX
  8
0
 62
7
  6
CONTINUOUS
 10
12.4146450922
 20
-68.8597535323
  0
VERTEX
  8
0
 62
7
  6
CONTINUOUS
 10
17.7369645505
 20
-93.3173722677
  0
VERTEX
  8
0
 62
7
  6
CONTINUOUS
 10
26.4861601897
 20
-116.768190223
  0
VERTEX
  8
0
 62
7
  6
CONTINUOUS
 10
38.4839879727
 20
-138.734769058
  0
VERTEX
  8
0
 62
7
  6
CONTINUOUS
 10
53.486095141
 20
-158.7698932985
  0
VERTEX
  8
0
 62
7
  6
CONTINUOUS
 10
71.1869646544
 20
-176.4656667032
  0
SEQEND
  0
LINE
  8
0
 62
7
  6
CONTINUOUS
 10
11.0703442628
 20
234.7161091552
 11
11.0704266042
 21
234.7148516231
  0
POLYLINE
  8
0
 62
7
  6
CONTINUOUS
 66
1
 70
0
  0
VERTEX
  8
0
 62
7
  6
CONTINUOUS
 10
11.0704266042
 20
234.7148516231
  0
VERTEX
  8
0
 62
7
  6
CONTINUOUS
 10
11.1936795974
 20
232.5208465196
  0
VERTEX
  8
0
 62
7
  6
CONTINUOUS
 10
11.3064840907
 20
229.2487598954
  0
VERTEX
  8
0
 62
7
  6
CONTINUOUS
 10
11.3511077669
 20
225.7969515509
  0
SEQEND
  0
LINE
  8
0
 62
7
  6
CONTINUOUS
 10
-2.9033007415
 20
375.2688144111
 11
-2.8483789074
 21
374.2226605828
  0
LINE
  8
0
 62
7
  6
CONTINUOUS
 10
11.0523261336
 20
235.1360017825
 11
11.0703449811
 21
234.7161093127
  0
LINE
  8
0
 62
7
  6
CONTINUOUS
 10
10.6298496467
 20
-44.7581842628
 11
9.6260645847
 21
157.0945231442
  0
LINE
  8
0
 62
7
  6
CONTINUOUS
 10
11.0513880465
 20
235.6425957053
 11
11.0523261336
 21
235.1360017825
  0
LINE
  8
0
 62
7
  6
CONTINUOUS
 10
-2.903303482
 20
518.0149442268
 11
-2.903303482
 21
375.2688144119
  0
LINE
  8
0
 62
7
  6
CONTINUOUS
 10
9.6327610029
 20
169.3510679085
 11
9.6260645468
 21
157.0945231572
  0
LINE
  8
0
 62
7
  6
CONTINUOUS
 10
11.3511077669
 20
225.7969515509
 11
11.3248631515
 21
222.3609981664
  0
LINE
  8
0
 62
7
  6
CONTINUOUS
 10
11.3248631515
 20
222.3609981664
 11
11.2295028739
 21
219.1354769629
  0
LINE
  8
0
 62
7
  6
CONTINUOUS
 10
11.069314226
 20
236.0743692998
 11
11.0513880465
 21
235.6425957053
  0
LINE
  8
0
 62
7
  6
CONTINUOUS
 10
11.2295028739
 20
219.1354769629
 11
11.1221361723
 21
217.0590368585
  0
POLYLINE
  8
0
 62
7
  6
CONTINUOUS
 66
1
 70
0
  0
VERTEX
  8
0
 62
7
  6
CONTINUOUS
 10
11.122126249
 20
217.0588790891
  0
VERTEX
  8
0
 62
7
  6
CONTINUOUS
 10
10.5640820351
 20
206.7609983037
  0
VERTEX
  8
0
 62
7
  6
CONTINUOUS
 10
10.1033102202
 20
194.8885424004
  0
VERTEX
  8
0
 62
7
  6
CONTINUOUS
 10
9.7910335883
 20
182.3409886818
  0
VERTEX
  8
0
 62
7
  6
CONTINUOUS
 10
9.6327610029
 20
169.3510679085
  0
SEQEND
  0
LINE
  8
0
 62
7
  6
CONTINUOUS
 10
11.122126249
 20
217.0588790891
 11
11.1221361792
 21
217.059037079
  0
POLYLINE
  8
0
 62
7
  6
CONTINUOUS
 66
1
 70
0
  0
VERTEX
  8
0
 62
7
  6
CONTINUOUS
 10
11.1771096285
 20
236.6909277249
  0
VERTEX
  8
0
 62
7
  6
CONTINUOUS
 10
11.10327483
 20
236.3972632391
  0
VERTEX
  8
0
 62
7
  6
CONTINUOUS
 10
11.069314226
 20
236.0743692998
  0
SEQEND
  0
POLYLINE
  8
0
 62
7
  6
CONTINUOUS
 66
1
 70
0
  0
VERTEX
  8
0
 62
7
  6
CONTINUOUS
 10
9.9159505112
 20
237.9453934932
  0
VERTEX
  8
0
 62
7
  6
CONTINUOUS
 10
9.9119666734
 20
237.9409688961
  0
VERTEX
  8
0
 62
7
  6
CONTINUOUS
 10
9.9067780629
 20
237.93495255
  0
VERTEX
  8
0
 62
7
  6
CONTINUOUS
 10
9.9017541242
 20
237.9288455982
  0
VERTEX
  8
0
 62
7
  6
CONTINUOUS
 10
9.8997423338
 20
237.926320886
  0
SEQEND
  0
POLYLINE
  8
0
 62
7
  6
CONTINUOUS
 66
1
 70
0
  0
VERTEX
  8
0
 62
7
  6
CONTINUOUS
 10
11.7499744162
 20
237.288748881
  0
VERTEX
  8
0
 62
7
  6
CONTINUOUS
 10
11.3852431707
 20
237.0333588602
  0
VERTEX
  8
0
 62
7
  6
CONTINUOUS
 10
11.1771096285
 20
236.6909277249
  0
SEQEND
  0
POLYLINE
  8
0
 62
7
  6
CONTINUOUS
 66
1
 70
0
  0
VERTEX
  8
0
 62
7
  6
CONTINUOUS
 10
-2.8483789074
 20
374.2226605828
  0
VERTEX
  8
0
 62
7
  6
CONTINUOUS
 10
-2.6434811739
 20
373.0052014421
  0
VERTEX
  8
0
 62
7
  6
CONTINUOUS
 10
-2.2899952861
 20
371.8223454545
  0
VERTEX
  8
0
 62
7
  6
CONTINUOUS
 10
-1.7933188376
 20
370.6920554422
  0
VERTEX
  8
0
 62
7
  6
CONTINUOUS
 10
-1.1609707593
 20
369.631514016
  0
VERTEX
  8
0
 62
7
  6
CONTINUOUS
 10
-0.4025613721
 20
368.656872998
  0
VERTEX
  8
0
 62
7
  6
CONTINUOUS
 10
0.4703699372
 20
367.7830035891
  0
VERTEX
  8
0
 62
7
  6
CONTINUOUS
 10
1.4445612156
 20
367.0232525084
  0
VERTEX
  8
0
 62
7
  6
CONTINUOUS
 10
2.5052000898
 20
366.3892047479
  0
VERTEX
  8
0
 62
7
  6
CONTINUOUS
 10
3.6361724282
 20
365.8905586768
  0
VERTEX
  8
0
 62
7
  6
CONTINUOUS
 10
4.8202877519
 20
365.5349859251
  0
VERTEX
  8
0
 62
7
  6
CONTINUOUS
 10
6.039544543
 20
365.3279736593
  0
VERTEX
  8
0
 62
7
  6
CONTINUOUS
 10
7.1036585985
 20
365.2713014796
  0
SEQEND
  0
LINE
  8
0
 62
7
  6
CONTINUOUS
 10
73.0327043823
 20
236.9696719347
 11
73.0327043823
 21
239.8139806093
  0
LINE
  8
0
 62
7
  6
CONTINUOUS
 10
89.5327043823
 20
239.8139806093
 11
89.5327043823
 21
236.9696719347
  0
LINE
  8
0
 62
7
  6
CONTINUOUS
 10
186.2729980965
 20
438.2476001663
 11
186.2729980965
 21
457.7822882872
  0
LINE
  8
0
 62
7
  6
CONTINUOUS
 10
186.7729980965
 20
457.7822882872
 11
186.7729980965
 21
438.2476001663
  0
LINE
  8
0
 62
7
  6
CONTINUOUS
 10
299.0327043823
 20
236.9696719347
 11
282.5327043823
 21
236.9696719347
  0
LINE
  8
0
 62
7
  6
CONTINUOUS
 10
89.5327043823
 20
236.9696719347
 11
73.0327043823
 21
236.9696719347
  0
LINE
  8
0
 62
7
  6
CONTINUOUS
 10
282.5327043823
 20
237.3641701463
 11
89.5327043823
 21
237.3641701463
  0
LINE
  8
0
 62
7
  6
CONTINUOUS
 10
73.0327043823
 20
237.3641701463
 11
12.1325319689
 21
237.3641701463
  0
LINE
  8
0
 62
7
  6
CONTINUOUS
 10
299.0327043823
 20
237.3641701463
 11
359.9330582839
 21
237.3641701463
  0
LINE
  8
0
 62
7
  6
CONTINUOUS
 10
282.5327043823
 20
236.9696719347
 11
282.5327043823
 21
239.8139806093
  0
LINE
  8
0
 62
7
  6
CONTINUOUS
 10
299.0327043823
 20
239.8139806093
 11
299.0327043823
 21
236.9696719347
  0
LINE
  8
0
 62
7
  6
CONTINUOUS
 10
11.9949857207
 20
240.0249567995
 11
11.9952343936
 21
240.0249572012
  0
LINE
  8
0
 62
7
  6
CONTINUOUS
 10
360.2047568814
 20
237.3268024074
 11
359.9327287748
 21
237.3641687686
  0
LINE
  8
0
 62
7
  6
CONTINUOUS
 10
12.1324950374
 20
237.3641686284
 11
11.7499744162
 21
237.288748881
  0
LINE
  8
0
 62
7
  6
CONTINUOUS
 10
360.9950762291
 20
234.7162949921
 11
361.0108665188
 21
235.0517844132
  0
LINE
  8
0
 62
7
  6
CONTINUOUS
 10
360.9949808391
 20
234.7148321391
 11
360.9950762557
 21
234.7162948841
  0
POLYLINE
  8
0
 62
7
  6
CONTINUOUS
 66
1
 70
0
  0
VERTEX
  8
0
 62
7
  6
CONTINUOUS
 10
374.7087984446
 20
373.0048081709
  0
VERTEX
  8
0
 62
7
  6
CONTINUOUS
 10
374.9137269793
 20
374.222084305
  0
VERTEX
  8
0
 62
7
  6
CONTINUOUS
 10
374.9687094592
 20
375.2688144
  0
SEQEND
  0
LINE
  8
0
 62
7
  6
CONTINUOUS
 10
361.0037941747
 20
235.9444133163
 11
360.9784531015
 21
236.2741291451
  0
LINE
  8
0
 62
7
  6
CONTINUOUS
 10
360.943271378
 20
217.0590561762
 11
360.9432824336
 21
217.0588803583
  0
LINE
  8
0
 62
7
  6
CONTINUOUS
 10
361.5013274781
 20
206.7609820878
 11
360.9432824336
 21
217.0588803583
  0
LINE
  8
0
 62
7
  6
CONTINUOUS
 10
360.9432713293
 20
217.0590559518
 11
360.8359060689
 21
219.1354721103
  0
LINE
  8
0
 62
7
  6
CONTINUOUS
 10
360.8359060689
 20
219.1354721103
 11
360.7405453585
 21
222.361014888
  0
LINE
  8
0
 62
7
  6
CONTINUOUS
 10
360.7405453585
 20
222.361014888
 11
360.7143011084
 21
225.796997863
  0
POLYLINE
  8
0
 62
7
  6
CONTINUOUS
 66
1
 70
0
  0
VERTEX
  8
0
 62
7
  6
CONTINUOUS
 10
362.4393442105
 20
157.0945231581
  0
VERTEX
  8
0
 62
7
  6
CONTINUOUS
 10
362.4326477919
 20
169.3510733105
  0
VERTEX
  8
0
 62
7
  6
CONTINUOUS
 10
362.2743752998
 20
182.3409825027
  0
VERTEX
  8
0
 62
7
  6
CONTINUOUS
 10
361.9620989746
 20
194.8885290353
  0
VERTEX
  8
0
 62
7
  6
CONTINUOUS
 10
361.5013274781
 20
206.7609820878
  0
SEQEND
  0
LINE
  8
0
 62
7
  6
CONTINUOUS
 10
374.9687122467
 20
518.0149442268
 11
374.9687122467
 21
375.2688144119
  0
LINE
  8
0
 62
7
  6
CONTINUOUS
 10
361.4355591179
 20
-44.7581842628
 11
362.43934418
 21
157.0945231442
  0
POLYLINE
  8
0
 62
7
  6
CONTINUOUS
 66
1
 70
0
  0
VERTEX
  8
0
 62
7
  6
CONTINUOUS
 10
361.0108665188
 20
235.0517844132
  0
VERTEX
  8
0
 62
7
  6
CONTINUOUS
 10
361.0157143587
 20
235.5213745699
  0
VERTEX
  8
0
 62
7
  6
CONTINUOUS
 10
361.0037941747
 20
235.9444133163
  0
SEQEND
  0
POLYLINE
  8
0
 62
7
  6
CONTINUOUS
 66
1
 70
0
  0
VERTEX
  8
0
 62
7
  6
CONTINUOUS
 10
360.7143011084
 20
225.796997863
  0
VERTEX
  8
0
 62
7
  6
CONTINUOUS
 10
360.7589261503
 20
229.2488235764
  0
VERTEX
  8
0
 62
7
  6
CONTINUOUS
 10
360.8717321756
 20
232.5208975974
  0
VERTEX
  8
0
 62
7
  6
CONTINUOUS
 10
360.9949808391
 20
234.7148321391
  0
SEQEND
  0
POLYLINE
  8
0
 62
7
  6
CONTINUOUS
 66
1
 70
0
  0
VERTEX
  8
0
 62
7
  6
CONTINUOUS
 10
360.8201705592
 20
236.8384019372
  0
VERTEX
  8
0
 62
7
  6
CONTINUOUS
 10
360.5765471486
 20
237.1321234655
  0
VERTEX
  8
0
 62
7
  6
CONTINUOUS
 10
360.2047568814
 20
237.3268024074
  0
SEQEND
  0
LINE
  8
0
 62
7
  6
CONTINUOUS
 10
360.9351661232
 20
236.5362583573
 11
360.8201705592
 21
236.8384019372
  0
LINE
  8
0
 62
7
  6
CONTINUOUS
 10
360.9784531015
 20
236.2741291451
 11
360.9351661232
 21
236.5362583573
  0
POLYLINE
  8
0
 62
7
  6
CONTINUOUS
 66
1
 70
0
  0
VERTEX
  8
0
 62
7
  6
CONTINUOUS
 10
374.9687120881
 20
518.0149442272
  0
VERTEX
  8
0
 62
7
  6
CONTINUOUS
 10
374.912081994
 20
519.0771410199
  0
VERTEX
  8
0
 62
7
  6
CONTINUOUS
 10
374.7052743235
 20
520.2940717721
  0
VERTEX
  8
0
 62
7
  6
CONTINUOUS
 10
374.3499951255
 20
521.4762109648
  0
VERTEX
  8
0
 62
7
  6
CONTINUOUS
 10
373.8516240445
 20
522.6056730435
  0
VERTEX
  8
0
 62
7
  6
CONTINUOUS
 10
373.2176530617
 20
523.6653462555
  0
VERTEX
  8
0
 62
7
  6
CONTINUOUS
 10
372.4576740917
 20
524.6390760879
  0
VERTEX
  8
0
 62
7
  6
CONTINUOUS
 10
371.5832300531
 20
525.511946762
  0
VERTEX
  8
0
 62
7
  6
CONTINUOUS
 10
370.6076123034
 20
526.2705732897
  0
VERTEX
  8
0
 62
7
  6
CONTINUOUS
 10
369.5456730589
 20
526.9033398745
  0
VERTEX
  8
0
 62
7
  6
CONTINUOUS
 10
368.4135828677
 20
527.4005376068
  0
VERTEX
  8
0
 62
7
  6
CONTINUOUS
 10
367.2285924601
 20
527.7545093216
  0
VERTEX
  8
0
 62
7
  6
CONTINUOUS
 10
366.0087683962
 20
527.9598046834
  0
VERTEX
  8
0
 62
7
  6
CONTINUOUS
 10
364.9620772324
 20
528.0149440551
  0
SEQEND
  0
LINE
  8
0
 62
7
  6
CONTINUOUS
 10
359.5600977411
 20
-90.8021356802
 11
359.2856233775
 21
-92.1051724639
  0
POLYLINE
  8
0
 62
7
  6
CONTINUOUS
 66
1
 70
0
  0
VERTEX
  8
0
 62
7
  6
CONTINUOUS
 10
364.9617501664
 20
365.2713014815
  0
VERTEX
  8
0
 62
7
  6
CONTINUOUS
 10
366.0266067347
 20
365.3280529931
  0
VERTEX
  8
0
 62
7
  6
CONTINUOUS
 10
367.2457376979
 20
365.5351303083
  0
VERTEX
  8
0
 62
7
  6
CONTINUOUS
 10
368.4297021658
 20
365.8907305777
  0
VERTEX
  8
0
 62
7
  6
CONTINUOUS
 10
369.5605164713
 20
366.3893637498
  0
VERTEX
  8
0
 62
7
  6
CONTINUOUS
 10
370.6210074183
 20
367.0233620158
  0
VERTEX
  8
0
 62
7
  6
CONTINUOUS
 10
371.59507427
 20
367.7830349238
  0
VERTEX
  8
0
 62
7
  6
CONTINUOUS
 10
372.4679142308
 20
368.6568096647
  0
VERTEX
  8
0
 62
7
  6
CONTINUOUS
 10
373.2262713019
 20
369.631355665
  0
VERTEX
  8
0
 62
7
  6
CONTINUOUS
 10
373.858606633
 20
370.6918206762
  0
VERTEX
  8
0
 62
7
  6
CONTINUOUS
 10
374.3552944365
 20
371.8220474619
  0
VERTEX
  8
0
 62
7
  6
CONTINUOUS
 10
374.7087984446
 20
373.0048081709
  0
SEQEND
  0
LINE
  8
0
 62
7
  6
CONTINUOUS
 10
364.9617501662
 20
365.2713015782
 11
7.1036585984
 21
365.2713015782
  0
LINE
  8
0
 62
7
  6
CONTINUOUS
 10
194.6952725419
 20
428.3755782526
 11
187.2981243624
 21
435.7727264322
  0
LINE
  8
0
 62
7
  6
CONTINUOUS
 10
187.651677753
 20
436.1262798228
 11
194.938008441
 21
428.8399491348
  0
POLYLINE
  8
0
 62
7
  6
CONTINUOUS
 66
1
 70
0
  0
VERTEX
  8
0
 62
7
  6
CONTINUOUS
 10
355.6707308352
 20
-106.6208104377
  0
VERTEX
  8
0
 62
7
  6
CONTINUOUS
 10
355.7687587512
 20
-106.2796424401
  0
VERTEX
  8
0
 62
7
  6
CONTINUOUS
 10
355.8578403381
 20
-105.9511938184
  0
VERTEX
  8
0
 62
7
  6
CONTINUOUS
 10
355.9532702735
 20
-105.5957285669
  0
VERTEX
  8
0
 62
7
  6
CONTINUOUS
 10
356.06018393
 20
-105.1996978659
  0
VERTEX
  8
0
 62
7
  6
CONTINUOUS
 10
356.1800027947
 20
-104.7580266478
  0
VERTEX
  8
0
 62
7
  6
CONTINUOUS
 10
356.3146272654
 20
-104.2608732172
  0
VERTEX
  8
0
 62
7
  6
CONTINUOUS
 10
356.4686008614
 20
-103.6876551547
  0
VERTEX
  8
0
 62
7
  6
CONTINUOUS
 10
356.6433267378
 20
-103.0295468747
  0
VERTEX
  8
0
 62
7
  6
CONTINUOUS
 10
356.8448836625
 20
-102.2607560639
  0
VERTEX
  8
0
 62
7
  6
CONTINUOUS
 10
357.0894471264
 20
-101.3163027068
  0
VERTEX
  8
0
 62
7
  6
CONTINUOUS
 10
357.3927613333
 20
-100.1295659457
  0
VERTEX
  8
0
 62
7
  6
CONTINUOUS
 10
357.7889298272
 20
-98.5515683136
  0
VERTEX
  8
0
 62
7
  6
CONTINUOUS
 10
358.3286007711
 20
-96.3322765739
  0
VERTEX
  8
0
 62
7
  6
CONTINUOUS
 10
358.891527102
 20
-93.8995627294
  0
VERTEX
  8
0
 62
7
  6
CONTINUOUS
 10
359.2856233775
 20
-92.1051724639
  0
SEQEND
  0
POLYLINE
  8
0
 62
7
  6
CONTINUOUS
 66
1
 70
0
  0
VERTEX
  8
0
 62
7
  6
CONTINUOUS
 10
7.1036266646
 20
528.0149441436
  0
VERTEX
  8
0
 62
7
  6
CONTINUOUS
 10
6.0577466937
 20
527.959921152
  0
VERTEX
  8
0
 62
7
  6
CONTINUOUS
 10
4.8377137552
 20
527.7547179622
  0
VERTEX
  8
0
 62
7
  6
CONTINUOUS
 10
3.652510863
 20
527.400789226
  0
VERTEX
  8
0
 62
7
  6
CONTINUOUS
 10
2.5202137424
 20
526.903586031
  0
VERTEX
  8
0
 62
7
  6
CONTINUOUS
 10
1.4580823813
 20
526.2707685343
  0
VERTEX
  8
0
 62
7
  6
CONTINUOUS
 10
0.482294919
 20
525.5120492514
  0
VERTEX
  8
0
 62
7
  6
CONTINUOUS
 10
-0.3922901846
 20
524.6390479958
  0
VERTEX
  8
0
 62
7
  6
CONTINUOUS
 10
-1.152375109
 20
523.6651555311
  0
VERTEX
  8
0
 62
7
  6
CONTINUOUS
 10
-1.7864105481
 20
522.6052954897
  0
VERTEX
  8
0
 62
7
  6
CONTINUOUS
 10
-2.2848007323
 20
521.4756303987
  0
VERTEX
  8
0
 62
7
  6
CONTINUOUS
 10
-2.6400508889
 20
520.2932806276
  0
VERTEX
  8
0
 62
7
  6
CONTINUOUS
 10
-2.8467801247
 20
519.076141311
  0
VERTEX
  8
0
 62
7
  6
CONTINUOUS
 10
-2.903303326
 20
518.0149442268
  0
SEQEND
  0
LINE
  8
0
 62
7
  6
CONTINUOUS
 10
4.7143311404
 20
528.0149442268
 11
367.3510776071
 21
528.0149442268
  0
ARC
  8
0
 62
7
  6
CONTINUOUS
 10
186.0327043823
 20
448.0149442268
 40
21.462985367
 50
66.1882883411
 51
293.8117116589
  0
ARC
  8
0
 62
7
  6
CONTINUOUS
 10
186.0327043823
 20
448.0149442268
 40
21.1420168659
 50
293.4615672859
 51
66.5384327141
  0
ARC
  8
0
 62
7
  6
CONTINUOUS
 10
186.0327043823
 20
448.0149442268
 40
18.624232976
 50
69.6305396407
 51
290.3694603593
  0
ARC
  8
0
 62
7
  6
CONTINUOUS
 10
186.0327043823
 20
448.0149442268
 40
18.5087010099
 50
291.8995941767
 51
68.1004058233
  0
ARC
  8
0
 62
7
  6
CONTINUOUS
 10
4.7143099575
 20
523.0149442268
 40
5.0
 50
90.0
 51
152.454246754
  0
ARC
  8
0
 62
7
  6
CONTINUOUS
 10
367.3510988072
 20
523.0149442268
 40
5.0
 50
27.5460771717
 51
90.0
  0
ARC
  8
0
 62
7
  6
CONTINUOUS
 10
189.7729980965
 20
438.2476001663
 40
3.5
 50
180.0
 51
225.0
  0
ARC
  8
0
 62
7
  6
CONTINUOUS
 10
189.7729980965
 20
457.7822882872
 40
3.5
 50
135.0
 51
180.0
  0
ARC
  8
0
 62
7
  6
CONTINUOUS
 10
189.7729980965
 20
457.7822882872
 40
3.0
 50
135.0
 51
180.0
  0
ARC
  8
0
 62
7
  6
CONTINUOUS
 10
189.7729980965
 20
438.2476001663
 40
3.0
 50
180.0
 51
225.0
  0
ENDSEC
  0
EOF
