999
DXF file: K:\Client\125_Heirloom\001\00\Final_Data\Drawings\TOILETS\sentinel-374124s_3.dxf
999
Pro/ENGINEER 2017110 by Parametric Technology Corporation
  0
SECTION
  2
HEADER
  9
$EXTMAX
 10
420.0
 20
297.0
 30
0.0
  9
$EXTMIN
 10
0.0
 20
0.0
 30
0.0
  9
$LIMMIN
 10
0.0
 20
0.0
  9
$LIMMAX
 10
420.0
 20
297.0
  9
$VIEWCTR
 10
210.0
 20
148.5
  9
$VIEWSIZE
 40
297.0
  9
$CLAYER
  8
0
  9
$LTSCALE
 40
23.1
  9
$CELTYPE
  6
BYLAYER
  9
$DIMSCALE
 40
1.0
  9
$DIMASZ
 40
3.0
  9
$DIMEXO
 40
1.0
  9
$DIMDLI
 40
15.96
  9
$DIMEXE
 40
1.0
  9
$DIMCEN
 40
3.78
  9
$DIMLFAC
 40
1.0
  9
$DIMBLK
  1
_FILLED
  9
$DIMALT
 70
0
  9
$DIMALTF
 40
0.0393700787
  9
$DIMTXT
 40
3.0
  9
$AUNITS
 70
0
  9
$PDMODE
 70
3
  9
$PDSIZE
 40
5.0
  9
$TILEMODE
 70
1
  0
ENDSEC
  0
SECTION
  2
TABLES
  0
TABLE
  2
LTYPE
 70
6
  0
LTYPE
  2
BYBLOCK
 70
0
  3

 72
65
 73
0
 40
0.0
  0
LTYPE
  2
BYLAYER
 70
0
  3

 72
65
 73
0
 40
0.0
  0
LTYPE
  2
CONTINUOUS
 70
64
  3
Solid line
 72
65
 73
0
 40
0.0
  0
LTYPE
  2
CENTER
 70
64
  3
____ _ ____ _ ____ _ ____ _ ____ _ ____ _ ____
 72
65
 73
4
 40
0.6
 49
0.375
 49
-0.075
 49
0.075
 49
-0.075
  0
LTYPE
  2
HIDDEN
 70
64
  3
- - - - - - - - - - - - - - - - - - - -
 72
65
 73
2
 40
0.2
 49
0.1
 49
-0.1
  0
LTYPE
  2
PHANTOM
 70
64
  3
_____ _ _ _____ _ _ _____ _ _ _____
 72
65
 73
6
 40
0.8
 49
0.45
 49
-0.05
 49
0.1
 49
-0.05
 49
0.1
 49
-0.05
  0
LTYPE
  2
DOT
 70
64
  3
. . . . . . . . . . . . . . . . . . . .
 72
65
 73
2
 40
0.2
 49
0.1
 49
-0.1
  0
LTYPE
  2
DASHED
 70
64
  3
- - - - - - - - - - - - - - - - - - - -
 72
65
 73
2
 40
0.2
 49
0.1
 49
-0.1
  0
ENDTAB
  0
TABLE
  2
LAYER
 70
36
  0
LAYER
  2
0
 70
0
 62
7
  6
CONTINUOUS
  0
LAYER
  2
DEFAULT_1
 70
0
 62
7
  6
CENTER
  0
LAYER
  2
DEFAULT_2
 70
0
 62
8
  6
HIDDEN
  0
LAYER
  2
DEFAULT_3
 70
0
 62
7
  6
PHANTOM
  0
LAYER
  2
0000_BOM
 70
0
 62
7
  6
CONTINUOUS
  0
LAYER
  2
0000_REV_TABLE
 70
0
 62
7
  6
CONTINUOUS
  0
LAYER
  2
0000_STEVENS_NOTE
 70
0
 62
7
  6
CONTINUOUS
  0
LAYER
  2
01_DATUM_PLANES
 70
0
 62
7
  6
CONTINUOUS
  0
LAYER
  2
01_DEF_PLANES
 70
0
 62
7
  6
CONTINUOUS
  0
LAYER
  2
02_DATUM_COS
 70
0
 62
7
  6
CONTINUOUS
  0
LAYER
  2
90_IMP_FEAT
 70
0
 62
7
  6
CONTINUOUS
  0
LAYER
  2
95_STL
 70
0
 62
7
  6
CONTINUOUS
  0
LAYER
  2
99_SOLID
 70
0
 62
7
  6
CONTINUOUS
  0
LAYER
  2
CAD-MASTER_ZINC-PL
 70
0
 62
7
  6
CONTINUOUS
  0
LAYER
  2
CURVE
 70
0
 62
7
  6
CONTINUOUS
  0
LAYER
  2
SHELL
 70
0
 62
7
  6
CONTINUOUS
  0
LAYER
  2
SKEL
 70
0
 62
7
  6
CONTINUOUS
  0
LAYER
  2
SKETCH
 70
0
 62
7
  6
CONTINUOUS
  0
LAYER
  2
SURFACE
 70
0
 62
7
  6
CONTINUOUS
  0
ENDTAB
  0
TABLE
  2
STYLE
 70
1
  0
STYLE
  2
STANDARD
 70
0
 40
0.0
 41
0.75
 50
0.0
 71
0
 42
0.2
  3
txt
  4

  0
STYLE
  2
TEXTSTYLE_1
 70
0
 40
0.0
 41
0.8
 50
0.0
 71
0
 42
0.2
  3
gdt
  4

  0
ENDTAB
  0
ENDSEC
  0
SECTION
  2
BLOCKS
  0
BLOCK
  8
0
 62
5
  6
CONTINUOUS
  2
PLUMBING_BL1
 70
64
 10
186.0327043823
 20
528.0149442268
  0
CIRCLE
  8
0
 62
5
  6
CONTINUOUS
 10
186.0327043823
 20
528.0149442268
 40
12.5
  0
LINE
  8
0
 62
5
  6
CONTINUOUS
 10
198.5327043823
 20
540.5149442268
 11
173.5327043823
 21
515.5149442268
  0
LINE
  8
0
 62
5
  6
CONTINUOUS
 10
186.0327043823
 20
528.0149442268
 11
173.5327043823
 21
540.5149442268
  0
LINE
  8
0
 62
5
  6
CONTINUOUS
 10
186.0327043823
 20
528.0149442268
 11
198.5327043823
 21
515.5149442268
  0
ENDBLK
  8
0
  6
BYBLOCK
 62
0
  0
BLOCK
  8
0
 62
1
  6
CONTINUOUS
  2
PLUMBING_BL0
 70
64
 10
186.0327043823
 20
253.0149442268
  0
CIRCLE
  8
0
 62
1
  6
CONTINUOUS
 10
186.0327043823
 20
253.0149442268
 40
12.5
  0
LINE
  8
0
 62
1
  6
CONTINUOUS
 10
198.5327043823
 20
265.5149442268
 11
173.5327043823
 21
240.5149442268
  0
LINE
  8
0
 62
1
  6
CONTINUOUS
 10
186.0327043823
 20
253.0149442268
 11
173.5327043823
 21
265.5149442268
  0
LINE
  8
0
 62
1
  6
CONTINUOUS
 10
186.0327043823
 20
253.0149442268
 11
198.5327043823
 21
240.5149442268
  0
ENDBLK
  8
0
  6
BYBLOCK
 62
0
  0
ENDSEC
  0
SECTION
  2
ENTITIES
  0
INSERT
  8
0
 62
1
  6
CONTINUOUS
  2
PLUMBING_BL0
 10
186.0327043823
 20
253.0149442268
  0
INSERT
  8
0
 62
5
  6
CONTINUOUS
  2
PLUMBING_BL1
 10
186.0327043823
 20
528.0149442268
  0
POLYLINE
  8
0
 62
7
  6
CONTINUOUS
 66
1
 70
0
  0
VERTEX
  8
0
 62
7
  6
CONTINUOUS
 10
12.8287969334
 20
-90.8255132318
  0
VERTEX
  8
0
 62
7
  6
CONTINUOUS
 10
12.249346856
 20
-87.9712856605
  0
VERTEX
  8
0
 62
7
  6
CONTINUOUS
 10
11.7491946305
 20
-85.4014284155
  0
VERTEX
  8
0
 62
7
  6
CONTINUOUS
 10
11.3199301902
 20
-83.1077715347
  0
VERTEX
  8
0
 62
7
  6
CONTINUOUS
 10
10.9564505142
 20
-81.094975084
  0
VERTEX
  8
0
 62
7
  6
CONTINUOUS
 10
10.6473722712
 20
-79.3274256248
  0
VERTEX
  8
0
 62
7
  6
CONTINUOUS
 10
10.3702919974
 20
-77.6951999665
  0
VERTEX
  8
0
 62
7
  6
CONTINUOUS
 10
10.116984128
 20
-76.160339602
  0
VERTEX
  8
0
 62
7
  6
CONTINUOUS
 10
9.8554268832
 20
-74.5292277416
  0
VERTEX
  8
0
 62
7
  6
CONTINUOUS
 10
9.573393025
 20
-72.7131969623
  0
VERTEX
  8
0
 62
7
  6
CONTINUOUS
 10
9.2887590811
 20
-70.8145944138
  0
VERTEX
  8
0
 62
7
  6
CONTINUOUS
 10
9.0048224524
 20
-68.848010099
  0
VERTEX
  8
0
 62
7
  6
CONTINUOUS
 10
8.7181569544
 20
-66.7809079751
  0
VERTEX
  8
0
 62
7
  6
CONTINUOUS
 10
8.4300453988
 20
-64.6110353093
  0
VERTEX
  8
0
 62
7
  6
CONTINUOUS
 10
8.1375239199
 20
-62.3013222458
  0
VERTEX
  8
0
 62
7
  6
CONTINUOUS
 10
7.8667865802
 20
-60.0550743517
  0
VERTEX
  8
0
 62
7
  6
CONTINUOUS
 10
7.596456218
 20
-57.6934193248
  0
VERTEX
  8
0
 62
7
  6
CONTINUOUS
 10
7.3347596823
 20
-55.2774600426
  0
VERTEX
  8
0
 62
7
  6
CONTINUOUS
 10
7.1041549072
 20
-53.0267442641
  0
VERTEX
  8
0
 62
7
  6
CONTINUOUS
 10
6.8811001997
 20
-50.7244024844
  0
VERTEX
  8
0
 62
7
  6
CONTINUOUS
 10
6.6624155422
 20
-48.3286035561
  0
VERTEX
  8
0
 62
7
  6
CONTINUOUS
 10
6.4528822186
 20
-45.8827803021
  0
VERTEX
  8
0
 62
7
  6
CONTINUOUS
 10
6.2806442935
 20
-43.7435390465
  0
VERTEX
  8
0
 62
7
  6
CONTINUOUS
 10
6.1385063265
 20
-41.8767349849
  0
VERTEX
  8
0
 62
7
  6
CONTINUOUS
 10
6.0192130573
 20
-40.2291233246
  0
VERTEX
  8
0
 62
7
  6
CONTINUOUS
 10
5.9175062828
 20
-38.758731266
  0
VERTEX
  8
0
 62
7
  6
CONTINUOUS
 10
5.8263329348
 20
-37.3832625455
  0
VERTEX
  8
0
 62
7
  6
CONTINUOUS
 10
5.7275375401
 20
-35.8244800723
  0
VERTEX
  8
0
 62
7
  6
CONTINUOUS
 10
5.6241802439
 20
-34.1081149286
  0
VERTEX
  8
0
 62
7
  6
CONTINUOUS
 10
5.5188629346
 20
-32.256347601
  0
VERTEX
  8
0
 62
7
  6
CONTINUOUS
 10
5.426142705
 20
-30.5271737318
  0
VERTEX
  8
0
 62
7
  6
CONTINUOUS
 10
5.3480140754
 20
-28.9875149468
  0
VERTEX
  8
0
 62
7
  6
CONTINUOUS
 10
5.2826999624
 20
-27.6344796481
  0
VERTEX
  8
0
 62
7
  6
CONTINUOUS
 10
5.2275348355
 20
-26.4392161043
  0
VERTEX
  8
0
 62
7
  6
CONTINUOUS
 10
5.1798693415
 20
-25.3635028101
  0
VERTEX
  8
0
 62
7
  6
CONTINUOUS
 10
5.1383678927
 20
-24.391262487
  0
VERTEX
  8
0
 62
7
  6
CONTINUOUS
 10
5.1020619227
 20
-23.5111067461
  0
VERTEX
  8
0
 62
7
  6
CONTINUOUS
 10
5.070093091
 20
-22.7113026832
  0
VERTEX
  8
0
 62
7
  6
CONTINUOUS
 10
5.0423373891
 20
-21.9965874238
  0
VERTEX
  8
0
 62
7
  6
CONTINUOUS
 10
5.0174450221
 20
-21.3384834852
  0
VERTEX
  8
0
 62
7
  6
CONTINUOUS
 10
4.9910029342
 20
-20.6205623226
  0
VERTEX
  8
0
 62
7
  6
CONTINUOUS
 10
4.9622049093
 20
-19.8149876532
  0
VERTEX
  8
0
 62
7
  6
CONTINUOUS
 10
4.930189855
 20
-18.888073546
  0
VERTEX
  8
0
 62
7
  6
CONTINUOUS
 10
4.8974693941
 20
-17.9035990521
  0
VERTEX
  8
0
 62
7
  6
CONTINUOUS
 10
4.8661732654
 20
-16.9234285106
  0
VERTEX
  8
0
 62
7
  6
CONTINUOUS
 10
4.83631803
 20
-15.9497368631
  0
VERTEX
  8
0
 62
7
  6
CONTINUOUS
 10
4.8066544076
 20
-14.9411118871
  0
VERTEX
  8
0
 62
7
  6
CONTINUOUS
 10
4.7763750969
 20
-13.8646797478
  0
VERTEX
  8
0
 62
7
  6
CONTINUOUS
 10
4.7446801264
 20
-12.6813089306
  0
VERTEX
  8
0
 62
7
  6
CONTINUOUS
 10
4.7119926392
 20
-11.3924294957
  0
VERTEX
  8
0
 62
7
  6
CONTINUOUS
 10
4.6768476789
 20
-9.9178188096
  0
VERTEX
  8
0
 62
7
  6
CONTINUOUS
 10
4.6431686834
 20
-8.4044034149
  0
VERTEX
  8
0
 62
7
  6
CONTINUOUS
 10
4.6152364155
 20
-7.062423974
  0
VERTEX
  8
0
 62
7
  6
CONTINUOUS
 10
4.5919421332
 20
-5.8737081443
  0
VERTEX
  8
0
 62
7
  6
CONTINUOUS
 10
4.5698152194
 20
-4.6775423025
  0
VERTEX
  8
0
 62
7
  6
CONTINUOUS
 10
4.5497692613
 20
-3.5298011034
  0
VERTEX
  8
0
 62
7
  6
CONTINUOUS
 10
4.5299855199
 20
-2.3291072481
  0
VERTEX
  8
0
 62
7
  6
CONTINUOUS
 10
4.509774755
 20
-1.0229148978
  0
VERTEX
  8
0
 62
7
  6
CONTINUOUS
 10
4.489636066
 20
0.3708202023
  0
VERTEX
  8
0
 62
7
  6
CONTINUOUS
 10
4.4710124177
 20
1.7546323829
  0
VERTEX
  8
0
 62
7
  6
CONTINUOUS
 10
4.452184513
 20
3.2614959598
  0
VERTEX
  8
0
 62
7
  6
CONTINUOUS
 10
4.4323796155
 20
4.9838955355
  0
VERTEX
  8
0
 62
7
  6
CONTINUOUS
 10
4.414371491
 20
6.6940638781
  0
VERTEX
  8
0
 62
7
  6
CONTINUOUS
 10
4.3995324457
 20
8.223748933
  0
VERTEX
  8
0
 62
7
  6
CONTINUOUS
 10
4.3872787423
 20
9.5805939721
  0
VERTEX
  8
0
 62
7
  6
CONTINUOUS
 10
4.3766698023
 20
10.8313096624
  0
VERTEX
  8
0
 62
7
  6
CONTINUOUS
 10
4.3677634868
 20
11.9404656424
  0
VERTEX
  8
0
 62
7
  6
CONTINUOUS
 10
4.3603712209
 20
12.9045841057
  0
VERTEX
  8
0
 62
7
  6
CONTINUOUS
 10
4.3541974969
 20
13.741275829
  0
VERTEX
  8
0
 62
7
  6
CONTINUOUS
 10
4.3488251721
 20
14.4932746211
  0
VERTEX
  8
0
 62
7
  6
CONTINUOUS
 10
4.3434204246
 20
15.2725198414
  0
VERTEX
  8
0
 62
7
  6
CONTINUOUS
 10
4.337531705
 20
16.1474942248
  0
VERTEX
  8
0
 62
7
  6
CONTINUOUS
 10
4.3322569628
 20
16.9540130197
  0
VERTEX
  8
0
 62
7
  6
CONTINUOUS
 10
4.3277645884
 20
17.6570701628
  0
VERTEX
  8
0
 62
7
  6
CONTINUOUS
 10
4.3239084723
 20
18.2721622119
  0
VERTEX
  8
0
 62
7
  6
CONTINUOUS
 10
4.3205691328
 20
18.8131057634
  0
VERTEX
  8
0
 62
7
  6
CONTINUOUS
 10
4.3170224208
 20
19.3954985895
  0
VERTEX
  8
0
 62
7
  6
CONTINUOUS
 10
4.3134891958
 20
19.9832853103
  0
VERTEX
  8
0
 62
7
  6
CONTINUOUS
 10
4.3099839241
 20
20.5738992019
  0
VERTEX
  8
0
 62
7
  6
CONTINUOUS
 10
4.3060500397
 20
21.2453598789
  0
VERTEX
  8
0
 62
7
  6
CONTINUOUS
 10
4.3016167739
 20
22.0123301911
  0
VERTEX
  8
0
 62
7
  6
CONTINUOUS
 10
4.2969303901
 20
22.8345305376
  0
VERTEX
  8
0
 62
7
  6
CONTINUOUS
 10
4.2918536778
 20
23.737323193
  0
VERTEX
  8
0
 62
7
  6
CONTINUOUS
 10
4.2861281605
 20
24.7692187613
  0
VERTEX
  8
0
 62
7
  6
CONTINUOUS
 10
4.2798449985
 20
25.9161986153
  0
VERTEX
  8
0
 62
7
  6
CONTINUOUS
 10
4.2732998961
 20
27.1242566095
  0
VERTEX
  8
0
 62
7
  6
CONTINUOUS
 10
4.2658998021
 20
28.5022615752
  0
VERTEX
  8
0
 62
7
  6
CONTINUOUS
 10
4.2575342567
 20
30.0693769657
  0
VERTEX
  8
0
 62
7
  6
CONTINUOUS
 10
4.2496064456
 20
31.5572140334
  0
VERTEX
  8
0
 62
7
  6
CONTINUOUS
 10
4.2363977994
 20
34.0256421389
  0
SEQEND
  0
POLYLINE
  8
0
 62
7
  6
CONTINUOUS
 66
1
 70
0
  0
VERTEX
  8
0
 62
7
  6
CONTINUOUS
 10
3.5954037834
 20
104.3695835025
  0
VERTEX
  8
0
 62
7
  6
CONTINUOUS
 10
3.5830448389
 20
105.3931184572
  0
VERTEX
  8
0
 62
7
  6
CONTINUOUS
 10
3.5689759518
 20
106.5595562544
  0
VERTEX
  8
0
 62
7
  6
CONTINUOUS
 10
3.5531605153
 20
107.8732762903
  0
VERTEX
  8
0
 62
7
  6
CONTINUOUS
 10
3.5359532677
 20
109.3069725782
  0
VERTEX
  8
0
 62
7
  6
CONTINUOUS
 10
3.5167683962
 20
110.9126525646
  0
VERTEX
  8
0
 62
7
  6
CONTINUOUS
 10
3.4986038374
 20
112.4416817179
  0
VERTEX
  8
0
 62
7
  6
CONTINUOUS
 10
3.4826520374
 20
113.7928671562
  0
VERTEX
  8
0
 62
7
  6
CONTINUOUS
 10
3.4664359953
 20
115.1761384195
  0
VERTEX
  8
0
 62
7
  6
CONTINUOUS
 10
3.4502744323
 20
116.5660855633
  0
VERTEX
  8
0
 62
7
  6
CONTINUOUS
 10
3.4340260339
 20
117.9763510561
  0
VERTEX
  8
0
 62
7
  6
CONTINUOUS
 10
3.4171180219
 20
119.4594145386
  0
VERTEX
  8
0
 62
7
  6
CONTINUOUS
 10
3.4018210498
 20
120.8167911781
  0
VERTEX
  8
0
 62
7
  6
CONTINUOUS
 10
3.3886212445
 20
122.0015462527
  0
VERTEX
  8
0
 62
7
  6
CONTINUOUS
 10
3.3769533952
 20
123.0601936568
  0
VERTEX
  8
0
 62
7
  6
CONTINUOUS
 10
3.3660738654
 20
124.0576551444
  0
VERTEX
  8
0
 62
7
  6
CONTINUOUS
 10
3.355795218
 20
125.009989091
  0
VERTEX
  8
0
 62
7
  6
CONTINUOUS
 10
3.3456923955
 20
125.956224611
  0
VERTEX
  8
0
 62
7
  6
CONTINUOUS
 10
3.3357180139
 20
126.9010596976
  0
VERTEX
  8
0
 62
7
  6
CONTINUOUS
 10
3.3248456514
 20
127.9439315155
  0
VERTEX
  8
0
 62
7
  6
CONTINUOUS
 10
3.3146518526
 20
128.9350417288
  0
VERTEX
  8
0
 62
7
  6
CONTINUOUS
 10
3.3057738157
 20
129.8095834575
  0
VERTEX
  8
0
 62
7
  6
CONTINUOUS
 10
3.29737325
 20
130.647540307
  0
VERTEX
  8
0
 62
7
  6
CONTINUOUS
 10
3.2878763436
 20
131.6079706386
  0
VERTEX
  8
0
 62
7
  6
CONTINUOUS
 10
3.277134196
 20
132.7123049386
  0
VERTEX
  8
0
 62
7
  6
CONTINUOUS
 10
3.2652459633
 20
133.9584461527
  0
VERTEX
  8
0
 62
7
  6
CONTINUOUS
 10
3.2542929029
 20
135.1311301052
  0
VERTEX
  8
0
 62
7
  6
CONTINUOUS
 10
3.244660071
 20
136.1840905052
  0
VERTEX
  8
0
 62
7
  6
CONTINUOUS
 10
3.2362043292
 20
137.1265584944
  0
VERTEX
  8
0
 62
7
  6
CONTINUOUS
 10
3.2288629646
 20
137.9596940266
  0
VERTEX
  8
0
 62
7
  6
CONTINUOUS
 10
3.2223301354
 20
138.7135649366
  0
VERTEX
  8
0
 62
7
  6
CONTINUOUS
 10
3.2155031522
 20
139.5148366435
  0
VERTEX
  8
0
 62
7
  6
CONTINUOUS
 10
3.2078286805
 20
140.4330902313
  0
VERTEX
  8
0
 62
7
  6
CONTINUOUS
 10
3.2004230391
 20
141.3381865421
  0
VERTEX
  8
0
 62
7
  6
CONTINUOUS
 10
3.1938587532
 20
142.1574390047
  0
VERTEX
  8
0
 62
7
  6
CONTINUOUS
 10
3.1875289986
 20
142.9637563521
  0
VERTEX
  8
0
 62
7
  6
CONTINUOUS
 10
3.1807758496
 20
143.8430792305
  0
VERTEX
  8
0
 62
7
  6
CONTINUOUS
 10
3.1732549694
 20
144.8475847884
  0
VERTEX
  8
0
 62
7
  6
CONTINUOUS
 10
3.1648662654
 20
146.0026643066
  0
VERTEX
  8
0
 62
7
  6
CONTINUOUS
 10
3.1561906574
 20
147.2404016992
  0
VERTEX
  8
0
 62
7
  6
CONTINUOUS
 10
3.1485659649
 20
148.3690819065
  0
SEQEND
  0
POLYLINE
  8
0
 62
7
  6
CONTINUOUS
 66
1
 70
0
  0
VERTEX
  8
0
 62
7
  6
CONTINUOUS
 10
3.6670151829
 20
98.4348671405
  0
VERTEX
  8
0
 62
7
  6
CONTINUOUS
 10
3.6547554418
 20
99.4538168814
  0
VERTEX
  8
0
 62
7
  6
CONTINUOUS
 10
3.6413956411
 20
100.5621347093
  0
VERTEX
  8
0
 62
7
  6
CONTINUOUS
 10
3.6291906829
 20
101.5732345786
  0
VERTEX
  8
0
 62
7
  6
CONTINUOUS
 10
3.5954037834
 20
104.3695835025
  0
SEQEND
  0
POLYLINE
  8
0
 62
7
  6
CONTINUOUS
 66
1
 70
0
  0
VERTEX
  8
0
 62
7
  6
CONTINUOUS
 10
3.7198519724
 20
94.01157631
  0
VERTEX
  8
0
 62
7
  6
CONTINUOUS
 10
3.7110731828
 20
94.7512181212
  0
VERTEX
  8
0
 62
7
  6
CONTINUOUS
 10
3.7033012297
 20
95.4042017328
  0
VERTEX
  8
0
 62
7
  6
CONTINUOUS
 10
3.6957734798
 20
96.0351979783
  0
VERTEX
  8
0
 62
7
  6
CONTINUOUS
 10
3.6872609701
 20
96.747169467
  0
VERTEX
  8
0
 62
7
  6
CONTINUOUS
 10
3.6670151829
 20
98.4348671405
  0
SEQEND
  0
POLYLINE
  8
0
 62
7
  6
CONTINUOUS
 66
1
 70
0
  0
VERTEX
  8
0
 62
7
  6
CONTINUOUS
 10
3.7496551126
 20
91.4827179979
  0
VERTEX
  8
0
 62
7
  6
CONTINUOUS
 10
3.7403236004
 20
92.2776726674
  0
VERTEX
  8
0
 62
7
  6
CONTINUOUS
 10
3.7198519724
 20
94.01157631
  0
SEQEND
  0
POLYLINE
  8
0
 62
7
  6
CONTINUOUS
 66
1
 70
0
  0
VERTEX
  8
0
 62
7
  6
CONTINUOUS
 10
3.1485659649
 20
148.3690819065
  0
VERTEX
  8
0
 62
7
  6
CONTINUOUS
 10
3.1420546146
 20
149.3670954447
  0
VERTEX
  8
0
 62
7
  6
CONTINUOUS
 10
3.1361426385
 20
150.3037905477
  0
VERTEX
  8
0
 62
7
  6
CONTINUOUS
 10
3.1306307554
 20
151.2063040623
  0
VERTEX
  8
0
 62
7
  6
CONTINUOUS
 10
3.1252539708
 20
152.1170110806
  0
VERTEX
  8
0
 62
7
  6
CONTINUOUS
 10
3.1196681002
 20
153.0987296385
  0
VERTEX
  8
0
 62
7
  6
CONTINUOUS
 10
3.1139814411
 20
154.1401357409
  0
VERTEX
  8
0
 62
7
  6
CONTINUOUS
 10
3.1083031332
 20
155.2282869139
  0
VERTEX
  8
0
 62
7
  6
CONTINUOUS
 10
3.1025628099
 20
156.3853674195
  0
VERTEX
  8
0
 62
7
  6
CONTINUOUS
 10
3.0971921027
 20
157.5292380447
  0
VERTEX
  8
0
 62
7
  6
CONTINUOUS
 10
3.0915246609
 20
158.8134775992
  0
VERTEX
  8
0
 62
7
  6
CONTINUOUS
 10
3.0858233102
 20
160.2032473204
  0
VERTEX
  8
0
 62
7
  6
CONTINUOUS
 10
3.0808059228
 20
161.527948485
  0
VERTEX
  8
0
 62
7
  6
CONTINUOUS
 10
3.0764745593
 20
162.7691336465
  0
VERTEX
  8
0
 62
7
  6
CONTINUOUS
 10
3.0723416187
 20
164.0626785645
  0
VERTEX
  8
0
 62
7
  6
CONTINUOUS
 10
3.0684337012
 20
165.4156599791
  0
VERTEX
  8
0
 62
7
  6
CONTINUOUS
 10
3.0650881435
 20
166.7102001995
  0
VERTEX
  8
0
 62
7
  6
CONTINUOUS
 10
3.0624600214
 20
167.8489946866
  0
VERTEX
  8
0
 62
7
  6
CONTINUOUS
 10
3.0603769535
 20
168.8571822143
  0
VERTEX
  8
0
 62
7
  6
CONTINUOUS
 10
3.0586575136
 20
169.7863764254
  0
VERTEX
  8
0
 62
7
  6
CONTINUOUS
 10
3.0571321816
 20
170.7129697905
  0
VERTEX
  8
0
 62
7
  6
CONTINUOUS
 10
3.0557249109
 20
171.6921546531
  0
VERTEX
  8
0
 62
7
  6
CONTINUOUS
 10
3.0544727094
 20
172.7190260566
  0
VERTEX
  8
0
 62
7
  6
CONTINUOUS
 10
3.053547812
 20
173.6317039881
  0
VERTEX
  8
0
 62
7
  6
CONTINUOUS
 10
3.0527768969
 20
174.5725033024
  0
VERTEX
  8
0
 62
7
  6
CONTINUOUS
 10
3.0521201659
 20
175.6454536884
  0
VERTEX
  8
0
 62
7
  6
CONTINUOUS
 10
3.0516909822
 20
176.7337089778
  0
VERTEX
  8
0
 62
7
  6
CONTINUOUS
 10
3.0515043964
 20
177.7141511145
  0
VERTEX
  8
0
 62
7
  6
CONTINUOUS
 10
3.0514957017
 20
178.5888412371
  0
VERTEX
  8
0
 62
7
  6
CONTINUOUS
 10
3.0516074345
 20
179.3583507538
  0
VERTEX
  8
0
 62
7
  6
CONTINUOUS
 10
3.0517955728
 20
180.035549203
  0
VERTEX
  8
0
 62
7
  6
CONTINUOUS
 10
3.0520533459
 20
180.68448173
  0
VERTEX
  8
0
 62
7
  6
CONTINUOUS
 10
3.0524275333
 20
181.406100244
  0
VERTEX
  8
0
 62
7
  6
CONTINUOUS
 10
3.0529617318
 20
182.2258421553
  0
VERTEX
  8
0
 62
7
  6
CONTINUOUS
 10
3.0537058328
 20
183.1580525271
  0
VERTEX
  8
0
 62
7
  6
CONTINUOUS
 10
3.054584781
 20
184.0846665228
  0
VERTEX
  8
0
 62
7
  6
CONTINUOUS
 10
3.0554743738
 20
184.9048230235
  0
VERTEX
  8
0
 62
7
  6
CONTINUOUS
 10
3.0563471211
 20
185.6320391301
  0
VERTEX
  8
0
 62
7
  6
CONTINUOUS
 10
3.057297695
 20
186.3605572824
  0
VERTEX
  8
0
 62
7
  6
CONTINUOUS
 10
3.0584766106
 20
187.1946536694
  0
VERTEX
  8
0
 62
7
  6
CONTINUOUS
 10
3.0598666884
 20
188.103359082
  0
VERTEX
  8
0
 62
7
  6
CONTINUOUS
 10
3.0614176821
 20
189.0464124896
  0
VERTEX
  8
0
 62
7
  6
CONTINUOUS
 10
3.0630354643
 20
189.9691954291
  0
VERTEX
  8
0
 62
7
  6
CONTINUOUS
 10
3.0649870546
 20
191.0186479935
  0
VERTEX
  8
0
 62
7
  6
CONTINUOUS
 10
3.0671933376
 20
192.1400862493
  0
VERTEX
  8
0
 62
7
  6
CONTINUOUS
 10
3.0692649993
 20
193.144951464
  0
VERTEX
  8
0
 62
7
  6
CONTINUOUS
 10
3.0711780309
 20
194.0406028377
  0
VERTEX
  8
0
 62
7
  6
CONTINUOUS
 10
3.0730544181
 20
194.8949705708
  0
VERTEX
  8
0
 62
7
  6
CONTINUOUS
 10
3.0752380964
 20
195.8652972699
  0
SEQEND
  0
POLYLINE
  8
0
 62
7
  6
CONTINUOUS
 66
1
 70
0
  0
VERTEX
  8
0
 62
7
  6
CONTINUOUS
 10
4.2363977994
 20
34.0256421389
  0
VERTEX
  8
0
 62
7
  6
CONTINUOUS
 10
4.2296953368
 20
35.2665591164
  0
VERTEX
  8
0
 62
7
  6
CONTINUOUS
 10
4.2231945901
 20
36.4591197661
  0
VERTEX
  8
0
 62
7
  6
CONTINUOUS
 10
4.2169653204
 20
37.589781081
  0
VERTEX
  8
0
 62
7
  6
CONTINUOUS
 10
4.21108079
 20
38.6455258565
  0
VERTEX
  8
0
 62
7
  6
CONTINUOUS
 10
4.2054084003
 20
39.6509704277
  0
VERTEX
  8
0
 62
7
  6
CONTINUOUS
 10
4.1989146688
 20
40.7861499902
  0
VERTEX
  8
0
 62
7
  6
CONTINUOUS
 10
4.1915055593
 20
42.0597391315
  0
VERTEX
  8
0
 62
7
  6
CONTINUOUS
 10
4.1828618646
 20
43.5154514285
  0
VERTEX
  8
0
 62
7
  6
CONTINUOUS
 10
4.1736853272
 20
45.0247565069
  0
VERTEX
  8
0
 62
7
  6
CONTINUOUS
 10
4.1639845688
 20
46.5797565264
  0
VERTEX
  8
0
 62
7
  6
CONTINUOUS
 10
4.1544044687
 20
48.0751005484
  0
VERTEX
  8
0
 62
7
  6
CONTINUOUS
 10
4.1457934593
 20
49.3858323106
  0
VERTEX
  8
0
 62
7
  6
CONTINUOUS
 10
4.1379906735
 20
50.5471022233
  0
VERTEX
  8
0
 62
7
  6
CONTINUOUS
 10
4.1309553979
 20
51.5733084829
  0
VERTEX
  8
0
 62
7
  6
CONTINUOUS
 10
4.1246078892
 20
52.4827785861
  0
VERTEX
  8
0
 62
7
  6
CONTINUOUS
 10
4.118927861
 20
53.2838252102
  0
VERTEX
  8
0
 62
7
  6
CONTINUOUS
 10
4.1138483363
 20
53.9902566852
  0
VERTEX
  8
0
 62
7
  6
CONTINUOUS
 10
4.1086979115
 20
54.6972493539
  0
VERTEX
  8
0
 62
7
  6
CONTINUOUS
 10
4.1028198111
 20
55.4930230037
  0
VERTEX
  8
0
 62
7
  6
CONTINUOUS
 10
4.0960467924
 20
56.3957647237
  0
VERTEX
  8
0
 62
7
  6
CONTINUOUS
 10
4.0883060742
 20
57.4095969423
  0
VERTEX
  8
0
 62
7
  6
CONTINUOUS
 10
4.0793907201
 20
58.554684249
  0
VERTEX
  8
0
 62
7
  6
CONTINUOUS
 10
4.0689694085
 20
59.8641940475
  0
VERTEX
  8
0
 62
7
  6
CONTINUOUS
 10
4.0567286369
 20
61.3648050088
  0
VERTEX
  8
0
 62
7
  6
CONTINUOUS
 10
4.0426075489
 20
63.0491984764
  0
VERTEX
  8
0
 62
7
  6
CONTINUOUS
 10
4.0284491151
 20
64.6917411584
  0
VERTEX
  8
0
 62
7
  6
CONTINUOUS
 10
4.0153974662
 20
66.1680607773
  0
VERTEX
  8
0
 62
7
  6
CONTINUOUS
 10
4.0034724255
 20
67.4876714537
  0
VERTEX
  8
0
 62
7
  6
CONTINUOUS
 10
3.99262148
 20
68.6657434919
  0
VERTEX
  8
0
 62
7
  6
CONTINUOUS
 10
3.9828400177
 20
69.7103837856
  0
VERTEX
  8
0
 62
7
  6
CONTINUOUS
 10
3.9724808946
 20
70.7998426299
  0
VERTEX
  8
0
 62
7
  6
CONTINUOUS
 10
3.961516344
 20
71.935125115
  0
VERTEX
  8
0
 62
7
  6
CONTINUOUS
 10
3.9510744533
 20
73.0000676689
  0
VERTEX
  8
0
 62
7
  6
CONTINUOUS
 10
3.9415669151
 20
73.9568697015
  0
VERTEX
  8
0
 62
7
  6
CONTINUOUS
 10
3.931938855
 20
74.9144597629
  0
VERTEX
  8
0
 62
7
  6
CONTINUOUS
 10
3.9226372958
 20
75.8291089612
  0
VERTEX
  8
0
 62
7
  6
CONTINUOUS
 10
3.9135828033
 20
76.7098443997
  0
VERTEX
  8
0
 62
7
  6
CONTINUOUS
 10
3.9050840966
 20
77.5282606691
  0
VERTEX
  8
0
 62
7
  6
CONTINUOUS
 10
3.8972801107
 20
78.2731219219
  0
VERTEX
  8
0
 62
7
  6
CONTINUOUS
 10
3.8895129997
 20
79.0084875809
  0
VERTEX
  8
0
 62
7
  6
CONTINUOUS
 10
3.8806229373
 20
79.8432441209
  0
VERTEX
  8
0
 62
7
  6
CONTINUOUS
 10
3.8705085587
 20
80.7842753851
  0
VERTEX
  8
0
 62
7
  6
CONTINUOUS
 10
3.8588915055
 20
81.8544209517
  0
VERTEX
  8
0
 62
7
  6
CONTINUOUS
 10
3.84619382
 20
83.0119559018
  0
VERTEX
  8
0
 62
7
  6
CONTINUOUS
 10
3.8347638143
 20
84.0437241622
  0
VERTEX
  8
0
 62
7
  6
CONTINUOUS
 10
3.8245637873
 20
84.9567826489
  0
VERTEX
  8
0
 62
7
  6
CONTINUOUS
 10
3.8155013401
 20
85.7623236988
  0
VERTEX
  8
0
 62
7
  6
CONTINUOUS
 10
3.8063193302
 20
86.5734683491
  0
VERTEX
  8
0
 62
7
  6
CONTINUOUS
 10
3.7966655285
 20
87.4212562518
  0
VERTEX
  8
0
 62
7
  6
CONTINUOUS
 10
3.7861410384
 20
88.3397987178
  0
VERTEX
  8
0
 62
7
  6
CONTINUOUS
 10
3.7756494062
 20
89.2498087962
  0
VERTEX
  8
0
 62
7
  6
CONTINUOUS
 10
3.766247791
 20
90.0607977597
  0
VERTEX
  8
0
 62
7
  6
CONTINUOUS
 10
3.7496551126
 20
91.4827179979
  0
SEQEND
  0
POLYLINE
  8
0
 62
7
  6
CONTINUOUS
 66
1
 70
0
  0
VERTEX
  8
0
 62
7
  6
CONTINUOUS
 10
3.0752380964
 20
195.8652972699
  0
VERTEX
  8
0
 62
7
  6
CONTINUOUS
 10
3.0798794001
 20
197.8685295268
  0
VERTEX
  8
0
 62
7
  6
CONTINUOUS
 10
3.0819010335
 20
198.7253538673
  0
VERTEX
  8
0
 62
7
  6
CONTINUOUS
 10
3.084083845
 20
199.6453491049
  0
VERTEX
  8
0
 62
7
  6
CONTINUOUS
 10
3.0865592092
 20
200.6873694797
  0
VERTEX
  8
0
 62
7
  6
CONTINUOUS
 10
3.0893406442
 20
201.8643889379
  0
VERTEX
  8
0
 62
7
  6
CONTINUOUS
 10
3.0921847561
 20
203.0844368764
  0
VERTEX
  8
0
 62
7
  6
CONTINUOUS
 10
3.095310715
 20
204.4591532624
  0
VERTEX
  8
0
 62
7
  6
CONTINUOUS
 10
3.0987284258
 20
206.0277779354
  0
VERTEX
  8
0
 62
7
  6
CONTINUOUS
 10
3.1019726991
 20
207.6178994363
  0
VERTEX
  8
0
 62
7
  6
CONTINUOUS
 10
3.1046351585
 20
209.0406423756
  0
VERTEX
  8
0
 62
7
  6
CONTINUOUS
 10
3.1068306932
 20
210.3427501284
  0
VERTEX
  8
0
 62
7
  6
CONTINUOUS
 10
3.1085745046
 20
211.51281027
  0
VERTEX
  8
0
 62
7
  6
CONTINUOUS
 10
3.1099268148
 20
212.5598821951
  0
VERTEX
  8
0
 62
7
  6
CONTINUOUS
 10
3.1109581081
 20
213.5027063301
  0
VERTEX
  8
0
 62
7
  6
CONTINUOUS
 10
3.1117267707
 20
214.3575252452
  0
VERTEX
  8
0
 62
7
  6
CONTINUOUS
 10
3.1122765173
 20
215.1326233455
  0
VERTEX
  8
0
 62
7
  6
CONTINUOUS
 10
3.112641871
 20
215.8259146638
  0
VERTEX
  8
0
 62
7
  6
CONTINUOUS
 10
3.1128839531
 20
216.5315683178
  0
VERTEX
  8
0
 62
7
  6
CONTINUOUS
 10
3.1129910899
 20
217.338673275
  0
VERTEX
  8
0
 62
7
  6
CONTINUOUS
 10
3.112890271
 20
218.2149177789
  0
VERTEX
  8
0
 62
7
  6
CONTINUOUS
 10
3.1125916899
 20
219.0096815497
  0
VERTEX
  8
0
 62
7
  6
CONTINUOUS
 10
3.1121525851
 20
219.7148155062
  0
VERTEX
  8
0
 62
7
  6
CONTINUOUS
 10
3.1116119542
 20
220.3482033568
  0
VERTEX
  8
0
 62
7
  6
CONTINUOUS
 10
3.1110064142
 20
220.915593376
  0
VERTEX
  8
0
 62
7
  6
CONTINUOUS
 10
3.110359718
 20
221.4289090543
  0
VERTEX
  8
0
 62
7
  6
CONTINUOUS
 10
3.1096060163
 20
221.9511132979
  0
VERTEX
  8
0
 62
7
  6
CONTINUOUS
 10
3.1086470497
 20
222.5363157047
  0
VERTEX
  8
0
 62
7
  6
CONTINUOUS
 10
3.1074009381
 20
223.2066443518
  0
VERTEX
  8
0
 62
7
  6
CONTINUOUS
 10
3.1057904885
 20
223.9705212278
  0
VERTEX
  8
0
 62
7
  6
CONTINUOUS
 10
3.1037308849
 20
224.8327717903
  0
VERTEX
  8
0
 62
7
  6
CONTINUOUS
 10
3.1010740117
 20
225.8153968758
  0
VERTEX
  8
0
 62
7
  6
CONTINUOUS
 10
3.0978522757
 20
226.8721359001
  0
VERTEX
  8
0
 62
7
  6
CONTINUOUS
 10
3.0939506417
 20
228.0142886924
  0
VERTEX
  8
0
 62
7
  6
CONTINUOUS
 10
3.0889860276
 20
229.3143860406
  0
VERTEX
  8
0
 62
7
  6
CONTINUOUS
 10
3.0834085666
 20
230.6287192065
  0
VERTEX
  8
0
 62
7
  6
CONTINUOUS
 10
3.0780328837
 20
231.7873836967
  0
VERTEX
  8
0
 62
7
  6
CONTINUOUS
 10
3.0728733341
 20
232.8221801118
  0
VERTEX
  8
0
 62
7
  6
CONTINUOUS
 10
3.0674813706
 20
233.8384110095
  0
VERTEX
  8
0
 62
7
  6
CONTINUOUS
 10
3.0619248443
 20
234.8281383663
  0
VERTEX
  8
0
 62
7
  6
CONTINUOUS
 10
3.0567966641
 20
235.6977243567
  0
VERTEX
  8
0
 62
7
  6
CONTINUOUS
 10
3.0520581071
 20
236.4688523991
  0
VERTEX
  8
0
 62
7
  6
CONTINUOUS
 10
3.0477561206
 20
237.1451610756
  0
VERTEX
  8
0
 62
7
  6
CONTINUOUS
 10
3.0435732945
 20
237.7832693401
  0
VERTEX
  8
0
 62
7
  6
CONTINUOUS
 10
3.0388128444
 20
238.4883564351
  0
VERTEX
  8
0
 62
7
  6
CONTINUOUS
 10
3.0332490848
 20
239.2867153719
  0
VERTEX
  8
0
 62
7
  6
CONTINUOUS
 10
3.0267223621
 20
240.1915970114
  0
VERTEX
  8
0
 62
7
  6
CONTINUOUS
 10
3.0191426469
 20
241.2042304542
  0
VERTEX
  8
0
 62
7
  6
CONTINUOUS
 10
3.0116967086
 20
242.1634810615
  0
VERTEX
  8
0
 62
7
  6
CONTINUOUS
 10
3.0047338275
 20
243.0321629266
  0
VERTEX
  8
0
 62
7
  6
CONTINUOUS
 10
2.9974265992
 20
243.9173439038
  0
VERTEX
  8
0
 62
7
  6
CONTINUOUS
 10
2.9895393822
 20
244.8453150738
  0
VERTEX
  8
0
 62
7
  6
CONTINUOUS
 10
2.9802616529
 20
245.9040270937
  0
VERTEX
  8
0
 62
7
  6
CONTINUOUS
 10
2.9706859089
 20
246.9632435533
  0
VERTEX
  8
0
 62
7
  6
CONTINUOUS
 10
2.9607955275
 20
248.0251294462
  0
VERTEX
  8
0
 62
7
  6
CONTINUOUS
 10
2.9490980113
 20
249.2431545158
  0
VERTEX
  8
0
 62
7
  6
CONTINUOUS
 10
2.9353964136
 20
250.6232390635
  0
VERTEX
  8
0
 62
7
  6
CONTINUOUS
 10
2.9192513484
 20
252.19251507
  0
VERTEX
  8
0
 62
7
  6
CONTINUOUS
 10
2.9010557739
 20
253.896577799
  0
VERTEX
  8
0
 62
7
  6
CONTINUOUS
 10
2.8829811286
 20
255.5300812065
  0
VERTEX
  8
0
 62
7
  6
CONTINUOUS
 10
2.865535788
 20
257.0574056359
  0
VERTEX
  8
0
 62
7
  6
CONTINUOUS
 10
2.8497342531
 20
258.4035717698
  0
VERTEX
  8
0
 62
7
  6
CONTINUOUS
 10
2.8352147291
 20
259.6122353187
  0
VERTEX
  8
0
 62
7
  6
CONTINUOUS
 10
2.8218630836
 20
260.7017293456
  0
VERTEX
  8
0
 62
7
  6
CONTINUOUS
 10
2.8069125006
 20
261.8986650427
  0
VERTEX
  8
0
 62
7
  6
CONTINUOUS
 10
2.789585013
 20
263.2578632114
  0
VERTEX
  8
0
 62
7
  6
CONTINUOUS
 10
2.7693008959
 20
264.8140514975
  0
VERTEX
  8
0
 62
7
  6
CONTINUOUS
 10
2.7488325748
 20
266.3495794712
  0
VERTEX
  8
0
 62
7
  6
CONTINUOUS
 10
2.7305766829
 20
267.6922530215
  0
VERTEX
  8
0
 62
7
  6
CONTINUOUS
 10
2.7140863306
 20
268.8850943726
  0
VERTEX
  8
0
 62
7
  6
CONTINUOUS
 10
2.6993704162
 20
269.9346860708
  0
VERTEX
  8
0
 62
7
  6
CONTINUOUS
 10
2.6860882587
 20
270.8705781036
  0
VERTEX
  8
0
 62
7
  6
CONTINUOUS
 10
2.6741713824
 20
271.7015018443
  0
VERTEX
  8
0
 62
7
  6
CONTINUOUS
 10
2.6626294282
 20
272.4987760347
  0
VERTEX
  8
0
 62
7
  6
CONTINUOUS
 10
2.6505327159
 20
273.3268059406
  0
VERTEX
  8
0
 62
7
  6
CONTINUOUS
 10
2.6364798542
 20
274.2794998651
  0
VERTEX
  8
0
 62
7
  6
CONTINUOUS
 10
2.6206885797
 20
275.3388647954
  0
VERTEX
  8
0
 62
7
  6
CONTINUOUS
 10
2.6033236646
 20
276.4909680188
  0
VERTEX
  8
0
 62
7
  6
CONTINUOUS
 10
2.5850762559
 20
277.6879048064
  0
VERTEX
  8
0
 62
7
  6
CONTINUOUS
 10
2.5661550361
 20
278.9149930917
  0
VERTEX
  8
0
 62
7
  6
CONTINUOUS
 10
2.5464092757
 20
280.1813087427
  0
VERTEX
  8
0
 62
7
  6
CONTINUOUS
 10
2.5241660443
 20
281.5915648513
  0
VERTEX
  8
0
 62
7
  6
CONTINUOUS
 10
2.4983369119
 20
283.2092543138
  0
VERTEX
  8
0
 62
7
  6
CONTINUOUS
 10
2.4685491576
 20
285.0505001585
  0
VERTEX
  8
0
 62
7
  6
CONTINUOUS
 10
2.4386764205
 20
286.8730213545
  0
VERTEX
  8
0
 62
7
  6
CONTINUOUS
 10
2.4104142258
 20
288.5771273834
  0
VERTEX
  8
0
 62
7
  6
CONTINUOUS
 10
2.3815749042
 20
290.2975910541
  0
VERTEX
  8
0
 62
7
  6
CONTINUOUS
 10
2.349630351
 20
292.1835298828
  0
VERTEX
  8
0
 62
7
  6
CONTINUOUS
 10
2.3127977718
 20
294.3348413876
  0
VERTEX
  8
0
 62
7
  6
CONTINUOUS
 10
2.2716152314
 20
296.7141259422
  0
VERTEX
  8
0
 62
7
  6
CONTINUOUS
 10
2.233129978
 20
298.9157201815
  0
VERTEX
  8
0
 62
7
  6
CONTINUOUS
 10
2.1949634659
 20
301.0809318071
  0
VERTEX
  8
0
 62
7
  6
CONTINUOUS
 10
2.1527807733
 20
303.4558065321
  0
VERTEX
  8
0
 62
7
  6
CONTINUOUS
 10
2.1059633753
 20
306.0727419939
  0
VERTEX
  8
0
 62
7
  6
CONTINUOUS
 10
2.062420984
 20
308.4920489139
  0
VERTEX
  8
0
 62
7
  6
CONTINUOUS
 10
2.0210423627
 20
310.7807886824
  0
VERTEX
  8
0
 62
7
  6
CONTINUOUS
 10
1.9742829464
 20
313.357960308
  0
VERTEX
  8
0
 62
7
  6
CONTINUOUS
 10
1.9278563664
 20
315.9101846211
  0
VERTEX
  8
0
 62
7
  6
CONTINUOUS
 10
1.8805760111
 20
318.5057239535
  0
VERTEX
  8
0
 62
7
  6
CONTINUOUS
 10
1.8352786916
 20
320.9918393706
  0
VERTEX
  8
0
 62
7
  6
CONTINUOUS
 10
1.7944515364
 20
323.2344163291
  0
VERTEX
  8
0
 62
7
  6
CONTINUOUS
 10
1.7567399917
 20
325.3091496077
  0
VERTEX
  8
0
 62
7
  6
CONTINUOUS
 10
1.7233689477
 20
327.1490148853
  0
VERTEX
  8
0
 62
7
  6
CONTINUOUS
 10
1.693314115
 20
328.8101363179
  0
VERTEX
  8
0
 62
7
  6
CONTINUOUS
 10
1.666385136
 20
330.3024874513
  0
VERTEX
  8
0
 62
7
  6
CONTINUOUS
 10
1.6423363892
 20
331.6389127872
  0
VERTEX
  8
0
 62
7
  6
CONTINUOUS
 10
1.6184594604
 20
332.9696780585
  0
VERTEX
  8
0
 62
7
  6
CONTINUOUS
 10
1.5913016967
 20
334.4885586334
  0
VERTEX
  8
0
 62
7
  6
CONTINUOUS
 10
1.5624629012
 20
336.1082840792
  0
VERTEX
  8
0
 62
7
  6
CONTINUOUS
 10
1.5365038854
 20
337.5729366706
  0
VERTEX
  8
0
 62
7
  6
CONTINUOUS
 10
1.5131181431
 20
338.898327054
  0
VERTEX
  8
0
 62
7
  6
CONTINUOUS
 10
1.4923369894
 20
340.0812049009
  0
VERTEX
  8
0
 62
7
  6
CONTINUOUS
 10
1.4733668196
 20
341.1654847252
  0
VERTEX
  8
0
 62
7
  6
CONTINUOUS
 10
1.4524090302
 20
342.3686707709
  0
VERTEX
  8
0
 62
7
  6
CONTINUOUS
 10
1.431718744
 20
343.5623082448
  0
VERTEX
  8
0
 62
7
  6
CONTINUOUS
 10
1.4133328364
 20
344.628129921
  0
VERTEX
  8
0
 62
7
  6
CONTINUOUS
 10
1.3950889512
 20
345.6907721792
  0
VERTEX
  8
0
 62
7
  6
CONTINUOUS
 10
1.3761849915
 20
346.7974486619
  0
VERTEX
  8
0
 62
7
  6
CONTINUOUS
 10
1.354900638
 20
348.0506719239
  0
VERTEX
  8
0
 62
7
  6
CONTINUOUS
 10
1.3307797422
 20
349.4806871976
  0
VERTEX
  8
0
 62
7
  6
CONTINUOUS
 10
1.3049559074
 20
351.0238925629
  0
VERTEX
  8
0
 62
7
  6
CONTINUOUS
 10
1.2816481604
 20
352.4284578365
  0
VERTEX
  8
0
 62
7
  6
CONTINUOUS
 10
1.2611806056
 20
353.6715443823
  0
VERTEX
  8
0
 62
7
  6
CONTINUOUS
 10
1.2434141751
 20
354.7583369426
  0
VERTEX
  8
0
 62
7
  6
CONTINUOUS
 10
1.2276909238
 20
355.7264778072
  0
VERTEX
  8
0
 62
7
  6
CONTINUOUS
 10
1.2130329018
 20
356.634602693
  0
VERTEX
  8
0
 62
7
  6
CONTINUOUS
 10
1.1976034751
 20
357.5965875729
  0
VERTEX
  8
0
 62
7
  6
CONTINUOUS
 10
1.1802862073
 20
358.6839943623
  0
VERTEX
  8
0
 62
7
  6
CONTINUOUS
 10
1.1632048403
 20
359.7649777029
  0
VERTEX
  8
0
 62
7
  6
CONTINUOUS
 10
1.1460148588
 20
360.8616314058
  0
VERTEX
  8
0
 62
7
  6
CONTINUOUS
 10
1.1271006101
 20
362.0790036449
  0
VERTEX
  8
0
 62
7
  6
CONTINUOUS
 10
1.1076752188
 20
363.341584358
  0
VERTEX
  8
0
 62
7
  6
CONTINUOUS
 10
1.085851941
 20
364.7757600856
  0
VERTEX
  8
0
 62
7
  6
CONTINUOUS
 10
1.0638307417
 20
366.2408781335
  0
VERTEX
  8
0
 62
7
  6
CONTINUOUS
 10
1.0478558444
 20
367.3156716671
  0
SEQEND
  0
POLYLINE
  8
0
 62
7
  6
CONTINUOUS
 66
1
 70
0
  0
VERTEX
  8
0
 62
7
  6
CONTINUOUS
 10
371.0172557741
 20
367.315447324
  0
VERTEX
  8
0
 62
7
  6
CONTINUOUS
 10
370.8479946688
 20
367.1893642799
  0
VERTEX
  8
0
 62
7
  6
CONTINUOUS
 10
370.6761102701
 20
367.066879561
  0
VERTEX
  8
0
 62
7
  6
CONTINUOUS
 10
370.5016790984
 20
366.9480477906
  0
VERTEX
  8
0
 62
7
  6
CONTINUOUS
 10
370.3247776742
 20
366.8329235923
  0
VERTEX
  8
0
 62
7
  6
CONTINUOUS
 10
370.1425911094
 20
366.7198064194
  0
VERTEX
  8
0
 62
7
  6
CONTINUOUS
 10
369.9580195137
 20
366.6106215165
  0
VERTEX
  8
0
 62
7
  6
CONTINUOUS
 10
369.7711489247
 20
366.5054174091
  0
VERTEX
  8
0
 62
7
  6
CONTINUOUS
 10
369.58206538
 20
366.404242623
  0
VERTEX
  8
0
 62
7
  6
CONTINUOUS
 10
369.3908549172
 20
366.3071456837
  0
VERTEX
  8
0
 62
7
  6
CONTINUOUS
 10
369.1919955736
 20
366.2115510066
  0
VERTEX
  8
0
 62
7
  6
CONTINUOUS
 10
368.9910741547
 20
366.120366781
  0
VERTEX
  8
0
 62
7
  6
CONTINUOUS
 10
368.7881890107
 20
366.0336353829
  0
VERTEX
  8
0
 62
7
  6
CONTINUOUS
 10
368.5834384919
 20
365.9513991883
  0
VERTEX
  8
0
 62
7
  6
CONTINUOUS
 10
368.3769209483
 20
365.8737005731
  0
VERTEX
  8
0
 62
7
  6
CONTINUOUS
 10
368.1988287373
 20
365.8108312268
  0
VERTEX
  8
0
 62
7
  6
CONTINUOUS
 10
368.0195795474
 20
365.7513366966
  0
VERTEX
  8
0
 62
7
  6
CONTINUOUS
 10
367.8392388859
 20
365.695236481
  0
VERTEX
  8
0
 62
7
  6
CONTINUOUS
 10
367.6578722604
 20
365.6425500786
  0
VERTEX
  8
0
 62
7
  6
CONTINUOUS
 10
367.4755451783
 20
365.5932969879
  0
VERTEX
  8
0
 62
7
  6
CONTINUOUS
 10
367.2923231471
 20
365.5474967073
  0
VERTEX
  8
0
 62
7
  6
CONTINUOUS
 10
367.1035662198
 20
365.5041332833
  0
VERTEX
  8
0
 62
7
  6
CONTINUOUS
 10
366.9140047624
 20
365.4644344616
  0
VERTEX
  8
0
 62
7
  6
CONTINUOUS
 10
366.7237065399
 20
365.4284131362
  0
VERTEX
  8
0
 62
7
  6
CONTINUOUS
 10
366.5327393177
 20
365.3960822015
  0
VERTEX
  8
0
 62
7
  6
CONTINUOUS
 10
366.3411708609
 20
365.3674545515
  0
VERTEX
  8
0
 62
7
  6
CONTINUOUS
 10
366.1490689349
 20
365.3425430804
  0
VERTEX
  8
0
 62
7
  6
CONTINUOUS
 10
365.951863324
 20
365.3208952864
  0
VERTEX
  8
0
 62
7
  6
CONTINUOUS
 10
365.7542619113
 20
365.3031631179
  0
VERTEX
  8
0
 62
7
  6
CONTINUOUS
 10
365.5563572931
 20
365.2893514098
  0
VERTEX
  8
0
 62
7
  6
CONTINUOUS
 10
365.3582420655
 20
365.2794649965
  0
VERTEX
  8
0
 62
7
  6
CONTINUOUS
 10
365.1600088245
 20
365.273508713
  0
VERTEX
  8
0
 62
7
  6
CONTINUOUS
 10
364.9617501662
 20
365.2714873938
  0
SEQEND
  0
POLYLINE
  8
0
 62
7
  6
CONTINUOUS
 66
1
 70
0
  0
VERTEX
  8
0
 62
7
  6
CONTINUOUS
 10
1.0478558444
 20
367.3156716671
  0
VERTEX
  8
0
 62
7
  6
CONTINUOUS
 10
1.2209838059
 20
367.1867638376
  0
VERTEX
  8
0
 62
7
  6
CONTINUOUS
 10
1.3968546147
 20
367.061623537
  0
VERTEX
  8
0
 62
7
  6
CONTINUOUS
 10
1.5753843473
 20
366.9403064683
  0
VERTEX
  8
0
 62
7
  6
CONTINUOUS
 10
1.75648908
 20
366.8228683343
  0
VERTEX
  8
0
 62
7
  6
CONTINUOUS
 10
1.9400848892
 20
366.7093648376
  0
VERTEX
  8
0
 62
7
  6
CONTINUOUS
 10
2.1260878513
 20
366.5998516811
  0
VERTEX
  8
0
 62
7
  6
CONTINUOUS
 10
2.3154849538
 20
366.4937975567
  0
VERTEX
  8
0
 62
7
  6
CONTINUOUS
 10
2.507140117
 20
366.3918804762
  0
VERTEX
  8
0
 62
7
  6
CONTINUOUS
 10
2.70096181
 20
366.2941455289
  0
VERTEX
  8
0
 62
7
  6
CONTINUOUS
 10
2.8968585016
 20
366.2006378036
  0
VERTEX
  8
0
 62
7
  6
CONTINUOUS
 10
3.094738661
 20
366.1114023895
  0
VERTEX
  8
0
 62
7
  6
CONTINUOUS
 10
3.2945107569
 20
366.0264843755
  0
VERTEX
  8
0
 62
7
  6
CONTINUOUS
 10
3.4960927728
 20
365.9459226787
  0
VERTEX
  8
0
 62
7
  6
CONTINUOUS
 10
3.6993770575
 20
365.8697567148
  0
VERTEX
  8
0
 62
7
  6
CONTINUOUS
 10
3.9042652849
 20
365.7980192687
  0
VERTEX
  8
0
 62
7
  6
CONTINUOUS
 10
4.1106591287
 20
365.7307431254
  0
VERTEX
  8
0
 62
7
  6
CONTINUOUS
 10
4.3184602629
 20
365.6679610698
  0
VERTEX
  8
0
 62
7
  6
CONTINUOUS
 10
4.5275703612
 20
365.6097058869
  0
VERTEX
  8
0
 62
7
  6
CONTINUOUS
 10
4.737919772
 20
365.5560013413
  0
VERTEX
  8
0
 62
7
  6
CONTINUOUS
 10
4.949384691
 20
365.5068775749
  0
VERTEX
  8
0
 62
7
  6
CONTINUOUS
 10
5.1618696648
 20
365.4623544902
  0
VERTEX
  8
0
 62
7
  6
CONTINUOUS
 10
5.3752792398
 20
365.4224519897
  0
VERTEX
  8
0
 62
7
  6
CONTINUOUS
 10
5.5895179626
 20
365.3871899761
  0
VERTEX
  8
0
 62
7
  6
CONTINUOUS
 10
5.8044903797
 20
365.3565883519
  0
VERTEX
  8
0
 62
7
  6
CONTINUOUS
 10
6.0201278187
 20
365.3306614374
  0
VERTEX
  8
0
 62
7
  6
CONTINUOUS
 10
6.2362827455
 20
365.3094229021
  0
VERTEX
  8
0
 62
7
  6
CONTINUOUS
 10
6.4528342234
 20
365.292879488
  0
VERTEX
  8
0
 62
7
  6
CONTINUOUS
 10
6.6696613158
 20
365.2810379371
  0
VERTEX
  8
0
 62
7
  6
CONTINUOUS
 10
6.8866430864
 20
365.2739049917
  0
VERTEX
  8
0
 62
7
  6
CONTINUOUS
 10
7.1036585984
 20
365.2714873938
  0
SEQEND
  0
POLYLINE
  8
0
 62
7
  6
CONTINUOUS
 66
1
 70
0
  0
VERTEX
  8
0
 62
7
  6
CONTINUOUS
 10
368.9600645959
 20
209.5855101487
  0
VERTEX
  8
0
 62
7
  6
CONTINUOUS
 10
368.9611062881
 20
208.6386470697
  0
VERTEX
  8
0
 62
7
  6
CONTINUOUS
 10
368.9622298109
 20
207.7764664878
  0
VERTEX
  8
0
 62
7
  6
CONTINUOUS
 10
368.9637679726
 20
206.8157065453
  0
VERTEX
  8
0
 62
7
  6
CONTINUOUS
 10
368.9658760113
 20
205.726008317
  0
VERTEX
  8
0
 62
7
  6
CONTINUOUS
 10
368.9686000819
 20
204.5040957116
  0
VERTEX
  8
0
 62
7
  6
CONTINUOUS
 10
368.9716169714
 20
203.2753383999
  0
VERTEX
  8
0
 62
7
  6
CONTINUOUS
 10
368.9744336376
 20
202.1952592154
  0
VERTEX
  8
0
 62
7
  6
CONTINUOUS
 10
368.9771413004
 20
201.1913100349
  0
VERTEX
  8
0
 62
7
  6
CONTINUOUS
 10
368.9796162903
 20
200.2876084244
  0
VERTEX
  8
0
 62
7
  6
CONTINUOUS
 10
368.9821157188
 20
199.3763656364
  0
VERTEX
  8
0
 62
7
  6
CONTINUOUS
 10
368.9845950395
 20
198.461175791
  0
VERTEX
  8
0
 62
7
  6
CONTINUOUS
 10
368.9871083848
 20
197.5062865549
  0
VERTEX
  8
0
 62
7
  6
CONTINUOUS
 10
368.9897839732
 20
196.4369703406
  0
VERTEX
  8
0
 62
7
  6
CONTINUOUS
 10
368.9924186528
 20
195.2959401038
  0
VERTEX
  8
0
 62
7
  6
CONTINUOUS
 10
368.9945317835
 20
194.2839366426
  0
VERTEX
  8
0
 62
7
  6
CONTINUOUS
 10
368.9963305886
 20
193.3250894035
  0
VERTEX
  8
0
 62
7
  6
CONTINUOUS
 10
368.9980783824
 20
192.2669407733
  0
VERTEX
  8
0
 62
7
  6
CONTINUOUS
 10
368.9997358172
 20
191.1382952802
  0
VERTEX
  8
0
 62
7
  6
CONTINUOUS
 10
369.0014567828
 20
189.9911104037
  0
VERTEX
  8
0
 62
7
  6
CONTINUOUS
 10
369.0035067871
 20
188.711075072
  0
VERTEX
  8
0
 62
7
  6
CONTINUOUS
 10
369.0056687919
 20
187.355679894
  0
VERTEX
  8
0
 62
7
  6
CONTINUOUS
 10
369.0075401928
 20
186.1412101157
  0
VERTEX
  8
0
 62
7
  6
CONTINUOUS
 10
369.0093177349
 20
184.9167273917
  0
VERTEX
  8
0
 62
7
  6
CONTINUOUS
 10
369.0111230103
 20
183.5378825076
  0
VERTEX
  8
0
 62
7
  6
CONTINUOUS
 10
369.0128255821
 20
181.9788265886
  0
VERTEX
  8
0
 62
7
  6
CONTINUOUS
 10
369.0141967697
 20
180.2081483663
  0
VERTEX
  8
0
 62
7
  6
CONTINUOUS
 10
369.0148603738
 20
178.1856597278
  0
VERTEX
  8
0
 62
7
  6
CONTINUOUS
 10
369.0143193475
 20
175.9458324414
  0
VERTEX
  8
0
 62
7
  6
CONTINUOUS
 10
369.012044552
 20
173.4860360556
  0
VERTEX
  8
0
 62
7
  6
CONTINUOUS
 10
369.0084117259
 20
171.1594733626
  0
VERTEX
  8
0
 62
7
  6
CONTINUOUS
 10
369.0036788294
 20
168.8332083464
  0
VERTEX
  8
0
 62
7
  6
CONTINUOUS
 10
368.9987951313
 20
166.768680553
  0
VERTEX
  8
0
 62
7
  6
CONTINUOUS
 10
368.9938475278
 20
164.8998664538
  0
VERTEX
  8
0
 62
7
  6
CONTINUOUS
 10
368.9883447814
 20
163.0475196813
  0
VERTEX
  8
0
 62
7
  6
CONTINUOUS
 10
368.9822810503
 20
161.2330982409
  0
VERTEX
  8
0
 62
7
  6
CONTINUOUS
 10
368.975929103
 20
159.530164859
  0
VERTEX
  8
0
 62
7
  6
CONTINUOUS
 10
368.9698226983
 20
158.0392105722
  0
VERTEX
  8
0
 62
7
  6
CONTINUOUS
 10
368.9637037051
 20
156.6594551043
  0
VERTEX
  8
0
 62
7
  6
CONTINUOUS
 10
368.9575716786
 20
155.371100791
  0
VERTEX
  8
0
 62
7
  6
CONTINUOUS
 10
368.9518637002
 20
154.2440761648
  0
VERTEX
  8
0
 62
7
  6
CONTINUOUS
 10
368.946548912
 20
153.2493653394
  0
VERTEX
  8
0
 62
7
  6
CONTINUOUS
 10
368.9416377937
 20
152.3719363777
  0
VERTEX
  8
0
 62
7
  6
CONTINUOUS
 10
368.9369850908
 20
151.5740525107
  0
VERTEX
  8
0
 62
7
  6
CONTINUOUS
 10
368.9322684452
 20
150.795077024
  0
VERTEX
  8
0
 62
7
  6
CONTINUOUS
 10
368.9272710747
 20
149.9985441725
  0
VERTEX
  8
0
 62
7
  6
CONTINUOUS
 10
368.9214432943
 20
149.1021921532
  0
VERTEX
  8
0
 62
7
  6
CONTINUOUS
 10
368.9147311819
 20
148.1071006082
  0
VERTEX
  8
0
 62
7
  6
CONTINUOUS
 10
368.9073590733
 20
147.0531205871
  0
VERTEX
  8
0
 62
7
  6
CONTINUOUS
 10
368.8996221358
 20
145.9842559645
  0
VERTEX
  8
0
 62
7
  6
CONTINUOUS
 10
368.8906199707
 20
144.7815347555
  0
VERTEX
  8
0
 62
7
  6
CONTINUOUS
 10
368.8820566142
 20
143.6724985455
  0
VERTEX
  8
0
 62
7
  6
CONTINUOUS
 10
368.8741183428
 20
142.6709021394
  0
VERTEX
  8
0
 62
7
  6
CONTINUOUS
 10
368.8657500877
 20
141.6393331046
  0
VERTEX
  8
0
 62
7
  6
CONTINUOUS
 10
368.8568406455
 20
140.5653335942
  0
VERTEX
  8
0
 62
7
  6
CONTINUOUS
 10
368.8470191349
 20
139.4071013869
  0
VERTEX
  8
0
 62
7
  6
CONTINUOUS
 10
368.8360078663
 20
138.1368786762
  0
VERTEX
  8
0
 62
7
  6
CONTINUOUS
 10
368.8233286014
 20
136.7067526042
  0
VERTEX
  8
0
 62
7
  6
CONTINUOUS
 10
368.8102771698
 20
135.2663234891
  0
VERTEX
  8
0
 62
7
  6
CONTINUOUS
 10
368.7985788797
 20
133.9990950086
  0
VERTEX
  8
0
 62
7
  6
CONTINUOUS
 10
368.7881478133
 20
132.8860220739
  0
VERTEX
  8
0
 62
7
  6
CONTINUOUS
 10
368.7789357643
 20
131.9151107422
  0
VERTEX
  8
0
 62
7
  6
CONTINUOUS
 10
368.7708098776
 20
131.0674045039
  0
VERTEX
  8
0
 62
7
  6
CONTINUOUS
 10
368.7625203312
 20
130.2103697367
  0
VERTEX
  8
0
 62
7
  6
CONTINUOUS
 10
368.7541600996
 20
129.3530073483
  0
VERTEX
  8
0
 62
7
  6
CONTINUOUS
 10
368.7448225406
 20
128.4025673522
  0
VERTEX
  8
0
 62
7
  6
CONTINUOUS
 10
368.7347494274
 20
127.3864065689
  0
VERTEX
  8
0
 62
7
  6
CONTINUOUS
 10
368.72536229
 20
126.4540348391
  0
VERTEX
  8
0
 62
7
  6
CONTINUOUS
 10
368.7166080251
 20
125.6017772687
  0
VERTEX
  8
0
 62
7
  6
CONTINUOUS
 10
368.7070426411
 20
124.6890416823
  0
VERTEX
  8
0
 62
7
  6
CONTINUOUS
 10
368.6960625497
 20
123.6620528634
  0
VERTEX
  8
0
 62
7
  6
CONTINUOUS
 10
368.6832967226
 20
122.4919924316
  0
VERTEX
  8
0
 62
7
  6
CONTINUOUS
 10
368.6685507627
 20
121.1674579939
  0
VERTEX
  8
0
 62
7
  6
CONTINUOUS
 10
368.6520197306
 20
119.7109170094
  0
VERTEX
  8
0
 62
7
  6
CONTINUOUS
 10
368.6363968534
 20
118.3567287783
  0
VERTEX
  8
0
 62
7
  6
CONTINUOUS
 10
368.6218075302
 20
117.1079960777
  0
VERTEX
  8
0
 62
7
  6
CONTINUOUS
 10
368.6081074594
 20
115.9466221789
  0
VERTEX
  8
0
 62
7
  6
CONTINUOUS
 10
368.59433936
 20
114.7881540175
  0
VERTEX
  8
0
 62
7
  6
CONTINUOUS
 10
368.5810565358
 20
113.6768588716
  0
VERTEX
  8
0
 62
7
  6
CONTINUOUS
 10
368.5676336906
 20
112.5585136035
  0
VERTEX
  8
0
 62
7
  6
CONTINUOUS
 10
368.5541864164
 20
111.4412312828
  0
VERTEX
  8
0
 62
7
  6
CONTINUOUS
 10
368.5400092486
 20
110.2649008444
  0
VERTEX
  8
0
 62
7
  6
CONTINUOUS
 10
368.5249755751
 20
109.0168307907
  0
VERTEX
  8
0
 62
7
  6
CONTINUOUS
 10
368.5111085465
 20
107.861399478
  0
VERTEX
  8
0
 62
7
  6
CONTINUOUS
 10
368.4969815902
 20
106.6760208269
  0
VERTEX
  8
0
 62
7
  6
CONTINUOUS
 10
368.4826951248
 20
105.4653184552
  0
VERTEX
  8
0
 62
7
  6
CONTINUOUS
 10
368.4699135264
 20
104.3746493
  0
VERTEX
  8
0
 62
7
  6
CONTINUOUS
 10
368.4565407853
 20
103.2311327235
  0
VERTEX
  8
0
 62
7
  6
CONTINUOUS
 10
368.4412376926
 20
101.926582828
  0
VERTEX
  8
0
 62
7
  6
CONTINUOUS
 10
368.4237707079
 20
100.4482187008
  0
VERTEX
  8
0
 62
7
  6
CONTINUOUS
 10
368.4039848867
 20
98.7850452289
  0
VERTEX
  8
0
 62
7
  6
CONTINUOUS
 10
368.3815430461
 20
96.9087061435
  0
VERTEX
  8
0
 62
7
  6
CONTINUOUS
 10
368.3559836693
 20
94.7773291229
  0
VERTEX
  8
0
 62
7
  6
CONTINUOUS
 10
368.3267252923
 20
92.3331988599
  0
VERTEX
  8
0
 62
7
  6
CONTINUOUS
 10
368.2945806984
 20
89.6236795412
  0
VERTEX
  8
0
 62
7
  6
CONTINUOUS
 10
368.266114049
 20
87.1814551836
  0
VERTEX
  8
0
 62
7
  6
CONTINUOUS
 10
368.2402874797
 20
84.9140611907
  0
VERTEX
  8
0
 62
7
  6
CONTINUOUS
 10
368.2125591429
 20
82.4126181386
  0
VERTEX
  8
0
 62
7
  6
CONTINUOUS
 10
368.1820566988
 20
79.571532632
  0
VERTEX
  8
0
 62
7
  6
CONTINUOUS
 10
368.1492082255
 20
76.4064680404
  0
VERTEX
  8
0
 62
7
  6
CONTINUOUS
 10
368.1197782531
 20
73.4810034573
  0
VERTEX
  8
0
 62
7
  6
CONTINUOUS
 10
368.094802331
 20
70.9289172154
  0
VERTEX
  8
0
 62
7
  6
CONTINUOUS
 10
368.0714559267
 20
68.471760043
  0
VERTEX
  8
0
 62
7
  6
CONTINUOUS
 10
368.0482758338
 20
65.9465859286
  0
VERTEX
  8
0
 62
7
  6
CONTINUOUS
 10
368.0284014051
 20
63.6983134803
  0
VERTEX
  8
0
 62
7
  6
CONTINUOUS
 10
368.008672709
 20
61.3733104303
  0
VERTEX
  8
0
 62
7
  6
CONTINUOUS
 10
367.9887857494
 20
58.9123276911
  0
VERTEX
  8
0
 62
7
  6
CONTINUOUS
 10
367.969397482
 20
56.3778753925
  0
VERTEX
  8
0
 62
7
  6
CONTINUOUS
 10
367.9521500311
 20
54.0160986197
  0
VERTEX
  8
0
 62
7
  6
CONTINUOUS
 10
367.9336506086
 20
51.3912095467
  0
SEQEND
  0
POLYLINE
  8
0
 62
7
  6
CONTINUOUS
 66
1
 70
0
  0
VERTEX
  8
0
 62
7
  6
CONTINUOUS
 10
367.9336506086
 20
51.3912095467
  0
VERTEX
  8
0
 62
7
  6
CONTINUOUS
 10
367.9153467871
 20
48.7023334416
  0
VERTEX
  8
0
 62
7
  6
CONTINUOUS
 10
367.899878292
 20
46.3415873265
  0
VERTEX
  8
0
 62
7
  6
CONTINUOUS
 10
367.8866691309
 20
44.2431215878
  0
VERTEX
  8
0
 62
7
  6
CONTINUOUS
 10
367.8736287164
 20
42.0693904669
  0
VERTEX
  8
0
 62
7
  6
CONTINUOUS
 10
367.8596257993
 20
39.5982367266
  0
VERTEX
  8
0
 62
7
  6
CONTINUOUS
 10
367.8454999692
 20
36.999266746
  0
VERTEX
  8
0
 62
7
  6
CONTINUOUS
 10
367.8330946674
 20
34.6918278148
  0
VERTEX
  8
0
 62
7
  6
CONTINUOUS
 10
367.8219654756
 20
32.658753709
  0
VERTEX
  8
0
 62
7
  6
CONTINUOUS
 10
367.8119367525
 20
30.8590789678
  0
VERTEX
  8
0
 62
7
  6
CONTINUOUS
 10
367.8014012296
 20
28.934357984
  0
VERTEX
  8
0
 62
7
  6
CONTINUOUS
 10
367.7899936805
 20
26.7706336533
  0
VERTEX
  8
0
 62
7
  6
CONTINUOUS
 10
367.7791960913
 20
24.7085666567
  0
VERTEX
  8
0
 62
7
  6
CONTINUOUS
 10
367.7695116294
 20
22.9069008023
  0
VERTEX
  8
0
 62
7
  6
CONTINUOUS
 10
367.7591455243
 20
21.0769623678
  0
VERTEX
  8
0
 62
7
  6
CONTINUOUS
 10
367.7489025153
 20
19.395240891
  0
VERTEX
  8
0
 62
7
  6
CONTINUOUS
 10
367.7393518801
 20
17.9217354664
  0
VERTEX
  8
0
 62
7
  6
CONTINUOUS
 10
367.7301554905
 20
16.5559303588
  0
VERTEX
  8
0
 62
7
  6
CONTINUOUS
 10
367.7201833936
 20
15.1064976813
  0
VERTEX
  8
0
 62
7
  6
CONTINUOUS
 10
367.7111625856
 20
13.8168206846
  0
VERTEX
  8
0
 62
7
  6
CONTINUOUS
 10
367.7030489417
 20
12.6890788093
  0
VERTEX
  8
0
 62
7
  6
CONTINUOUS
 10
367.6956560402
 20
11.6984212039
  0
VERTEX
  8
0
 62
7
  6
CONTINUOUS
 10
367.6887717193
 20
10.8129757235
  0
VERTEX
  8
0
 62
7
  6
CONTINUOUS
 10
367.6813923247
 20
9.9065493842
  0
VERTEX
  8
0
 62
7
  6
CONTINUOUS
 10
367.6729054344
 20
8.9199908866
  0
VERTEX
  8
0
 62
7
  6
CONTINUOUS
 10
367.6633400788
 20
7.8801056822
  0
VERTEX
  8
0
 62
7
  6
CONTINUOUS
 10
367.6533597381
 20
6.8734598254
  0
VERTEX
  8
0
 62
7
  6
CONTINUOUS
 10
367.6438302705
 20
5.9743363408
  0
VERTEX
  8
0
 62
7
  6
CONTINUOUS
 10
367.633680069
 20
5.0601684148
  0
VERTEX
  8
0
 62
7
  6
CONTINUOUS
 10
367.6228221363
 20
4.1161533036
  0
VERTEX
  8
0
 62
7
  6
CONTINUOUS
 10
367.6103545593
 20
3.0721910203
  0
VERTEX
  8
0
 62
7
  6
CONTINUOUS
 10
367.5960764098
 20
1.9275601593
  0
VERTEX
  8
0
 62
7
  6
CONTINUOUS
 10
367.5819143402
 20
0.8436408502
  0
VERTEX
  8
0
 62
7
  6
CONTINUOUS
 10
367.5682392072
 20
-0.1560837582
  0
VERTEX
  8
0
 62
7
  6
CONTINUOUS
 10
367.5540060054
 20
-1.1457121289
  0
VERTEX
  8
0
 62
7
  6
CONTINUOUS
 10
367.5373524551
 20
-2.2367528501
  0
VERTEX
  8
0
 62
7
  6
CONTINUOUS
 10
367.5188774573
 20
-3.3663900739
  0
VERTEX
  8
0
 62
7
  6
CONTINUOUS
 10
367.4966663803
 20
-4.6312377577
  0
VERTEX
  8
0
 62
7
  6
CONTINUOUS
 10
367.4696685741
 20
-6.0636112476
  0
VERTEX
  8
0
 62
7
  6
CONTINUOUS
 10
367.436609173
 20
-7.6985248222
  0
VERTEX
  8
0
 62
7
  6
CONTINUOUS
 10
367.3974566309
 20
-9.5041855823
  0
VERTEX
  8
0
 62
7
  6
CONTINUOUS
 10
367.3592581262
 20
-11.1423015036
  0
VERTEX
  8
0
 62
7
  6
CONTINUOUS
 10
367.3232497505
 20
-12.581257785
  0
VERTEX
  8
0
 62
7
  6
CONTINUOUS
 10
367.2894029484
 20
-13.8498934752
  0
VERTEX
  8
0
 62
7
  6
CONTINUOUS
 10
367.2511973548
 20
-15.198610935
  0
VERTEX
  8
0
 62
7
  6
CONTINUOUS
 10
367.2051240226
 20
-16.7255595945
  0
VERTEX
  8
0
 62
7
  6
CONTINUOUS
 10
367.1533458894
 20
-18.3324069351
  0
VERTEX
  8
0
 62
7
  6
CONTINUOUS
 10
367.1038433006
 20
-19.7775976894
  0
VERTEX
  8
0
 62
7
  6
CONTINUOUS
 10
367.0569278204
 20
-21.0768971949
  0
VERTEX
  8
0
 62
7
  6
CONTINUOUS
 10
367.0139756852
 20
-22.2133592492
  0
VERTEX
  8
0
 62
7
  6
CONTINUOUS
 10
366.9752567159
 20
-23.1984779518
  0
VERTEX
  8
0
 62
7
  6
CONTINUOUS
 10
366.9386371762
 20
-24.0986047403
  0
VERTEX
  8
0
 62
7
  6
CONTINUOUS
 10
366.9022802806
 20
-24.9640194985
  0
VERTEX
  8
0
 62
7
  6
CONTINUOUS
 10
366.8603427308
 20
-25.9296098583
  0
VERTEX
  8
0
 62
7
  6
CONTINUOUS
 10
366.811395578
 20
-27.0153105056
  0
VERTEX
  8
0
 62
7
  6
CONTINUOUS
 10
366.7545732243
 20
-28.2240246508
  0
VERTEX
  8
0
 62
7
  6
CONTINUOUS
 10
366.6871994086
 20
-29.5916694236
  0
VERTEX
  8
0
 62
7
  6
CONTINUOUS
 10
366.6067137197
 20
-31.1423869979
  0
VERTEX
  8
0
 62
7
  6
CONTINUOUS
 10
366.5101696908
 20
-32.9021020845
  0
VERTEX
  8
0
 62
7
  6
CONTINUOUS
 10
366.3940999827
 20
-34.8968875154
  0
VERTEX
  8
0
 62
7
  6
CONTINUOUS
 10
366.2657469626
 20
-36.9686970327
  0
VERTEX
  8
0
 62
7
  6
CONTINUOUS
 10
366.1359696164
 20
-38.9375345623
  0
VERTEX
  8
0
 62
7
  6
CONTINUOUS
 10
365.9879647184
 20
-41.0464675968
  0
VERTEX
  8
0
 62
7
  6
CONTINUOUS
 10
365.8322037295
 20
-43.1307173714
  0
VERTEX
  8
0
 62
7
  6
CONTINUOUS
 10
365.6737130496
 20
-45.1331639618
  0
VERTEX
  8
0
 62
7
  6
CONTINUOUS
 10
365.5179948961
 20
-47.0031149031
  0
VERTEX
  8
0
 62
7
  6
CONTINUOUS
 10
365.3753598231
 20
-48.6405234045
  0
VERTEX
  8
0
 62
7
  6
CONTINUOUS
 10
365.2452099921
 20
-50.0757831452
  0
VERTEX
  8
0
 62
7
  6
CONTINUOUS
 10
365.1259391312
 20
-51.3445290251
  0
VERTEX
  8
0
 62
7
  6
CONTINUOUS
 10
365.0162027686
 20
-52.4748764441
  0
VERTEX
  8
0
 62
7
  6
CONTINUOUS
 10
364.915146474
 20
-53.4875099004
  0
VERTEX
  8
0
 62
7
  6
CONTINUOUS
 10
364.8136768772
 20
-54.479800768
  0
VERTEX
  8
0
 62
7
  6
CONTINUOUS
 10
364.7027032559
 20
-55.5398826681
  0
VERTEX
  8
0
 62
7
  6
CONTINUOUS
 10
364.5763458673
 20
-56.7177251806
  0
VERTEX
  8
0
 62
7
  6
CONTINUOUS
 10
364.4503899031
 20
-57.8614731205
  0
VERTEX
  8
0
 62
7
  6
CONTINUOUS
 10
364.3112593719
 20
-59.089959733
  0
VERTEX
  8
0
 62
7
  6
CONTINUOUS
 10
364.1737313568
 20
-60.2700177355
  0
VERTEX
  8
0
 62
7
  6
CONTINUOUS
 10
364.0508338609
 20
-61.2977802381
  0
VERTEX
  8
0
 62
7
  6
CONTINUOUS
 10
363.9361267864
 20
-62.2359824028
  0
VERTEX
  8
0
 62
7
  6
CONTINUOUS
 10
363.8209198942
 20
-63.1593386219
  0
VERTEX
  8
0
 62
7
  6
CONTINUOUS
 10
363.6910311995
 20
-64.1793741128
  0
VERTEX
  8
0
 62
7
  6
CONTINUOUS
 10
363.5442836607
 20
-65.3071134216
  0
VERTEX
  8
0
 62
7
  6
CONTINUOUS
 10
363.3733258853
 20
-66.5893050874
  0
VERTEX
  8
0
 62
7
  6
CONTINUOUS
 10
363.1970314896
 20
-67.8769564005
  0
VERTEX
  8
0
 62
7
  6
CONTINUOUS
 10
363.0344500476
 20
-69.0343445178
  0
VERTEX
  8
0
 62
7
  6
CONTINUOUS
 10
362.8763681267
 20
-70.1338734946
  0
VERTEX
  8
0
 62
7
  6
CONTINUOUS
 10
362.7122808413
 20
-71.2505541163
  0
VERTEX
  8
0
 62
7
  6
CONTINUOUS
 10
362.5439401066
 20
-72.3720876812
  0
VERTEX
  8
0
 62
7
  6
CONTINUOUS
 10
362.3614296102
 20
-73.5617255866
  0
VERTEX
  8
0
 62
7
  6
CONTINUOUS
 10
362.1930016491
 20
-74.6363147402
  0
VERTEX
  8
0
 62
7
  6
CONTINUOUS
 10
362.0416126513
 20
-75.5839121999
  0
VERTEX
  8
0
 62
7
  6
CONTINUOUS
 10
361.8952775521
 20
-76.4841217934
  0
VERTEX
  8
0
 62
7
  6
CONTINUOUS
 10
361.7536363393
 20
-77.3416824077
  0
VERTEX
  8
0
 62
7
  6
CONTINUOUS
 10
361.6105754212
 20
-78.1950282623
  0
VERTEX
  8
0
 62
7
  6
CONTINUOUS
 10
361.4543257761
 20
-79.1132654324
  0
VERTEX
  8
0
 62
7
  6
CONTINUOUS
 10
361.2771437275
 20
-80.138047554
  0
VERTEX
  8
0
 62
7
  6
CONTINUOUS
 10
361.0926506875
 20
-81.1866004519
  0
VERTEX
  8
0
 62
7
  6
CONTINUOUS
 10
360.9185068636
 20
-82.1588548481
  0
VERTEX
  8
0
 62
7
  6
CONTINUOUS
 10
360.7642633665
 20
-83.0058298656
  0
VERTEX
  8
0
 62
7
  6
CONTINUOUS
 10
360.6131307427
 20
-83.823234416
  0
VERTEX
  8
0
 62
7
  6
CONTINUOUS
 10
360.4642802827
 20
-84.6173657262
  0
VERTEX
  8
0
 62
7
  6
CONTINUOUS
 10
360.318014683
 20
-85.3881765055
  0
VERTEX
  8
0
 62
7
  6
CONTINUOUS
 10
360.1517214138
 20
-86.2540813611
  0
VERTEX
  8
0
 62
7
  6
CONTINUOUS
 10
359.9627277076
 20
-87.2250978398
  0
VERTEX
  8
0
 62
7
  6
CONTINUOUS
 10
359.7500808862
 20
-88.3009960707
  0
VERTEX
  8
0
 62
7
  6
CONTINUOUS
 10
359.5099061828
 20
-89.4949982963
  0
VERTEX
  8
0
 62
7
  6
CONTINUOUS
 10
359.236784121
 20
-90.8255483083
  0
SEQEND
  0
POLYLINE
  8
0
 62
7
  6
CONTINUOUS
 66
1
 70
0
  0
VERTEX
  8
0
 62
7
  6
CONTINUOUS
 10
371.0172557741
 20
367.315447324
  0
VERTEX
  8
0
 62
7
  6
CONTINUOUS
 10
370.9944752672
 20
365.8066944218
  0
VERTEX
  8
0
 62
7
  6
CONTINUOUS
 10
370.9699104878
 20
364.2014239512
  0
VERTEX
  8
0
 62
7
  6
CONTINUOUS
 10
370.948134938
 20
362.7952373522
  0
VERTEX
  8
0
 62
7
  6
CONTINUOUS
 10
370.9289359542
 20
361.5672401886
  0
VERTEX
  8
0
 62
7
  6
CONTINUOUS
 10
370.9113658366
 20
360.4522494951
  0
VERTEX
  8
0
 62
7
  6
CONTINUOUS
 10
370.8930367565
 20
359.2972609267
  0
VERTEX
  8
0
 62
7
  6
CONTINUOUS
 10
370.8761545283
 20
358.2400434419
  0
VERTEX
  8
0
 62
7
  6
CONTINUOUS
 10
370.8591621733
 20
357.1815971216
  0
VERTEX
  8
0
 62
7
  6
CONTINUOUS
 10
370.8420014838
 20
356.1177520305
  0
VERTEX
  8
0
 62
7
  6
CONTINUOUS
 10
370.8241027891
 20
355.0128855235
  0
VERTEX
  8
0
 62
7
  6
CONTINUOUS
 10
370.8039698791
 20
353.7749801752
  0
VERTEX
  8
0
 62
7
  6
CONTINUOUS
 10
370.7811449158
 20
352.3765671219
  0
VERTEX
  8
0
 62
7
  6
CONTINUOUS
 10
370.7583727443
 20
350.9853251221
  0
VERTEX
  8
0
 62
7
  6
CONTINUOUS
 10
370.7378134403
 20
349.7314734054
  0
VERTEX
  8
0
 62
7
  6
CONTINUOUS
 10
370.7194271374
 20
348.6117096471
  0
VERTEX
  8
0
 62
7
  6
CONTINUOUS
 10
370.6993934106
 20
347.3960733213
  0
VERTEX
  8
0
 62
7
  6
CONTINUOUS
 10
370.6763388667
 20
346.0074823807
  0
VERTEX
  8
0
 62
7
  6
CONTINUOUS
 10
370.6511509911
 20
344.5087275683
  0
VERTEX
  8
0
 62
7
  6
CONTINUOUS
 10
370.6244026156
 20
342.9400018944
  0
VERTEX
  8
0
 62
7
  6
CONTINUOUS
 10
370.5968923865
 20
341.3476026426
  0
VERTEX
  8
0
 62
7
  6
CONTINUOUS
 10
370.5674597013
 20
339.6636777894
  0
VERTEX
  8
0
 62
7
  6
CONTINUOUS
 10
370.5410469421
 20
338.1675799715
  0
VERTEX
  8
0
 62
7
  6
CONTINUOUS
 10
370.5178300385
 20
336.8627678808
  0
VERTEX
  8
0
 62
7
  6
CONTINUOUS
 10
370.4950520895
 20
335.5908008776
  0
VERTEX
  8
0
 62
7
  6
CONTINUOUS
 10
370.4716454616
 20
334.2910569768
  0
VERTEX
  8
0
 62
7
  6
CONTINUOUS
 10
370.4457488473
 20
332.860291142
  0
VERTEX
  8
0
 62
7
  6
CONTINUOUS
 10
370.4162088167
 20
331.2355775302
  0
VERTEX
  8
0
 62
7
  6
CONTINUOUS
 10
370.3850944863
 20
329.530391979
  0
VERTEX
  8
0
 62
7
  6
CONTINUOUS
 10
370.352172771
 20
327.73042668
  0
VERTEX
  8
0
 62
7
  6
CONTINUOUS
 10
370.3173262247
 20
325.8270484103
  0
VERTEX
  8
0
 62
7
  6
CONTINUOUS
 10
370.2821884739
 20
323.9063585529
  0
VERTEX
  8
0
 62
7
  6
CONTINUOUS
 10
370.24981368
 20
322.1323100521
  0
VERTEX
  8
0
 62
7
  6
CONTINUOUS
 10
370.2208228379
 20
320.5366849481
  0
VERTEX
  8
0
 62
7
  6
CONTINUOUS
 10
370.1892908239
 20
318.788831825
  0
VERTEX
  8
0
 62
7
  6
CONTINUOUS
 10
370.1582011306
 20
317.0502762821
  0
VERTEX
  8
0
 62
7
  6
CONTINUOUS
 10
370.1290144344
 20
315.4134370448
  0
VERTEX
  8
0
 62
7
  6
CONTINUOUS
 10
370.0965936441
 20
313.6018201019
  0
VERTEX
  8
0
 62
7
  6
CONTINUOUS
 10
370.0602620254
 20
311.580497018
  0
VERTEX
  8
0
 62
7
  6
CONTINUOUS
 10
370.0196112455
 20
309.3260435138
  0
VERTEX
  8
0
 62
7
  6
CONTINUOUS
 10
369.9740488858
 20
306.8026798063
  0
VERTEX
  8
0
 62
7
  6
CONTINUOUS
 10
369.922879003
 20
303.9653717162
  0
VERTEX
  8
0
 62
7
  6
CONTINUOUS
 10
369.8662625958
 20
300.8102844868
  0
VERTEX
  8
0
 62
7
  6
CONTINUOUS
 10
369.8136391709
 20
297.8492637132
  0
VERTEX
  8
0
 62
7
  6
CONTINUOUS
 10
369.7681377446
 20
295.2521162898
  0
VERTEX
  8
0
 62
7
  6
CONTINUOUS
 10
369.7286882368
 20
292.9600196414
  0
VERTEX
  8
0
 62
7
  6
CONTINUOUS
 10
369.6942373789
 20
290.9218730245
  0
VERTEX
  8
0
 62
7
  6
CONTINUOUS
 10
369.6606165927
 20
288.9029795748
  0
VERTEX
  8
0
 62
7
  6
CONTINUOUS
 10
369.624142711
 20
286.6847480214
  0
VERTEX
  8
0
 62
7
  6
CONTINUOUS
 10
369.5834313953
 20
284.1792962303
  0
VERTEX
  8
0
 62
7
  6
CONTINUOUS
 10
369.5380558726
 20
281.344264375
  0
VERTEX
  8
0
 62
7
  6
CONTINUOUS
 10
369.488671646
 20
278.1946247394
  0
VERTEX
  8
0
 62
7
  6
CONTINUOUS
 10
369.443870741
 20
275.2628239315
  0
VERTEX
  8
0
 62
7
  6
CONTINUOUS
 10
369.4035771262
 20
272.5486055146
  0
VERTEX
  8
0
 62
7
  6
CONTINUOUS
 10
369.3602028087
 20
269.5226967323
  0
VERTEX
  8
0
 62
7
  6
CONTINUOUS
 10
369.3209411816
 20
266.6712583281
  0
VERTEX
  8
0
 62
7
  6
CONTINUOUS
 10
369.283851639
 20
263.8653998156
  0
VERTEX
  8
0
 62
7
  6
CONTINUOUS
 10
369.2439425953
 20
260.7060846033
  0
VERTEX
  8
0
 62
7
  6
CONTINUOUS
 10
369.2045918852
 20
257.4218816094
  0
VERTEX
  8
0
 62
7
  6
CONTINUOUS
 10
369.1717867712
 20
254.5273645918
  0
VERTEX
  8
0
 62
7
  6
CONTINUOUS
 10
369.1443578669
 20
251.9733737371
  0
VERTEX
  8
0
 62
7
  6
CONTINUOUS
 10
369.1212772939
 20
249.7096136772
  0
VERTEX
  8
0
 62
7
  6
CONTINUOUS
 10
369.1020076624
 20
247.7224746146
  0
VERTEX
  8
0
 62
7
  6
CONTINUOUS
 10
369.0848855642
 20
245.8650967485
  0
VERTEX
  8
0
 62
7
  6
CONTINUOUS
 10
369.0672047743
 20
243.8327334704
  0
VERTEX
  8
0
 62
7
  6
CONTINUOUS
 10
369.0491508587
 20
241.6018268684
  0
VERTEX
  8
0
 62
7
  6
CONTINUOUS
 10
369.0340797687
 20
239.5802110256
  0
VERTEX
  8
0
 62
7
  6
CONTINUOUS
 10
369.0219478194
 20
237.814348616
  0
VERTEX
  8
0
 62
7
  6
CONTINUOUS
 10
369.0113258689
 20
236.1391342506
  0
VERTEX
  8
0
 62
7
  6
CONTINUOUS
 10
369.001158294
 20
234.3921572462
  0
VERTEX
  8
0
 62
7
  6
CONTINUOUS
 10
368.99225244
 20
232.7123110658
  0
VERTEX
  8
0
 62
7
  6
CONTINUOUS
 10
368.9847275508
 20
231.1483794392
  0
VERTEX
  8
0
 62
7
  6
CONTINUOUS
 10
368.9783896281
 20
229.6981230475
  0
VERTEX
  8
0
 62
7
  6
CONTINUOUS
 10
368.9733071518
 20
228.4276467229
  0
VERTEX
  8
0
 62
7
  6
CONTINUOUS
 10
368.9691845448
 20
227.312462628
  0
VERTEX
  8
0
 62
7
  6
CONTINUOUS
 10
368.9657013505
 20
226.2814534892
  0
VERTEX
  8
0
 62
7
  6
CONTINUOUS
 10
368.9626296145
 20
225.252811641
  0
VERTEX
  8
0
 62
7
  6
CONTINUOUS
 10
368.9597942981
 20
224.1148900624
  0
VERTEX
  8
0
 62
7
  6
CONTINUOUS
 10
368.9575018119
 20
222.9484970311
  0
VERTEX
  8
0
 62
7
  6
CONTINUOUS
 10
368.9559641711
 20
221.9177311936
  0
VERTEX
  8
0
 62
7
  6
CONTINUOUS
 10
368.9549687794
 20
221.0132963976
  0
VERTEX
  8
0
 62
7
  6
CONTINUOUS
 10
368.9543311436
 20
220.1896207863
  0
VERTEX
  8
0
 62
7
  6
CONTINUOUS
 10
368.9539131396
 20
219.3115297423
  0
VERTEX
  8
0
 62
7
  6
CONTINUOUS
 10
368.9537386541
 20
218.3569929293
  0
VERTEX
  8
0
 62
7
  6
CONTINUOUS
 10
368.9538571375
 20
217.2641702731
  0
VERTEX
  8
0
 62
7
  6
CONTINUOUS
 10
368.9543424295
 20
216.0259355889
  0
VERTEX
  8
0
 62
7
  6
CONTINUOUS
 10
368.955242589
 20
214.646318148
  0
VERTEX
  8
0
 62
7
  6
CONTINUOUS
 10
368.9565228293
 20
213.1688570263
  0
VERTEX
  8
0
 62
7
  6
CONTINUOUS
 10
368.9578501704
 20
211.8222982675
  0
VERTEX
  8
0
 62
7
  6
CONTINUOUS
 10
368.9600645959
 20
209.5855101487
  0
SEQEND
  0
POLYLINE
  8
0
 62
7
  6
CONTINUOUS
 66
1
 70
0
  0
VERTEX
  8
0
 62
7
  6
CONTINUOUS
 10
232.2170830899
 20
-219.4496427026
  0
VERTEX
  8
0
 62
7
  6
CONTINUOUS
 10
237.1102111986
 20
-218.2096527669
  0
VERTEX
  8
0
 62
7
  6
CONTINUOUS
 10
242.0686501927
 20
-216.8236410621
  0
VERTEX
  8
0
 62
7
  6
CONTINUOUS
 10
246.7913737492
 20
-215.3741216694
  0
VERTEX
  8
0
 62
7
  6
CONTINUOUS
 10
251.3253020143
 20
-213.8559832326
  0
VERTEX
  8
0
 62
7
  6
CONTINUOUS
 10
255.7155027648
 20
-212.2604378511
  0
VERTEX
  8
0
 62
7
  6
CONTINUOUS
 10
259.9816272487
 20
-210.584567981
  0
VERTEX
  8
0
 62
7
  6
CONTINUOUS
 10
264.1553814933
 20
-208.8184007986
  0
VERTEX
  8
0
 62
7
  6
CONTINUOUS
 10
268.2286323918
 20
-206.9672623557
  0
VERTEX
  8
0
 62
7
  6
CONTINUOUS
 10
272.1990588709
 20
-205.0350180873
  0
VERTEX
  8
0
 62
7
  6
CONTINUOUS
 10
276.0794009085
 20
-203.0181783461
  0
VERTEX
  8
0
 62
7
  6
CONTINUOUS
 10
279.8765484918
 20
-200.9153011249
  0
VERTEX
  8
0
 62
7
  6
CONTINUOUS
 10
283.5988307392
 20
-198.7234418304
  0
VERTEX
  8
0
 62
7
  6
CONTINUOUS
 10
287.2559127914
 20
-196.4379008346
  0
VERTEX
  8
0
 62
7
  6
CONTINUOUS
 10
290.8595829641
 20
-194.051667797
  0
VERTEX
  8
0
 62
7
  6
CONTINUOUS
 10
294.4061755762
 20
-191.5673011658
  0
VERTEX
  8
0
 62
7
  6
CONTINUOUS
 10
297.8955289955
 20
-188.9849983922
  0
VERTEX
  8
0
 62
7
  6
CONTINUOUS
 10
301.3244830612
 20
-186.3070493589
  0
VERTEX
  8
0
 62
7
  6
CONTINUOUS
 10
304.6907096596
 20
-183.5351514857
  0
VERTEX
  8
0
 62
7
  6
CONTINUOUS
 10
307.9903351829
 20
-180.6723124317
  0
VERTEX
  8
0
 62
7
  6
CONTINUOUS
 10
311.2199170171
 20
-177.7212881247
  0
VERTEX
  8
0
 62
7
  6
CONTINUOUS
 10
314.3761052419
 20
-174.684796753
  0
VERTEX
  8
0
 62
7
  6
CONTINUOUS
 10
317.451813189
 20
-171.5694419601
  0
VERTEX
  8
0
 62
7
  6
CONTINUOUS
 10
320.441710632
 20
-168.3807091291
  0
VERTEX
  8
0
 62
7
  6
CONTINUOUS
 10
323.3383634343
 20
-165.127027674
  0
VERTEX
  8
0
 62
7
  6
CONTINUOUS
 10
326.1358675543
 20
-161.8161059354
  0
VERTEX
  8
0
 62
7
  6
CONTINUOUS
 10
328.8295503097
 20
-158.4550439576
  0
VERTEX
  8
0
 62
7
  6
CONTINUOUS
 10
331.4148199482
 20
-155.0516858444
  0
VERTEX
  8
0
 62
7
  6
CONTINUOUS
 10
333.8923756706
 20
-151.6073937391
  0
VERTEX
  8
0
 62
7
  6
CONTINUOUS
 10
336.2622998894
 20
-148.1240882312
  0
VERTEX
  8
0
 62
7
  6
CONTINUOUS
 10
338.5262167272
 20
-144.6010997741
  0
VERTEX
  8
0
 62
7
  6
CONTINUOUS
 10
340.6859149542
 20
-141.0368199641
  0
VERTEX
  8
0
 62
7
  6
CONTINUOUS
 10
342.7433308624
 20
-137.4285806388
  0
VERTEX
  8
0
 62
7
  6
CONTINUOUS
 10
344.7025357871
 20
-133.768612577
  0
VERTEX
  8
0
 62
7
  6
CONTINUOUS
 10
346.5621810928
 20
-130.0581668427
  0
VERTEX
  8
0
 62
7
  6
CONTINUOUS
 10
348.3260985353
 20
-126.2883394844
  0
VERTEX
  8
0
 62
7
  6
CONTINUOUS
 10
349.9942947552
 20
-122.4573624866
  0
VERTEX
  8
0
 62
7
  6
CONTINUOUS
 10
351.5669184073
 20
-118.5631572429
  0
VERTEX
  8
0
 62
7
  6
CONTINUOUS
 10
353.0445941417
 20
-114.6023232788
  0
VERTEX
  8
0
 62
7
  6
CONTINUOUS
 10
354.426813352
 20
-110.5744630918
  0
VERTEX
  8
0
 62
7
  6
CONTINUOUS
 10
355.6707792649
 20
-106.6206761199
  0
SEQEND
  0
POLYLINE
  8
0
 62
7
  6
CONTINUOUS
 66
1
 70
0
  0
VERTEX
  8
0
 62
7
  6
CONTINUOUS
 10
139.8574869435
 20
-219.4521829276
  0
VERTEX
  8
0
 62
7
  6
CONTINUOUS
 10
143.1781054179
 20
-220.2261897128
  0
VERTEX
  8
0
 62
7
  6
CONTINUOUS
 10
146.5552281519
 20
-220.9510964706
  0
VERTEX
  8
0
 62
7
  6
CONTINUOUS
 10
149.8413585337
 20
-221.5970922217
  0
VERTEX
  8
0
 62
7
  6
CONTINUOUS
 10
152.9811669599
 20
-222.1657134564
  0
VERTEX
  8
0
 62
7
  6
CONTINUOUS
 10
155.9119244001
 20
-222.6548396996
  0
VERTEX
  8
0
 62
7
  6
CONTINUOUS
 10
158.6567850218
 20
-223.0732491813
  0
VERTEX
  8
0
 62
7
  6
CONTINUOUS
 10
161.1607089354
 20
-223.4172623401
  0
VERTEX
  8
0
 62
7
  6
CONTINUOUS
 10
163.6033215874
 20
-223.7130486727
  0
VERTEX
  8
0
 62
7
  6
CONTINUOUS
 10
166.132414486
 20
-223.9754333238
  0
VERTEX
  8
0
 62
7
  6
CONTINUOUS
 10
168.7904195907
 20
-224.2063391888
  0
VERTEX
  8
0
 62
7
  6
CONTINUOUS
 10
171.6762071354
 20
-224.4113174621
  0
VERTEX
  8
0
 62
7
  6
CONTINUOUS
 10
174.7645267083
 20
-224.5888950057
  0
VERTEX
  8
0
 62
7
  6
CONTINUOUS
 10
178.0526985256
 20
-224.7380771405
  0
VERTEX
  8
0
 62
7
  6
CONTINUOUS
 10
181.5816279094
 20
-224.8482503519
  0
VERTEX
  8
0
 62
7
  6
CONTINUOUS
 10
185.3593231482
 20
-224.9019903949
  0
VERTEX
  8
0
 62
7
  6
CONTINUOUS
 10
189.4885733727
 20
-224.8773173789
  0
VERTEX
  8
0
 62
7
  6
CONTINUOUS
 10
194.2545474679
 20
-224.7417239333
  0
VERTEX
  8
0
 62
7
  6
CONTINUOUS
 10
199.0979887702
 20
-224.492635492
  0
VERTEX
  8
0
 62
7
  6
CONTINUOUS
 10
203.5191889695
 20
-224.1685262887
  0
VERTEX
  8
0
 62
7
  6
CONTINUOUS
 10
207.639509189
 20
-223.7780445322
  0
VERTEX
  8
0
 62
7
  6
CONTINUOUS
 10
211.3740910215
 20
-223.3457150481
  0
VERTEX
  8
0
 62
7
  6
CONTINUOUS
 10
214.8334843395
 20
-222.8733732465
  0
VERTEX
  8
0
 62
7
  6
CONTINUOUS
 10
218.0719738823
 20
-222.3637893123
  0
VERTEX
  8
0
 62
7
  6
CONTINUOUS
 10
221.160504821
 20
-221.8175876064
  0
VERTEX
  8
0
 62
7
  6
CONTINUOUS
 10
224.2405645296
 20
-221.2175041242
  0
VERTEX
  8
0
 62
7
  6
CONTINUOUS
 10
227.1811584418
 20
-220.60081022
  0
VERTEX
  8
0
 62
7
  6
CONTINUOUS
 10
229.8869748713
 20
-219.9986573426
  0
VERTEX
  8
0
 62
7
  6
CONTINUOUS
 10
232.2171214059
 20
-219.4496641703
  0
SEQEND
  0
POLYLINE
  8
0
 62
7
  6
CONTINUOUS
 66
1
 70
0
  0
VERTEX
  8
0
 62
7
  6
CONTINUOUS
 10
16.3946295554
 20
-106.6206761418
  0
VERTEX
  8
0
 62
7
  6
CONTINUOUS
 10
17.6386620966
 20
-110.5746665189
  0
VERTEX
  8
0
 62
7
  6
CONTINUOUS
 10
19.0208899451
 20
-114.6025336361
  0
VERTEX
  8
0
 62
7
  6
CONTINUOUS
 10
20.4985676423
 20
-118.5633562506
  0
VERTEX
  8
0
 62
7
  6
CONTINUOUS
 10
22.0711870533
 20
-122.4575367345
  0
VERTEX
  8
0
 62
7
  6
CONTINUOUS
 10
23.7393789865
 20
-126.2884917374
  0
VERTEX
  8
0
 62
7
  6
CONTINUOUS
 10
25.5032918558
 20
-130.0582993594
  0
VERTEX
  8
0
 62
7
  6
CONTINUOUS
 10
27.3629398183
 20
-133.7687416022
  0
VERTEX
  8
0
 62
7
  6
CONTINUOUS
 10
29.3221503792
 20
-137.4287117424
  0
VERTEX
  8
0
 62
7
  6
CONTINUOUS
 10
31.3795762888
 20
-141.036960282
  0
VERTEX
  8
0
 62
7
  6
CONTINUOUS
 10
33.5392808938
 20
-144.6012422311
  0
VERTEX
  8
0
 62
7
  6
CONTINUOUS
 10
35.8032005994
 20
-148.1242268799
  0
VERTEX
  8
0
 62
7
  6
CONTINUOUS
 10
38.1731308169
 20
-151.607533519
  0
VERTEX
  8
0
 62
7
  6
CONTINUOUS
 10
40.6506926022
 20
-155.0518261169
  0
VERTEX
  8
0
 62
7
  6
CONTINUOUS
 10
43.2359651624
 20
-158.4551807694
  0
VERTEX
  8
0
 62
7
  6
CONTINUOUS
 10
45.9296515697
 20
-161.8162400196
  0
VERTEX
  8
0
 62
7
  6
CONTINUOUS
 10
48.7271663999
 20
-165.1271672561
  0
VERTEX
  8
0
 62
7
  6
CONTINUOUS
 10
51.6238261012
 20
-168.3808491969
  0
VERTEX
  8
0
 62
7
  6
CONTINUOUS
 10
54.6137176682
 20
-171.5695688327
  0
VERTEX
  8
0
 62
7
  6
CONTINUOUS
 10
57.6894089909
 20
-174.6849008702
  0
VERTEX
  8
0
 62
7
  6
CONTINUOUS
 10
60.8455660923
 20
-177.7213578278
  0
VERTEX
  8
0
 62
7
  6
CONTINUOUS
 10
64.0750980098
 20
-180.672334184
  0
VERTEX
  8
0
 62
7
  6
CONTINUOUS
 10
67.3746556784
 20
-183.5351147564
  0
VERTEX
  8
0
 62
7
  6
CONTINUOUS
 10
70.7408005502
 20
-186.3069489795
  0
VERTEX
  8
0
 62
7
  6
CONTINUOUS
 10
74.1696578322
 20
-188.9848296459
  0
VERTEX
  8
0
 62
7
  6
CONTINUOUS
 10
77.6589052185
 20
-191.5670649737
  0
VERTEX
  8
0
 62
7
  6
CONTINUOUS
 10
81.205380843
 20
-194.0513647403
  0
VERTEX
  8
0
 62
7
  6
CONTINUOUS
 10
84.8089296041
 20
-196.437536324
  0
VERTEX
  8
0
 62
7
  6
CONTINUOUS
 10
88.4658794516
 20
-198.7230179568
  0
VERTEX
  8
0
 62
7
  6
CONTINUOUS
 10
92.1880243192
 20
-200.914823594
  0
VERTEX
  8
0
 62
7
  6
CONTINUOUS
 10
95.9850325099
 20
-203.0176549281
  0
VERTEX
  8
0
 62
7
  6
CONTINUOUS
 10
99.8652367474
 20
-205.0344579714
  0
VERTEX
  8
0
 62
7
  6
CONTINUOUS
 10
103.8355453125
 20
-206.9666831626
  0
VERTEX
  8
0
 62
7
  6
CONTINUOUS
 10
107.908702128
 20
-208.8178195271
  0
VERTEX
  8
0
 62
7
  6
CONTINUOUS
 10
112.0824004301
 20
-210.5840043579
  0
VERTEX
  8
0
 62
7
  6
CONTINUOUS
 10
116.3484552809
 20
-212.2598895453
  0
VERTEX
  8
0
 62
7
  6
CONTINUOUS
 10
120.7386890523
 20
-213.8554885366
  0
VERTEX
  8
0
 62
7
  6
CONTINUOUS
 10
125.2726656092
 20
-215.3736821996
  0
VERTEX
  8
0
 62
7
  6
CONTINUOUS
 10
129.9954898826
 20
-216.8232689265
  0
VERTEX
  8
0
 62
7
  6
CONTINUOUS
 10
134.9542918794
 20
-218.2094117823
  0
VERTEX
  8
0
 62
7
  6
CONTINUOUS
 10
139.8550104969
 20
-219.4512537061
  0
SEQEND
  0
LINE
  8
0
 62
7
  6
CONTINUOUS
 10
194.6937700539
 20
467.6528077128
 11
187.2981243624
 21
460.2571620214
  0
LINE
  8
0
 62
7
  6
CONTINUOUS
 10
187.651677753
 20
459.9036086308
 11
194.9380083557
 21
467.1899392334
  0
POLYLINE
  8
0
 62
7
  6
CONTINUOUS
 66
1
 70
0
  0
VERTEX
  8
0
 62
7
  6
CONTINUOUS
 10
12.5053111144
 20
-90.8021361179
  0
VERTEX
  8
0
 62
7
  6
CONTINUOUS
 10
12.61467114
 20
-91.3265297369
  0
VERTEX
  8
0
 62
7
  6
CONTINUOUS
 10
12.779785411
 20
-92.1051725752
  0
VERTEX
  8
0
 62
7
  6
CONTINUOUS
 10
12.9612646359
 20
-92.942628388
  0
VERTEX
  8
0
 62
7
  6
CONTINUOUS
 10
13.1738817225
 20
-93.899562995
  0
VERTEX
  8
0
 62
7
  6
CONTINUOUS
 10
13.4454520336
 20
-95.0895310625
  0
VERTEX
  8
0
 62
7
  6
CONTINUOUS
 10
13.7368081325
 20
-96.3322771581
  0
VERTEX
  8
0
 62
7
  6
CONTINUOUS
 10
14.0167416126
 20
-97.4954251683
  0
VERTEX
  8
0
 62
7
  6
CONTINUOUS
 10
14.2764790503
 20
-98.551568768
  0
VERTEX
  8
0
 62
7
  6
CONTINUOUS
 10
14.4896566376
 20
-99.4050361765
  0
VERTEX
  8
0
 62
7
  6
CONTINUOUS
 10
14.6726475123
 20
-100.1295662643
  0
VERTEX
  8
0
 62
7
  6
CONTINUOUS
 10
14.8338828444
 20
-100.762505797
  0
VERTEX
  8
0
 62
7
  6
CONTINUOUS
 10
14.9759616965
 20
-101.3163029328
  0
VERTEX
  8
0
 62
7
  6
CONTINUOUS
 10
15.1046330076
 20
-101.8146420051
  0
VERTEX
  8
0
 62
7
  6
CONTINUOUS
 10
15.2205251517
 20
-102.2607562537
  0
VERTEX
  8
0
 62
7
  6
CONTINUOUS
 10
15.3256818629
 20
-102.6630439474
  0
VERTEX
  8
0
 62
7
  6
CONTINUOUS
 10
15.422082064
 20
-103.0295470154
  0
VERTEX
  8
0
 62
7
  6
CONTINUOUS
 10
15.5124170969
 20
-103.3708253899
  0
VERTEX
  8
0
 62
7
  6
CONTINUOUS
 10
15.5968079329
 20
-103.6876552658
  0
VERTEX
  8
0
 62
7
  6
CONTINUOUS
 10
15.6762960983
 20
-103.9843256791
  0
VERTEX
  8
0
 62
7
  6
CONTINUOUS
 10
15.7507815213
 20
-104.2608732988
  0
VERTEX
  8
0
 62
7
  6
CONTINUOUS
 10
15.8202326941
 20
-104.5176707237
  0
VERTEX
  8
0
 62
7
  6
CONTINUOUS
 10
15.8854059866
 20
-104.7580267089
  0
VERTEX
  8
0
 62
7
  6
CONTINUOUS
 10
15.9470539416
 20
-104.9851816406
  0
VERTEX
  8
0
 62
7
  6
CONTINUOUS
 10
16.0052248478
 20
-105.1996979141
  0
VERTEX
  8
0
 62
7
  6
CONTINUOUS
 10
16.0602287126
 20
-105.4030958208
  0
VERTEX
  8
0
 62
7
  6
CONTINUOUS
 10
16.1121385007
 20
-105.5957286024
  0
VERTEX
  8
0
 62
7
  6
CONTINUOUS
 10
16.1610167313
 20
-105.7776722216
  0
VERTEX
  8
0
 62
7
  6
CONTINUOUS
 10
16.2075684323
 20
-105.9511938394
  0
VERTEX
  8
0
 62
7
  6
CONTINUOUS
 10
16.2525503691
 20
-106.1181690882
  0
VERTEX
  8
0
 62
7
  6
CONTINUOUS
 10
16.2966500155
 20
-106.2796424477
  0
VERTEX
  8
0
 62
7
  6
CONTINUOUS
 10
16.3408110843
 20
-106.4370288719
  0
VERTEX
  8
0
 62
7
  6
CONTINUOUS
 10
16.3857151342
 20
-106.5908830921
  0
VERTEX
  8
0
 62
7
  6
CONTINUOUS
 10
16.3946779313
 20
-106.6208104436
  0
SEQEND
  0
POLYLINE
  8
0
 62
7
  6
CONTINUOUS
 66
1
 70
0
  0
VERTEX
  8
0
 62
7
  6
CONTINUOUS
 10
10.7631403811
 20
-81.7176566483
  0
VERTEX
  8
0
 62
7
  6
CONTINUOUS
 10
11.3906808333
 20
-85.1863282323
  0
VERTEX
  8
0
 62
7
  6
CONTINUOUS
 10
12.5053407118
 20
-90.8022313069
  0
SEQEND
  0
POLYLINE
  8
0
 62
7
  6
CONTINUOUS
 66
1
 70
0
  0
VERTEX
  8
0
 62
7
  6
CONTINUOUS
 10
-2.9033007415
 20
375.2688144111
  0
VERTEX
  8
0
 62
7
  6
CONTINUOUS
 10
-2.8940350266
 20
374.8386068201
  0
VERTEX
  8
0
 62
7
  6
CONTINUOUS
 10
-2.8483789074
 20
374.2226605828
  0
SEQEND
  0
LINE
  8
0
 62
7
  6
CONTINUOUS
 10
-2.903303482
 20
518.0149442268
 11
-2.903303482
 21
375.2688144119
  0
LINE
  8
0
 62
7
  6
CONTINUOUS
 10
6.3067888908
 20
196.1230390411
 11
5.9196096221
 21
-40.3696900207
  0
LINE
  8
0
 62
7
  6
CONTINUOUS
 10
6.313151205
 20
196.9658504446
 11
6.3067910694
 21
196.1230390367
  0
POLYLINE
  8
0
 62
7
  6
CONTINUOUS
 66
1
 70
0
  0
VERTEX
  8
0
 62
7
  6
CONTINUOUS
 10
6.5365283414
 20
201.614529552
  0
VERTEX
  8
0
 62
7
  6
CONTINUOUS
 10
6.4237645272
 20
200.0522582099
  0
VERTEX
  8
0
 62
7
  6
CONTINUOUS
 10
6.3503698162
 20
198.4944001017
  0
VERTEX
  8
0
 62
7
  6
CONTINUOUS
 10
6.313151205
 20
196.9658504446
  0
SEQEND
  0
LINE
  8
0
 62
7
  6
CONTINUOUS
 10
6.6922798471
 20
203.1606916971
 11
6.5365283414
 21
201.614529552
  0
LINE
  8
0
 62
7
  6
CONTINUOUS
 10
6.8199959748
 20
204.1572364134
 11
6.6922798471
 21
203.1606916971
  0
LINE
  8
0
 62
7
  6
CONTINUOUS
 10
6.8199874185
 20
204.1571734002
 11
6.8197209415
 21
204.1552844446
  0
POLYLINE
  8
0
 62
7
  6
CONTINUOUS
 66
1
 70
0
  0
VERTEX
  8
0
 62
7
  6
CONTINUOUS
 10
-2.8483789074
 20
374.2226605828
  0
VERTEX
  8
0
 62
7
  6
CONTINUOUS
 10
-2.7647501732
 20
373.6107531981
  0
VERTEX
  8
0
 62
7
  6
CONTINUOUS
 10
-2.6434811739
 20
373.0052014421
  0
VERTEX
  8
0
 62
7
  6
CONTINUOUS
 10
-2.4850286022
 20
372.4083084574
  0
VERTEX
  8
0
 62
7
  6
CONTINUOUS
 10
-2.2899952861
 20
371.8223454545
  0
VERTEX
  8
0
 62
7
  6
CONTINUOUS
 10
-2.0591320673
 20
371.2495352961
  0
VERTEX
  8
0
 62
7
  6
CONTINUOUS
 10
-1.7933188376
 20
370.6920554422
  0
VERTEX
  8
0
 62
7
  6
CONTINUOUS
 10
-1.4935473758
 20
370.1520300213
  0
VERTEX
  8
0
 62
7
  6
CONTINUOUS
 10
-1.1609707593
 20
369.631514016
  0
VERTEX
  8
0
 62
7
  6
CONTINUOUS
 10
-0.796846733
 20
369.1324916379
  0
VERTEX
  8
0
 62
7
  6
CONTINUOUS
 10
-0.4025613721
 20
368.656872998
  0
VERTEX
  8
0
 62
7
  6
CONTINUOUS
 10
0.0203841098
 20
368.2064734891
  0
VERTEX
  8
0
 62
7
  6
CONTINUOUS
 10
0.4703699372
 20
367.7830035891
  0
VERTEX
  8
0
 62
7
  6
CONTINUOUS
 10
0.9456986881
 20
367.3880937903
  0
VERTEX
  8
0
 62
7
  6
CONTINUOUS
 10
1.4445612156
 20
367.0232525084
  0
VERTEX
  8
0
 62
7
  6
CONTINUOUS
 10
1.9650505014
 20
366.6898566469
  0
VERTEX
  8
0
 62
7
  6
CONTINUOUS
 10
2.5052000898
 20
366.3892047479
  0
VERTEX
  8
0
 62
7
  6
CONTINUOUS
 10
3.0629459552
 20
366.1224247377
  0
VERTEX
  8
0
 62
7
  6
CONTINUOUS
 10
3.6361724282
 20
365.8905586768
  0
VERTEX
  8
0
 62
7
  6
CONTINUOUS
 10
4.2226974934
 20
365.6944961945
  0
VERTEX
  8
0
 62
7
  6
CONTINUOUS
 10
4.8202877519
 20
365.5349859251
  0
VERTEX
  8
0
 62
7
  6
CONTINUOUS
 10
5.4266726314
 20
365.4126543075
  0
VERTEX
  8
0
 62
7
  6
CONTINUOUS
 10
6.039544543
 20
365.3279736593
  0
VERTEX
  8
0
 62
7
  6
CONTINUOUS
 10
6.6565725429
 20
365.2812824374
  0
VERTEX
  8
0
 62
7
  6
CONTINUOUS
 10
7.1036585985
 20
365.2713014796
  0
SEQEND
  0
LINE
  8
0
 62
7
  6
CONTINUOUS
 10
64.5327043823
 20
215.1071434054
 11
64.5327043823
 21
214.1873239815
  0
LINE
  8
0
 62
7
  6
CONTINUOUS
 10
186.2729980965
 20
438.2477977303
 11
186.2729980965
 21
457.7822571989
  0
LINE
  8
0
 62
7
  6
CONTINUOUS
 10
186.7729980965
 20
457.7822882872
 11
186.7729980965
 21
438.2476001663
  0
LINE
  8
0
 62
7
  6
CONTINUOUS
 10
63.5327722854
 20
214.1782086333
 11
63.6677273586
 21
214.1873238517
  0
POLYLINE
  8
0
 62
7
  6
CONTINUOUS
 66
1
 70
0
  0
VERTEX
  8
0
 62
7
  6
CONTINUOUS
 10
21.7422019785
 20
216.1083044655
  0
VERTEX
  8
0
 62
7
  6
CONTINUOUS
 10
19.9324217861
 20
216.0156855226
  0
VERTEX
  8
0
 62
7
  6
CONTINUOUS
 10
17.9994716438
 20
215.7026213788
  0
VERTEX
  8
0
 62
7
  6
CONTINUOUS
 10
16.1521520851
 20
215.1749792558
  0
VERTEX
  8
0
 62
7
  6
CONTINUOUS
 10
14.4176644196
 20
214.4439236274
  0
VERTEX
  8
0
 62
7
  6
CONTINUOUS
 10
12.812168742
 20
213.5192598899
  0
VERTEX
  8
0
 62
7
  6
CONTINUOUS
 10
11.3622792363
 20
212.4196926226
  0
VERTEX
  8
0
 62
7
  6
CONTINUOUS
 10
10.0862923575
 20
211.1647745526
  0
VERTEX
  8
0
 62
7
  6
CONTINUOUS
 10
9.0017993926
 20
209.7798010551
  0
VERTEX
  8
0
 62
7
  6
CONTINUOUS
 10
8.1204205139
 20
208.2911977403
  0
VERTEX
  8
0
 62
7
  6
CONTINUOUS
 10
7.4503087952
 20
206.7297645267
  0
VERTEX
  8
0
 62
7
  6
CONTINUOUS
 10
6.9936547646
 20
205.1281234003
  0
VERTEX
  8
0
 62
7
  6
CONTINUOUS
 10
6.8197209415
 20
204.1552844446
  0
SEQEND
  0
LINE
  8
0
 62
7
  6
CONTINUOUS
 10
63.6674174359
 20
214.1873239815
 11
308.3979913287
 21
214.1873239815
  0
LINE
  8
0
 62
7
  6
CONTINUOUS
 10
21.7418639771
 20
216.108304513
 11
21.7423142593
 21
216.1083044949
  0
LINE
  8
0
 62
7
  6
CONTINUOUS
 10
350.3236538148
 20
216.1083045131
 11
308.5327043823
 21
216.1083045131
  0
LINE
  8
0
 62
7
  6
CONTINUOUS
 10
21.7417553343
 20
216.1083045131
 11
63.5327043823
 21
216.1083045131
  0
LINE
  8
0
 62
7
  6
CONTINUOUS
 10
308.5326364793
 20
214.1782086333
 11
308.3976814061
 21
214.1873238517
  0
LINE
  8
0
 62
7
  6
CONTINUOUS
 10
307.5327043823
 20
214.1873239815
 11
307.5327043823
 21
215.1071407203
  0
POLYLINE
  8
0
 62
7
  6
CONTINUOUS
 66
1
 70
0
  0
VERTEX
  8
0
 62
7
  6
CONTINUOUS
 10
374.8300797519
 20
373.6102830503
  0
VERTEX
  8
0
 62
7
  6
CONTINUOUS
 10
374.9137269793
 20
374.222084305
  0
VERTEX
  8
0
 62
7
  6
CONTINUOUS
 10
374.9594126203
 20
374.8378846671
  0
VERTEX
  8
0
 62
7
  6
CONTINUOUS
 10
374.9687094592
 20
375.2688144
  0
SEQEND
  0
LINE
  8
0
 62
7
  6
CONTINUOUS
 10
365.5290038245
 20
201.6131104886
 11
365.3733049855
 21
203.1591767288
  0
POLYLINE
  8
0
 62
7
  6
CONTINUOUS
 66
1
 70
0
  0
VERTEX
  8
0
 62
7
  6
CONTINUOUS
 10
365.7522498464
 20
196.9665449372
  0
VERTEX
  8
0
 62
7
  6
CONTINUOUS
 10
365.71505008
 20
198.4940662494
  0
VERTEX
  8
0
 62
7
  6
CONTINUOUS
 10
365.6417115015
 20
200.0511300438
  0
VERTEX
  8
0
 62
7
  6
CONTINUOUS
 10
365.5290038245
 20
201.6131104886
  0
SEQEND
  0
POLYLINE
  8
0
 62
7
  6
CONTINUOUS
 66
1
 70
0
  0
VERTEX
  8
0
 62
7
  6
CONTINUOUS
 10
374.9687120881
 20
518.0149442272
  0
VERTEX
  8
0
 62
7
  6
CONTINUOUS
 10
374.9587337141
 20
518.4613561194
  0
VERTEX
  8
0
 62
7
  6
CONTINUOUS
 10
374.912081994
 20
519.0771410199
  0
VERTEX
  8
0
 62
7
  6
CONTINUOUS
 10
374.8274888982
 20
519.6888142665
  0
VERTEX
  8
0
 62
7
  6
CONTINUOUS
 10
374.7052743235
 20
520.2940717721
  0
VERTEX
  8
0
 62
7
  6
CONTINUOUS
 10
374.5459067516
 20
520.8906231913
  0
VERTEX
  8
0
 62
7
  6
CONTINUOUS
 10
374.3499951255
 20
521.4762109648
  0
VERTEX
  8
0
 62
7
  6
CONTINUOUS
 10
374.1182731748
 20
522.0486159738
  0
VERTEX
  8
0
 62
7
  6
CONTINUOUS
 10
373.8516240445
 20
522.6056730435
  0
VERTEX
  8
0
 62
7
  6
CONTINUOUS
 10
373.5510369272
 20
523.1452712858
  0
VERTEX
  8
0
 62
7
  6
CONTINUOUS
 10
373.2176530617
 20
523.6653462555
  0
VERTEX
  8
0
 62
7
  6
CONTINUOUS
 10
372.8527415883
 20
524.1639236037
  0
VERTEX
  8
0
 62
7
  6
CONTINUOUS
 10
372.4576740917
 20
524.6390760879
  0
VERTEX
  8
0
 62
7
  6
CONTINUOUS
 10
372.0339704802
 20
525.0889963783
  0
VERTEX
  8
0
 62
7
  6
CONTINUOUS
 10
371.5832300531
 20
525.511946762
  0
VERTEX
  8
0
 62
7
  6
CONTINUOUS
 10
371.1071685982
 20
525.9063033912
  0
VERTEX
  8
0
 62
7
  6
CONTINUOUS
 10
370.6076123034
 20
526.2705732897
  0
VERTEX
  8
0
 62
7
  6
CONTINUOUS
 10
370.0864509631
 20
526.603343925
  0
VERTEX
  8
0
 62
7
  6
CONTINUOUS
 10
369.5456730589
 20
526.9033398745
  0
VERTEX
  8
0
 62
7
  6
CONTINUOUS
 10
368.9873403327
 20
527.1694122103
  0
VERTEX
  8
0
 62
7
  6
CONTINUOUS
 10
368.4135828677
 20
527.4005376068
  0
VERTEX
  8
0
 62
7
  6
CONTINUOUS
 10
367.8265853664
 20
527.59581427
  0
VERTEX
  8
0
 62
7
  6
CONTINUOUS
 10
367.2285924601
 20
527.7545093216
  0
VERTEX
  8
0
 62
7
  6
CONTINUOUS
 10
366.6218824387
 20
527.8759979847
  0
VERTEX
  8
0
 62
7
  6
CONTINUOUS
 10
366.0087683962
 20
527.9598046834
  0
VERTEX
  8
0
 62
7
  6
CONTINUOUS
 10
365.3915941129
 20
528.00560217
  0
VERTEX
  8
0
 62
7
  6
CONTINUOUS
 10
364.9620772324
 20
528.0149440551
  0
SEQEND
  0
LINE
  8
0
 62
7
  6
CONTINUOUS
 10
365.7586194906
 20
196.1230390397
 11
365.7522498464
 21
196.9665449372
  0
LINE
  8
0
 62
7
  6
CONTINUOUS
 10
365.7586198739
 20
196.1230390411
 11
366.1457991426
 21
-40.3696900207
  0
LINE
  8
0
 62
7
  6
CONTINUOUS
 10
374.9687122467
 20
518.0149442268
 11
374.9687122467
 21
375.2688144119
  0
POLYLINE
  8
0
 62
7
  6
CONTINUOUS
 66
1
 70
0
  0
VERTEX
  8
0
 62
7
  6
CONTINUOUS
 10
365.2456582691
 20
204.1554906421
  0
VERTEX
  8
0
 62
7
  6
CONTINUOUS
 10
365.0707925856
 20
205.1325386677
  0
VERTEX
  8
0
 62
7
  6
CONTINUOUS
 10
364.6011132788
 20
206.7690014064
  0
VERTEX
  8
0
 62
7
  6
CONTINUOUS
 10
363.9062719979
 20
208.3668873661
  0
VERTEX
  8
0
 62
7
  6
CONTINUOUS
 10
362.9913029596
 20
209.8845896147
  0
VERTEX
  8
0
 62
7
  6
CONTINUOUS
 10
361.8721651332
 20
211.2831446548
  0
VERTEX
  8
0
 62
7
  6
CONTINUOUS
 10
360.5514626347
 20
212.5489473827
  0
VERTEX
  8
0
 62
7
  6
CONTINUOUS
 10
359.0365405668
 20
213.6601951616
  0
VERTEX
  8
0
 62
7
  6
CONTINUOUS
 10
357.3358621485
 20
214.5941700118
  0
VERTEX
  8
0
 62
7
  6
CONTINUOUS
 10
355.4586721258
 20
215.3272050455
  0
VERTEX
  8
0
 62
7
  6
CONTINUOUS
 10
353.4224028493
 20
215.8325748711
  0
VERTEX
  8
0
 62
7
  6
CONTINUOUS
 10
351.2456590051
 20
216.0844490403
  0
VERTEX
  8
0
 62
7
  6
CONTINUOUS
 10
350.3180337981
 20
216.1083012731
  0
SEQEND
  0
LINE
  8
0
 62
7
  6
CONTINUOUS
 10
365.2456582691
 20
204.1554906421
 11
365.2454477632
 21
204.1569820508
  0
LINE
  8
0
 62
7
  6
CONTINUOUS
 10
365.3733049855
 20
203.1591767288
 11
365.2454058063
 21
204.157284113
  0
POLYLINE
  8
0
 62
7
  6
CONTINUOUS
 66
1
 70
0
  0
VERTEX
  8
0
 62
7
  6
CONTINUOUS
 10
359.5602455459
 20
-90.802267969
  0
VERTEX
  8
0
 62
7
  6
CONTINUOUS
 10
360.966166546
 20
-83.6311102755
  0
VERTEX
  8
0
 62
7
  6
CONTINUOUS
 10
361.2881851376
 20
-81.7757982163
  0
SEQEND
  0
LINE
  8
0
 62
7
  6
CONTINUOUS
 10
359.5600977411
 20
-90.8021356802
 11
359.4507376355
 21
-91.3265296854
  0
POLYLINE
  8
0
 62
7
  6
CONTINUOUS
 66
1
 70
0
  0
VERTEX
  8
0
 62
7
  6
CONTINUOUS
 10
364.9617501664
 20
365.2713014815
  0
VERTEX
  8
0
 62
7
  6
CONTINUOUS
 10
365.4096267037
 20
365.2813177702
  0
VERTEX
  8
0
 62
7
  6
CONTINUOUS
 10
366.0266067347
 20
365.3280529931
  0
VERTEX
  8
0
 62
7
  6
CONTINUOUS
 10
366.6394198996
 20
365.412770397
  0
VERTEX
  8
0
 62
7
  6
CONTINUOUS
 10
367.2457376979
 20
365.5351303083
  0
VERTEX
  8
0
 62
7
  6
CONTINUOUS
 10
367.8432545939
 20
365.694659341
  0
VERTEX
  8
0
 62
7
  6
CONTINUOUS
 10
368.4297021658
 20
365.8907305777
  0
VERTEX
  8
0
 62
7
  6
CONTINUOUS
 10
369.0028493312
 20
366.122595166
  0
VERTEX
  8
0
 62
7
  6
CONTINUOUS
 10
369.5605164713
 20
366.3893637498
  0
VERTEX
  8
0
 62
7
  6
CONTINUOUS
 10
370.1005897864
 20
366.6899950666
  0
VERTEX
  8
0
 62
7
  6
CONTINUOUS
 10
370.6210074183
 20
367.0233620158
  0
VERTEX
  8
0
 62
7
  6
CONTINUOUS
 10
371.1198040475
 20
367.3881670792
  0
VERTEX
  8
0
 62
7
  6
CONTINUOUS
 10
371.59507427
 20
367.7830349238
  0
VERTEX
  8
0
 62
7
  6
CONTINUOUS
 10
372.045009848
 20
368.2064587158
  0
VERTEX
  8
0
 62
7
  6
CONTINUOUS
 10
372.4679142308
 20
368.6568096647
  0
VERTEX
  8
0
 62
7
  6
CONTINUOUS
 10
372.8621683527
 20
369.1323796653
  0
VERTEX
  8
0
 62
7
  6
CONTINUOUS
 10
373.2262713019
 20
369.631355665
  0
VERTEX
  8
0
 62
7
  6
CONTINUOUS
 10
373.558837669
 20
370.1518313805
  0
VERTEX
  8
0
 62
7
  6
CONTINUOUS
 10
373.858606633
 20
370.6918206762
  0
VERTEX
  8
0
 62
7
  6
CONTINUOUS
 10
374.1244241249
 20
371.2492699176
  0
VERTEX
  8
0
 62
7
  6
CONTINUOUS
 10
374.3552944365
 20
371.8220474619
  0
VERTEX
  8
0
 62
7
  6
CONTINUOUS
 10
374.5503362702
 20
372.4079701998
  0
VERTEX
  8
0
 62
7
  6
CONTINUOUS
 10
374.7087984446
 20
373.0048081709
  0
VERTEX
  8
0
 62
7
  6
CONTINUOUS
 10
374.8300797519
 20
373.6102830503
  0
SEQEND
  0
LINE
  8
0
 62
7
  6
CONTINUOUS
 10
364.9617501662
 20
365.2713015782
 11
7.1036585984
 21
365.2713015782
  0
LINE
  8
0
 62
7
  6
CONTINUOUS
 10
187.2985402608
 20
435.7723105338
 11
194.6937700539
 21
428.3770807407
  0
LINE
  8
0
 62
7
  6
CONTINUOUS
 10
194.9380083557
 20
428.8399492201
 11
187.651677753
 21
436.1262798228
  0
POLYLINE
  8
0
 62
7
  6
CONTINUOUS
 66
1
 70
0
  0
VERTEX
  8
0
 62
7
  6
CONTINUOUS
 10
355.6796936298
 20
-106.5908830943
  0
VERTEX
  8
0
 62
7
  6
CONTINUOUS
 10
355.7245976809
 20
-106.4370288702
  0
VERTEX
  8
0
 62
7
  6
CONTINUOUS
 10
355.7687587512
 20
-106.2796424401
  0
VERTEX
  8
0
 62
7
  6
CONTINUOUS
 10
355.8128583993
 20
-106.1181690742
  0
VERTEX
  8
0
 62
7
  6
CONTINUOUS
 10
355.8578403381
 20
-105.9511938184
  0
VERTEX
  8
0
 62
7
  6
CONTINUOUS
 10
355.9043920409
 20
-105.7776721933
  0
VERTEX
  8
0
 62
7
  6
CONTINUOUS
 10
355.9532702735
 20
-105.5957285669
  0
VERTEX
  8
0
 62
7
  6
CONTINUOUS
 10
356.0051800634
 20
-105.4030957788
  0
VERTEX
  8
0
 62
7
  6
CONTINUOUS
 10
356.06018393
 20
-105.1996978659
  0
VERTEX
  8
0
 62
7
  6
CONTINUOUS
 10
356.1183548378
 20
-104.9851815865
  0
VERTEX
  8
0
 62
7
  6
CONTINUOUS
 10
356.1800027947
 20
-104.7580266478
  0
VERTEX
  8
0
 62
7
  6
CONTINUOUS
 10
356.2451760896
 20
-104.5176706535
  0
VERTEX
  8
0
 62
7
  6
CONTINUOUS
 10
356.3146272654
 20
-104.2608732172
  0
VERTEX
  8
0
 62
7
  6
CONTINUOUS
 10
356.3891126921
 20
-103.9843255834
  0
VERTEX
  8
0
 62
7
  6
CONTINUOUS
 10
356.4686008614
 20
-103.6876551547
  0
VERTEX
  8
0
 62
7
  6
CONTINUOUS
 10
356.5529917009
 20
-103.3708252652
  0
VERTEX
  8
0
 62
7
  6
CONTINUOUS
 10
356.6433267378
 20
-103.0295468747
  0
VERTEX
  8
0
 62
7
  6
CONTINUOUS
 10
356.7397269451
 20
-102.6630437825
  0
VERTEX
  8
0
 62
7
  6
CONTINUOUS
 10
356.8448836625
 20
-102.2607560639
  0
VERTEX
  8
0
 62
7
  6
CONTINUOUS
 10
356.9607758103
 20
-101.8146417999
  0
VERTEX
  8
0
 62
7
  6
CONTINUOUS
 10
357.0894471264
 20
-101.3163027068
  0
VERTEX
  8
0
 62
7
  6
CONTINUOUS
 10
357.2315259884
 20
-100.7625055309
  0
VERTEX
  8
0
 62
7
  6
CONTINUOUS
 10
357.3927613333
 20
-100.1295659457
  0
VERTEX
  8
0
 62
7
  6
CONTINUOUS
 10
357.5757522236
 20
-99.4050357923
  0
VERTEX
  8
0
 62
7
  6
CONTINUOUS
 10
357.7889298272
 20
-98.5515683136
  0
VERTEX
  8
0
 62
7
  6
CONTINUOUS
 10
358.0486672854
 20
-97.4954246208
  0
VERTEX
  8
0
 62
7
  6
CONTINUOUS
 10
358.3286007711
 20
-96.3322765739
  0
VERTEX
  8
0
 62
7
  6
CONTINUOUS
 10
358.6199568335
 20
-95.0895306197
  0
VERTEX
  8
0
 62
7
  6
CONTINUOUS
 10
358.891527102
 20
-93.8995627294
  0
VERTEX
  8
0
 62
7
  6
CONTINUOUS
 10
359.1041441672
 20
-92.9426282128
  0
VERTEX
  8
0
 62
7
  6
CONTINUOUS
 10
359.2856233775
 20
-92.1051724639
  0
VERTEX
  8
0
 62
7
  6
CONTINUOUS
 10
359.4507376355
 20
-91.3265296854
  0
SEQEND
  0
LINE
  8
0
 62
7
  6
CONTINUOUS
 10
355.6707308352
 20
-106.6208104377
 11
355.6796936298
 21
-106.5908830943
  0
POLYLINE
  8
0
 62
7
  6
CONTINUOUS
 66
1
 70
0
  0
VERTEX
  8
0
 62
7
  6
CONTINUOUS
 10
7.1036266646
 20
528.0149441436
  0
VERTEX
  8
0
 62
7
  6
CONTINUOUS
 10
6.6750215556
 20
528.0056542201
  0
VERTEX
  8
0
 62
7
  6
CONTINUOUS
 10
6.0577466937
 20
527.959921152
  0
VERTEX
  8
0
 62
7
  6
CONTINUOUS
 10
5.4445291463
 20
527.8761666911
  0
VERTEX
  8
0
 62
7
  6
CONTINUOUS
 10
4.8377137552
 20
527.7547179622
  0
VERTEX
  8
0
 62
7
  6
CONTINUOUS
 10
4.2396145656
 20
527.5960504402
  0
VERTEX
  8
0
 62
7
  6
CONTINUOUS
 10
3.652510863
 20
527.400789226
  0
VERTEX
  8
0
 62
7
  6
CONTINUOUS
 10
3.0786486602
 20
527.1696670062
  0
VERTEX
  8
0
 62
7
  6
CONTINUOUS
 10
2.5202137424
 20
526.903586031
  0
VERTEX
  8
0
 62
7
  6
CONTINUOUS
 10
1.9793374215
 20
526.6035701026
  0
VERTEX
  8
0
 62
7
  6
CONTINUOUS
 10
1.4580823813
 20
526.2707685343
  0
VERTEX
  8
0
 62
7
  6
CONTINUOUS
 10
0.9584381779
 20
525.9064572969
  0
VERTEX
  8
0
 62
7
  6
CONTINUOUS
 10
0.482294919
 20
525.5120492514
  0
VERTEX
  8
0
 62
7
  6
CONTINUOUS
 10
0.031479907
 20
525.0890379255
  0
VERTEX
  8
0
 62
7
  6
CONTINUOUS
 10
-0.3922901846
 20
524.6390479958
  0
VERTEX
  8
0
 62
7
  6
CONTINUOUS
 10
-0.7874155162
 20
524.1638176337
  0
VERTEX
  8
0
 62
7
  6
CONTINUOUS
 10
-1.152375109
 20
523.6651555311
  0
VERTEX
  8
0
 62
7
  6
CONTINUOUS
 10
-1.4857966611
 20
523.1449896575
  0
VERTEX
  8
0
 62
7
  6
CONTINUOUS
 10
-1.7864105481
 20
522.6052954897
  0
VERTEX
  8
0
 62
7
  6
CONTINUOUS
 10
-2.0530751204
 20
522.0481384735
  0
VERTEX
  8
0
 62
7
  6
CONTINUOUS
 10
-2.2848007323
 20
521.4756303987
  0
VERTEX
  8
0
 62
7
  6
CONTINUOUS
 10
-2.4807039891
 20
520.8899377098
  0
VERTEX
  8
0
 62
7
  6
CONTINUOUS
 10
-2.6400508889
 20
520.2932806276
  0
VERTEX
  8
0
 62
7
  6
CONTINUOUS
 10
-2.7622324077
 20
519.6879179849
  0
VERTEX
  8
0
 62
7
  6
CONTINUOUS
 10
-2.8467801247
 20
519.076141311
  0
VERTEX
  8
0
 62
7
  6
CONTINUOUS
 10
-2.8933740987
 20
518.4602558632
  0
VERTEX
  8
0
 62
7
  6
CONTINUOUS
 10
-2.903303326
 20
518.0149442268
  0
SEQEND
  0
LINE
  8
0
 62
7
  6
CONTINUOUS
 10
4.7143311404
 20
528.0149442268
 11
367.3510776071
 21
528.0149442268
  0
ARC
  8
0
 62
7
  6
CONTINUOUS
 10
186.0327043823
 20
-40.6645661321
 40
180.1133361416
 50
179.9061970392
 51
0.0938029608
  0
ARC
  8
0
 62
7
  6
CONTINUOUS
 10
186.0327043823
 20
448.0149442268
 40
21.462985367
 50
66.2006451423
 51
293.7993548577
  0
ARC
  8
0
 62
7
  6
CONTINUOUS
 10
186.0327043823
 20
448.0149442268
 40
21.1420168659
 50
293.4615672859
 51
66.5384327141
  0
ARC
  8
0
 62
7
  6
CONTINUOUS
 10
186.0327043823
 20
448.0149442268
 40
18.624232976
 50
69.6299755874
 51
290.3700244126
  0
ARC
  8
0
 62
7
  6
CONTINUOUS
 10
186.0327043823
 20
448.0149442268
 40
18.5087010099
 50
291.8996949002
 51
68.1004275185
  0
ARC
  8
0
 62
7
  6
CONTINUOUS
 10
4.7143099575
 20
523.0149442268
 40
5.0
 50
90.0
 51
152.4724230917
  0
ARC
  8
0
 62
7
  6
CONTINUOUS
 10
367.3510988072
 20
523.0149442268
 40
5.0
 50
27.527638478
 51
90.0
  0
ARC
  8
0
 62
7
  6
CONTINUOUS
 10
189.7729980965
 20
457.7822882872
 40
3.5
 50
135.0
 51
180.0
  0
ARC
  8
0
 62
7
  6
CONTINUOUS
 10
189.7729980965
 20
438.2476001663
 40
3.5
 50
179.9967658328
 51
225.0096284608
  0
ARC
  8
0
 62
7
  6
CONTINUOUS
 10
189.7729980965
 20
438.2476001663
 40
3.0
 50
180.0
 51
225.0
  0
ARC
  8
0
 62
7
  6
CONTINUOUS
 10
189.7729980965
 20
457.7822882872
 40
3.0
 50
135.0
 51
180.0
  0
ARC
  8
0
 62
7
  6
CONTINUOUS
 10
308.5327043823
 20
215.1083045131
 40
1.0
 50
90.0
 51
180.0
  0
ARC
  8
0
 62
7
  6
CONTINUOUS
 10
63.5327043823
 20
215.1083045131
 40
1.0
 50
0.0
 51
90.0
  0
ENDSEC
  0
EOF
