999
DXF file: K:\Client\125_Heirloom\001\00\Final_Data\Drawings\BASINS\stadium-362121_3.dxf
999
Pro/ENGINEER 2017110 by Parametric Technology Corporation
  0
SECTION
  2
HEADER
  9
$EXTMAX
 10
420.0
 20
297.0
 30
0.0
  9
$EXTMIN
 10
0.0
 20
0.0
 30
0.0
  9
$LIMMIN
 10
0.0
 20
0.0
  9
$LIMMAX
 10
420.0
 20
297.0
  9
$VIEWCTR
 10
210.0
 20
148.5
  9
$VIEWSIZE
 40
297.0
  9
$CLAYER
  8
0
  9
$LTSCALE
 40
23.1
  9
$CELTYPE
  6
BYLAYER
  9
$DIMSCALE
 40
1.0
  9
$DIMASZ
 40
3.0
  9
$DIMEXO
 40
1.0
  9
$DIMDLI
 40
15.96
  9
$DIMEXE
 40
1.0
  9
$DIMCEN
 40
3.78
  9
$DIMLFAC
 40
1.0
  9
$DIMBLK
  1
_FILLED
  9
$DIMALT
 70
0
  9
$DIMALTF
 40
0.0393700787
  9
$DIMTXT
 40
3.0
  9
$AUNITS
 70
0
  9
$PDMODE
 70
3
  9
$PDSIZE
 40
5.0
  9
$TILEMODE
 70
1
  0
ENDSEC
  0
SECTION
  2
TABLES
  0
TABLE
  2
LTYPE
 70
6
  0
LTYPE
  2
BYBLOCK
 70
0
  3

 72
65
 73
0
 40
0.0
  0
LTYPE
  2
BYLAYER
 70
0
  3

 72
65
 73
0
 40
0.0
  0
LTYPE
  2
CONTINUOUS
 70
64
  3
Solid line
 72
65
 73
0
 40
0.0
  0
LTYPE
  2
CENTER
 70
64
  3
____ _ ____ _ ____ _ ____ _ ____ _ ____ _ ____
 72
65
 73
4
 40
0.6
 49
0.375
 49
-0.075
 49
0.075
 49
-0.075
  0
LTYPE
  2
HIDDEN
 70
64
  3
- - - - - - - - - - - - - - - - - - - -
 72
65
 73
2
 40
0.2
 49
0.1
 49
-0.1
  0
LTYPE
  2
PHANTOM
 70
64
  3
_____ _ _ _____ _ _ _____ _ _ _____
 72
65
 73
6
 40
0.8
 49
0.45
 49
-0.05
 49
0.1
 49
-0.05
 49
0.1
 49
-0.05
  0
LTYPE
  2
DOT
 70
64
  3
. . . . . . . . . . . . . . . . . . . .
 72
65
 73
2
 40
0.2
 49
0.1
 49
-0.1
  0
LTYPE
  2
DASHED
 70
64
  3
- - - - - - - - - - - - - - - - - - - -
 72
65
 73
2
 40
0.2
 49
0.1
 49
-0.1
  0
ENDTAB
  0
TABLE
  2
LAYER
 70
36
  0
LAYER
  2
0
 70
0
 62
7
  6
CONTINUOUS
  0
LAYER
  2
DEFAULT_1
 70
0
 62
7
  6
CENTER
  0
LAYER
  2
DEFAULT_2
 70
0
 62
8
  6
HIDDEN
  0
LAYER
  2
DEFAULT_3
 70
0
 62
7
  6
PHANTOM
  0
LAYER
  2
0000_BOM
 70
0
 62
7
  6
CONTINUOUS
  0
LAYER
  2
0000_REV_TABLE
 70
0
 62
7
  6
CONTINUOUS
  0
LAYER
  2
0000_STEVENS_NOTE
 70
0
 62
7
  6
CONTINUOUS
  0
LAYER
  2
01_DATUM_PLANES
 70
0
 62
7
  6
CONTINUOUS
  0
LAYER
  2
01_DEF_PLANES
 70
0
 62
7
  6
CONTINUOUS
  0
LAYER
  2
02_DATUM_COS
 70
0
 62
7
  6
CONTINUOUS
  0
LAYER
  2
99_SOLID
 70
0
 62
7
  6
CONTINUOUS
  0
LAYER
  2
CAD-MASTER_ZINC-PL
 70
0
 62
7
  6
CONTINUOUS
  0
LAYER
  2
CURVE
 70
0
 62
7
  6
CONTINUOUS
  0
LAYER
  2
SKEL
 70
0
 62
7
  6
CONTINUOUS
  0
LAYER
  2
SKETCH
 70
0
 62
7
  6
CONTINUOUS
  0
LAYER
  2
SURFACE
 70
0
 62
7
  6
CONTINUOUS
  0
ENDTAB
  0
TABLE
  2
STYLE
 70
1
  0
STYLE
  2
STANDARD
 70
0
 40
0.0
 41
0.75
 50
0.0
 71
0
 42
0.2
  3
txt
  4

  0
STYLE
  2
TEXTSTYLE_1
 70
0
 40
0.0
 41
0.8
 50
0.0
 71
0
 42
0.2
  3
gdt
  4

  0
ENDTAB
  0
ENDSEC
  0
SECTION
  2
BLOCKS
  0
ENDSEC
  0
SECTION
  2
ENTITIES
  0
POLYLINE
  8
0
 62
7
  6
CONTINUOUS
 66
1
 70
0
  0
VERTEX
  8
0
 62
7
  6
CONTINUOUS
 10
-23.6251298927
 20
-17.8882740346
  0
VERTEX
  8
0
 62
7
  6
CONTINUOUS
 10
-23.6496119041
 20
-17.8564696494
  0
VERTEX
  8
0
 62
7
  6
CONTINUOUS
 10
-23.6740377522
 20
-17.8110262379
  0
VERTEX
  8
0
 62
7
  6
CONTINUOUS
 10
-23.6983514024
 20
-17.7520480509
  0
VERTEX
  8
0
 62
7
  6
CONTINUOUS
 10
-23.7224970787
 20
-17.6796703852
  0
VERTEX
  8
0
 62
7
  6
CONTINUOUS
 10
-23.7464193923
 20
-17.594059267
  0
VERTEX
  8
0
 62
7
  6
CONTINUOUS
 10
-23.7700634583
 20
-17.4954111131
  0
VERTEX
  8
0
 62
7
  6
CONTINUOUS
 10
-23.7933750269
 20
-17.3839522765
  0
VERTEX
  8
0
 62
7
  6
CONTINUOUS
 10
-23.8163006327
 20
-17.2599383985
  0
VERTEX
  8
0
 62
7
  6
CONTINUOUS
 10
-23.8387876965
 20
-17.1236538854
  0
VERTEX
  8
0
 62
7
  6
CONTINUOUS
 10
-23.8607846175
 20
-16.9754114503
  0
VERTEX
  8
0
 62
7
  6
CONTINUOUS
 10
-23.8822409225
 20
-16.8155512531
  0
VERTEX
  8
0
 62
7
  6
CONTINUOUS
 10
-23.9031073974
 20
-16.6444399754
  0
VERTEX
  8
0
 62
7
  6
CONTINUOUS
 10
-23.9233361778
 20
-16.4624701187
  0
VERTEX
  8
0
 62
7
  6
CONTINUOUS
 10
-23.9428808552
 20
-16.2700591509
  0
VERTEX
  8
0
 62
7
  6
CONTINUOUS
 10
-23.961696592
 20
-16.0676484832
  0
VERTEX
  8
0
 62
7
  6
CONTINUOUS
 10
-23.9797402241
 20
-15.8557024545
  0
VERTEX
  8
0
 62
7
  6
CONTINUOUS
 10
-23.9969703585
 20
-15.6347072827
  0
VERTEX
  8
0
 62
7
  6
CONTINUOUS
 10
-24.0133474684
 20
-15.4051699392
  0
VERTEX
  8
0
 62
7
  6
CONTINUOUS
 10
-24.0288339847
 20
-15.167616981
  0
VERTEX
  8
0
 62
7
  6
CONTINUOUS
 10
-24.0433943783
 20
-14.9225933996
  0
VERTEX
  8
0
 62
7
  6
CONTINUOUS
 10
-24.0569952442
 20
-14.6706613492
  0
VERTEX
  8
0
 62
7
  6
CONTINUOUS
 10
-24.0696053857
 20
-14.4123987014
  0
VERTEX
  8
0
 62
7
  6
CONTINUOUS
 10
-24.0811958782
 20
-14.148397829
  0
VERTEX
  8
0
 62
7
  6
CONTINUOUS
 10
-24.0917401275
 20
-13.8792644596
  0
VERTEX
  8
0
 62
7
  6
CONTINUOUS
 10
-24.1012139414
 20
-13.6056160901
  0
VERTEX
  8
0
 62
7
  6
CONTINUOUS
 10
-24.1095955891
 20
-13.3280804264
  0
SEQEND
  0
POLYLINE
  8
0
 62
7
  6
CONTINUOUS
 66
1
 70
0
  0
VERTEX
  8
0
 62
7
  6
CONTINUOUS
 10
-46.2581235515
 20
-8.1449400054
  0
VERTEX
  8
0
 62
7
  6
CONTINUOUS
 10
-46.2463992492
 20
-8.7789683164
  0
VERTEX
  8
0
 62
7
  6
CONTINUOUS
 10
-46.2127511567
 20
-9.4063200859
  0
VERTEX
  8
0
 62
7
  6
CONTINUOUS
 10
-46.1571679959
 20
-10.0260122342
  0
VERTEX
  8
0
 62
7
  6
CONTINUOUS
 10
-46.0796836012
 20
-10.6409940003
  0
VERTEX
  8
0
 62
7
  6
CONTINUOUS
 10
-45.9802341532
 20
-11.2548010194
  0
VERTEX
  8
0
 62
7
  6
CONTINUOUS
 10
-45.8591013351
 20
-11.8646910226
  0
VERTEX
  8
0
 62
7
  6
CONTINUOUS
 10
-45.7164514898
 20
-12.4693244484
  0
VERTEX
  8
0
 62
7
  6
CONTINUOUS
 10
-45.5525668185
 20
-13.0680288105
  0
VERTEX
  8
0
 62
7
  6
CONTINUOUS
 10
-45.3676999464
 20
-13.6598658616
  0
VERTEX
  8
0
 62
7
  6
CONTINUOUS
 10
-45.1621059452
 20
-14.244293323
  0
VERTEX
  8
0
 62
7
  6
CONTINUOUS
 10
-44.9360368374
 20
-14.820642139
  0
VERTEX
  8
0
 62
7
  6
CONTINUOUS
 10
-44.6897543957
 20
-15.3883543932
  0
VERTEX
  8
0
 62
7
  6
CONTINUOUS
 10
-44.4234784081
 20
-15.9468902427
  0
VERTEX
  8
0
 62
7
  6
CONTINUOUS
 10
-44.1375868513
 20
-16.4955264107
  0
VERTEX
  8
0
 62
7
  6
CONTINUOUS
 10
-43.8323793869
 20
-17.0335954835
  0
VERTEX
  8
0
 62
7
  6
CONTINUOUS
 10
-43.5083107481
 20
-17.560390029
  0
VERTEX
  8
0
 62
7
  6
CONTINUOUS
 10
-43.1657814618
 20
-18.0751800763
  0
VERTEX
  8
0
 62
7
  6
CONTINUOUS
 10
-42.8052538092
 20
-18.5773658277
  0
VERTEX
  8
0
 62
7
  6
CONTINUOUS
 10
-42.4271638491
 20
-19.0662865203
  0
VERTEX
  8
0
 62
7
  6
CONTINUOUS
 10
-42.031990776
 20
-19.5413950781
  0
VERTEX
  8
0
 62
7
  6
CONTINUOUS
 10
-41.6201870002
 20
-20.0020992316
  0
VERTEX
  8
0
 62
7
  6
CONTINUOUS
 10
-41.1922689331
 20
-20.4478737994
  0
VERTEX
  8
0
 62
7
  6
CONTINUOUS
 10
-40.7487191579
 20
-20.8781620865
  0
VERTEX
  8
0
 62
7
  6
CONTINUOUS
 10
-40.29009157
 20
-21.2924663641
  0
VERTEX
  8
0
 62
7
  6
CONTINUOUS
 10
-39.8168937272
 20
-21.6902652558
  0
VERTEX
  8
0
 62
7
  6
CONTINUOUS
 10
-39.3297472254
 20
-22.0710730096
  0
VERTEX
  8
0
 62
7
  6
CONTINUOUS
 10
-38.8292099988
 20
-22.4343832568
  0
VERTEX
  8
0
 62
7
  6
CONTINUOUS
 10
-38.3159805904
 20
-22.7797364706
  0
VERTEX
  8
0
 62
7
  6
CONTINUOUS
 10
-37.79072817
 20
-23.1066223497
  0
VERTEX
  8
0
 62
7
  6
CONTINUOUS
 10
-37.2540987907
 20
-23.4146868486
  0
VERTEX
  8
0
 62
7
  6
CONTINUOUS
 10
-36.7067790958
 20
-23.7034963767
  0
VERTEX
  8
0
 62
7
  6
CONTINUOUS
 10
-36.1493164845
 20
-23.9727792678
  0
VERTEX
  8
0
 62
7
  6
CONTINUOUS
 10
-35.5823058921
 20
-24.2222080188
  0
VERTEX
  8
0
 62
7
  6
CONTINUOUS
 10
-35.0062913526
 20
-24.45151655
  0
VERTEX
  8
0
 62
7
  6
CONTINUOUS
 10
-34.4215846297
 20
-24.6604725848
  0
VERTEX
  8
0
 62
7
  6
CONTINUOUS
 10
-33.8294774689
 20
-24.8486472119
  0
VERTEX
  8
0
 62
7
  6
CONTINUOUS
 10
-33.2323892209
 20
-25.0153817223
  0
VERTEX
  8
0
 62
7
  6
CONTINUOUS
 10
-32.6272488345
 20
-25.1611332326
  0
VERTEX
  8
0
 62
7
  6
CONTINUOUS
 10
-32.0111006458
 20
-25.2865052994
  0
VERTEX
  8
0
 62
7
  6
CONTINUOUS
 10
-31.3860178427
 20
-25.3903998928
  0
VERTEX
  8
0
 62
7
  6
CONTINUOUS
 10
-30.7520628779
 20
-25.4721071067
  0
VERTEX
  8
0
 62
7
  6
CONTINUOUS
 10
-30.1123122924
 20
-25.5310661252
  0
VERTEX
  8
0
 62
7
  6
CONTINUOUS
 10
-29.4702506145
 20
-25.5663798156
  0
VERTEX
  8
0
 62
7
  6
CONTINUOUS
 10
-28.8247163349
 20
-25.578347222
  0
SEQEND
  0
LINE
  8
0
 62
7
  6
CONTINUOUS
 10
-48.9672956164
 20
-13.2875192869
 11
-48.9672956164
 21
316.7124807131
  0
POLYLINE
  8
0
 62
7
  6
CONTINUOUS
 66
1
 70
0
  0
VERTEX
  8
0
 62
7
  6
CONTINUOUS
 10
-38.602645178
 20
-2.9799483771
  0
VERTEX
  8
0
 62
7
  6
CONTINUOUS
 10
-38.5917872894
 20
-3.5403392982
  0
VERTEX
  8
0
 62
7
  6
CONTINUOUS
 10
-38.5600118277
 20
-4.0995690524
  0
VERTEX
  8
0
 62
7
  6
CONTINUOUS
 10
-38.5073900343
 20
-4.6568645612
  0
VERTEX
  8
0
 62
7
  6
CONTINUOUS
 10
-38.4340122493
 20
-5.2114696739
  0
VERTEX
  8
0
 62
7
  6
CONTINUOUS
 10
-38.3399969463
 20
-5.7626311539
  0
VERTEX
  8
0
 62
7
  6
CONTINUOUS
 10
-38.2254918339
 20
-6.3095937022
  0
VERTEX
  8
0
 62
7
  6
CONTINUOUS
 10
-38.090671275
 20
-6.8516081178
  0
VERTEX
  8
0
 62
7
  6
CONTINUOUS
 10
-37.9357356513
 20
-7.3879411294
  0
VERTEX
  8
0
 62
7
  6
CONTINUOUS
 10
-37.7609120071
 20
-7.9178620857
  0
VERTEX
  8
0
 62
7
  6
CONTINUOUS
 10
-37.5664498332
 20
-8.4406624166
  0
VERTEX
  8
0
 62
7
  6
CONTINUOUS
 10
-37.3526232813
 20
-8.9556391847
  0
VERTEX
  8
0
 62
7
  6
CONTINUOUS
 10
-37.1197312503
 20
-9.462101582
  0
VERTEX
  8
0
 62
7
  6
CONTINUOUS
 10
-36.8680954582
 20
-9.9593694568
  0
VERTEX
  8
0
 62
7
  6
CONTINUOUS
 10
-36.5980628464
 20
-10.4467736257
  0
VERTEX
  8
0
 62
7
  6
CONTINUOUS
 10
-36.310002038
 20
-10.9236580613
  0
VERTEX
  8
0
 62
7
  6
CONTINUOUS
 10
-36.0043070301
 20
-11.3893781638
  0
VERTEX
  8
0
 62
7
  6
CONTINUOUS
 10
-35.6813935983
 20
-11.8433029741
  0
VERTEX
  8
0
 62
7
  6
CONTINUOUS
 10
-35.3416983265
 20
-12.2848201272
  0
VERTEX
  8
0
 62
7
  6
CONTINUOUS
 10
-34.9856783907
 20
-12.7133318246
  0
VERTEX
  8
0
 62
7
  6
CONTINUOUS
 10
-34.6138140266
 20
-13.1282556494
  0
VERTEX
  8
0
 62
7
  6
CONTINUOUS
 10
-34.2266048483
 20
-13.5290258484
  0
VERTEX
  8
0
 62
7
  6
CONTINUOUS
 10
-33.8245706397
 20
-13.9150956136
  0
VERTEX
  8
0
 62
7
  6
CONTINUOUS
 10
-33.4082489176
 20
-14.2859363227
  0
VERTEX
  8
0
 62
7
  6
CONTINUOUS
 10
-32.9781998648
 20
-14.6410362734
  0
VERTEX
  8
0
 62
7
  6
CONTINUOUS
 10
-32.5350002495
 20
-14.9799036946
  0
VERTEX
  8
0
 62
7
  6
CONTINUOUS
 10
-32.079245555
 20
-15.3020677066
  0
VERTEX
  8
0
 62
7
  6
CONTINUOUS
 10
-31.611546159
 20
-15.607078579
  0
VERTEX
  8
0
 62
7
  6
CONTINUOUS
 10
-31.1325340578
 20
-15.8945060313
  0
VERTEX
  8
0
 62
7
  6
CONTINUOUS
 10
-30.6428549108
 20
-16.1639425228
  0
VERTEX
  8
0
 62
7
  6
CONTINUOUS
 10
-30.1431707839
 20
-16.4150039443
  0
VERTEX
  8
0
 62
7
  6
CONTINUOUS
 10
-29.6341564568
 20
-16.6473295145
  0
VERTEX
  8
0
 62
7
  6
CONTINUOUS
 10
-29.1165030309
 20
-16.8605823636
  0
VERTEX
  8
0
 62
7
  6
CONTINUOUS
 10
-28.5909126015
 20
-17.0544501694
  0
VERTEX
  8
0
 62
7
  6
CONTINUOUS
 10
-28.0581011814
 20
-17.2286461001
  0
VERTEX
  8
0
 62
7
  6
CONTINUOUS
 10
-27.5187924205
 20
-17.3829092328
  0
VERTEX
  8
0
 62
7
  6
CONTINUOUS
 10
-26.9737295673
 20
-17.5170031295
  0
VERTEX
  8
0
 62
7
  6
CONTINUOUS
 10
-26.4236603357
 20
-17.6307190621
  0
VERTEX
  8
0
 62
7
  6
CONTINUOUS
 10
-25.8693490435
 20
-17.7238753304
  0
VERTEX
  8
0
 62
7
  6
CONTINUOUS
 10
-25.3115664433
 20
-17.796318454
  0
VERTEX
  8
0
 62
7
  6
CONTINUOUS
 10
-24.7510835151
 20
-17.8479249051
  0
VERTEX
  8
0
 62
7
  6
CONTINUOUS
 10
-24.1886795417
 20
-17.8786019788
  0
VERTEX
  8
0
 62
7
  6
CONTINUOUS
 10
-23.6251298927
 20
-17.8882740346
  0
SEQEND
  0
POLYLINE
  8
0
 62
7
  6
CONTINUOUS
 66
1
 70
0
  0
VERTEX
  8
0
 62
7
  6
CONTINUOUS
 10
-33.1826592018
 20
-3.2380039884
  0
VERTEX
  8
0
 62
7
  6
CONTINUOUS
 10
-33.1764336408
 20
-3.5775041339
  0
VERTEX
  8
0
 62
7
  6
CONTINUOUS
 10
-33.1576193261
 20
-3.9150890466
  0
VERTEX
  8
0
 62
7
  6
CONTINUOUS
 10
-33.1261916495
 20
-4.250807871
  0
VERTEX
  8
0
 62
7
  6
CONTINUOUS
 10
-33.082226247
 20
-4.5845122343
  0
VERTEX
  8
0
 62
7
  6
CONTINUOUS
 10
-33.0257505838
 20
-4.9162792664
  0
VERTEX
  8
0
 62
7
  6
CONTINUOUS
 10
-32.9568847496
 20
-5.2454815191
  0
VERTEX
  8
0
 62
7
  6
CONTINUOUS
 10
-32.8757101262
 20
-5.5716618202
  0
VERTEX
  8
0
 62
7
  6
CONTINUOUS
 10
-32.7823712401
 20
-5.8943860606
  0
VERTEX
  8
0
 62
7
  6
CONTINUOUS
 10
-32.6769823839
 20
-6.2132068839
  0
VERTEX
  8
0
 62
7
  6
CONTINUOUS
 10
-32.5597165147
 20
-6.527706476
  0
VERTEX
  8
0
 62
7
  6
CONTINUOUS
 10
-32.4307176306
 20
-6.8374530232
  0
VERTEX
  8
0
 62
7
  6
CONTINUOUS
 10
-32.2901876869
 20
-7.1420408215
  0
VERTEX
  8
0
 62
7
  6
CONTINUOUS
 10
-32.1383000704
 20
-7.4410505277
  0
VERTEX
  8
0
 62
7
  6
CONTINUOUS
 10
-31.9752851746
 20
-7.7340909385
  0
VERTEX
  8
0
 62
7
  6
CONTINUOUS
 10
-31.8013453
 20
-8.0207559434
  0
VERTEX
  8
0
 62
7
  6
CONTINUOUS
 10
-31.6167386919
 20
-8.3006706584
  0
VERTEX
  8
0
 62
7
  6
CONTINUOUS
 10
-31.4216968312
 20
-8.5734428156
  0
VERTEX
  8
0
 62
7
  6
CONTINUOUS
 10
-31.2165027699
 20
-8.8387182409
  0
VERTEX
  8
0
 62
7
  6
CONTINUOUS
 10
-31.0014139738
 20
-9.0961235476
  0
VERTEX
  8
0
 62
7
  6
CONTINUOUS
 10
-30.7767390075
 20
-9.3453239449
  0
VERTEX
  8
0
 62
7
  6
CONTINUOUS
 10
-30.5427618233
 20
-9.5859641752
  0
VERTEX
  8
0
 62
7
  6
CONTINUOUS
 10
-30.2998139121
 20
-9.8177321449
  0
VERTEX
  8
0
 62
7
  6
CONTINUOUS
 10
-30.0482031046
 20
-10.0402938559
  0
VERTEX
  8
0
 62
7
  6
CONTINUOUS
 10
-29.7882843832
 20
-10.253359713
  0
VERTEX
  8
0
 62
7
  6
CONTINUOUS
 10
-29.5203902354
 20
-10.4566167202
  0
VERTEX
  8
0
 62
7
  6
CONTINUOUS
 10
-29.2448958918
 20
-10.6498010878
  0
VERTEX
  8
0
 62
7
  6
CONTINUOUS
 10
-28.9621552694
 20
-10.8326240507
  0
VERTEX
  8
0
 62
7
  6
CONTINUOUS
 10
-28.6725645816
 20
-11.0048476025
  0
VERTEX
  8
0
 62
7
  6
CONTINUOUS
 10
-28.3765001982
 20
-11.1662072083
  0
VERTEX
  8
0
 62
7
  6
CONTINUOUS
 10
-28.074375235
 20
-11.3164938056
  0
VERTEX
  8
0
 62
7
  6
CONTINUOUS
 10
-27.766585019
 20
-11.4554700569
  0
VERTEX
  8
0
 62
7
  6
CONTINUOUS
 10
-27.4535588465
 20
-11.5829564214
  0
VERTEX
  8
0
 62
7
  6
CONTINUOUS
 10
-27.1357099838
 20
-11.6987438033
  0
VERTEX
  8
0
 62
7
  6
CONTINUOUS
 10
-26.813481317
 20
-11.8026837474
  0
VERTEX
  8
0
 62
7
  6
CONTINUOUS
 10
-26.487300661
 20
-11.8945971334
  0
VERTEX
  8
0
 62
7
  6
CONTINUOUS
 10
-26.1576258933
 20
-11.9743671203
  0
VERTEX
  8
0
 62
7
  6
CONTINUOUS
 10
-25.8249009515
 20
-12.0418448473
  0
VERTEX
  8
0
 62
7
  6
CONTINUOUS
 10
-25.4895948167
 20
-12.096947548
  0
VERTEX
  8
0
 62
7
  6
CONTINUOUS
 10
-25.1522121384
 20
-12.1395572339
  0
VERTEX
  8
0
 62
7
  6
CONTINUOUS
 10
-24.813089167
 20
-12.1696310355
  0
VERTEX
  8
0
 62
7
  6
CONTINUOUS
 10
-24.47279321
 20
-12.1870766481
  0
VERTEX
  8
0
 62
7
  6
CONTINUOUS
 10
-24.1311350276
 20
-12.1919247325
  0
SEQEND
  0
POLYLINE
  8
0
 62
7
  6
CONTINUOUS
 66
1
 70
0
  0
VERTEX
  8
0
 62
7
  6
CONTINUOUS
 10
-43.7676368062
 20
-8.1449400054
  0
VERTEX
  8
0
 62
7
  6
CONTINUOUS
 10
-43.758505729
 20
-8.6887369713
  0
VERTEX
  8
0
 62
7
  6
CONTINUOUS
 10
-43.7300558103
 20
-9.2274325462
  0
VERTEX
  8
0
 62
7
  6
CONTINUOUS
 10
-43.6829052136
 20
-9.7591976693
  0
VERTEX
  8
0
 62
7
  6
CONTINUOUS
 10
-43.6171842946
 20
-10.2869108811
  0
VERTEX
  8
0
 62
7
  6
CONTINUOUS
 10
-43.532522839
 20
-10.8135896341
  0
VERTEX
  8
0
 62
7
  6
CONTINUOUS
 10
-43.429194123
 20
-11.3368743777
  0
VERTEX
  8
0
 62
7
  6
CONTINUOUS
 10
-43.3074329606
 20
-11.855633245
  0
VERTEX
  8
0
 62
7
  6
CONTINUOUS
 10
-43.1674160876
 20
-12.3692726057
  0
VERTEX
  8
0
 62
7
  6
CONTINUOUS
 10
-43.0094013874
 20
-12.8770021787
  0
VERTEX
  8
0
 62
7
  6
CONTINUOUS
 10
-42.8335816345
 20
-13.3783456255
  0
VERTEX
  8
0
 62
7
  6
CONTINUOUS
 10
-42.6401877476
 20
-13.8727375225
  0
VERTEX
  8
0
 62
7
  6
CONTINUOUS
 10
-42.429432295
 20
-14.3596928173
  0
VERTEX
  8
0
 62
7
  6
CONTINUOUS
 10
-42.2015176826
 20
-14.8387561884
  0
VERTEX
  8
0
 62
7
  6
CONTINUOUS
 10
-41.956743557
 20
-15.3092951323
  0
VERTEX
  8
0
 62
7
  6
CONTINUOUS
 10
-41.6953969704
 20
-15.770753401
  0
VERTEX
  8
0
 62
7
  6
CONTINUOUS
 10
-41.4178331588
 20
-16.2225044954
  0
VERTEX
  8
0
 62
7
  6
CONTINUOUS
 10
-41.1244293164
 20
-16.6639438023
  0
VERTEX
  8
0
 62
7
  6
CONTINUOUS
 10
-40.8155510097
 20
-17.0945361214
  0
VERTEX
  8
0
 62
7
  6
CONTINUOUS
 10
-40.491598962
 20
-17.5137350872
  0
VERTEX
  8
0
 62
7
  6
CONTINUOUS
 10
-40.1529595755
 20
-17.9210523587
  0
VERTEX
  8
0
 62
7
  6
CONTINUOUS
 10
-39.8000428833
 20
-18.3159991783
  0
VERTEX
  8
0
 62
7
  6
CONTINUOUS
 10
-39.4332698917
 20
-18.6981060156
  0
VERTEX
  8
0
 62
7
  6
CONTINUOUS
 10
-39.0530752577
 20
-19.0669155318
  0
VERTEX
  8
0
 62
7
  6
CONTINUOUS
 10
-38.6599129913
 20
-19.421980482
  0
VERTEX
  8
0
 62
7
  6
CONTINUOUS
 10
-38.254239329
 20
-19.7628763937
  0
VERTEX
  8
0
 62
7
  6
CONTINUOUS
 10
-37.8365649681
 20
-20.0891618789
  0
VERTEX
  8
0
 62
7
  6
CONTINUOUS
 10
-37.4073914506
 20
-20.4004314725
  0
VERTEX
  8
0
 62
7
  6
CONTINUOUS
 10
-36.9672935483
 20
-20.6962591127
  0
VERTEX
  8
0
 62
7
  6
CONTINUOUS
 10
-36.5168678176
 20
-20.9762403811
  0
VERTEX
  8
0
 62
7
  6
CONTINUOUS
 10
-36.056649352
 20
-21.2400424974
  0
VERTEX
  8
0
 62
7
  6
CONTINUOUS
 10
-35.5872417342
 20
-21.4873181838
  0
VERTEX
  8
0
 62
7
  6
CONTINUOUS
 10
-35.1091043157
 20
-21.7178186543
  0
VERTEX
  8
0
 62
7
  6
CONTINUOUS
 10
-34.6227548375
 20
-21.9312739865
  0
VERTEX
  8
0
 62
7
  6
CONTINUOUS
 10
-34.128653064
 20
-22.127449472
  0
VERTEX
  8
0
 62
7
  6
CONTINUOUS
 10
-33.6270793936
 20
-22.3061724805
  0
VERTEX
  8
0
 62
7
  6
CONTINUOUS
 10
-33.1191157462
 20
-22.467007478
  0
VERTEX
  8
0
 62
7
  6
CONTINUOUS
 10
-32.6068418466
 20
-22.6093574163
  0
VERTEX
  8
0
 62
7
  6
CONTINUOUS
 10
-32.0876758253
 20
-22.7338944074
  0
VERTEX
  8
0
 62
7
  6
CONTINUOUS
 10
-31.5590342416
 20
-22.8408384463
  0
VERTEX
  8
0
 62
7
  6
CONTINUOUS
 10
-31.0226736812
 20
-22.9293188143
  0
VERTEX
  8
0
 62
7
  6
CONTINUOUS
 10
-30.4787056312
 20
-22.998837967
  0
VERTEX
  8
0
 62
7
  6
CONTINUOUS
 10
-29.9297058058
 20
-23.0486696284
  0
VERTEX
  8
0
 62
7
  6
CONTINUOUS
 10
-29.378352279
 20
-23.078384913
  0
VERTEX
  8
0
 62
7
  6
CONTINUOUS
 10
-28.8247163349
 20
-23.0878604767
  0
SEQEND
  0
POLYLINE
  8
0
 62
7
  6
CONTINUOUS
 66
1
 70
0
  0
VERTEX
  8
0
 62
7
  6
CONTINUOUS
 10
-38.4124560359
 20
258.899994108
  0
VERTEX
  8
0
 62
7
  6
CONTINUOUS
 10
-38.5859153893
 20
302.097065587
  0
VERTEX
  8
0
 62
7
  6
CONTINUOUS
 10
-38.6026450356
 20
306.4049096609
  0
SEQEND
  0
LINE
  8
0
 62
7
  6
CONTINUOUS
 10
-38.3470274645
 20
242.0075636492
 11
-38.4124560359
 21
258.899994108
  0
LINE
  8
0
 62
7
  6
CONTINUOUS
 10
-38.2871540878
 20
225.1275318442
 11
-38.3470274645
 21
242.0075636492
  0
LINE
  8
0
 62
7
  6
CONTINUOUS
 10
-38.2476061208
 20
212.4808890334
 11
-38.2871540878
 21
225.1275318442
  0
LINE
  8
0
 62
7
  6
CONTINUOUS
 10
-38.2137817672
 20
199.8061915308
 11
-38.2476061208
 21
212.4808890334
  0
LINE
  8
0
 62
7
  6
CONTINUOUS
 10
-38.1867490228
 20
187.1231880572
 11
-38.2137817672
 21
199.8061915308
  0
LINE
  8
0
 62
7
  6
CONTINUOUS
 10
-38.1728754555
 20
178.6293226376
 11
-38.1867490228
 21
187.1231880572
  0
LINE
  8
0
 62
7
  6
CONTINUOUS
 10
-38.1625092996
 20
170.0148312856
 11
-38.1728754555
 21
178.6293226376
  0
LINE
  8
0
 62
7
  6
CONTINUOUS
 10
-38.1559011174
 20
161.1615251973
 11
-38.1625092996
 21
170.0148312856
  0
LINE
  8
0
 62
7
  6
CONTINUOUS
 10
-38.1534837713
 20
151.7124807131
 11
-38.1559011174
 21
161.1615251973
  0
LINE
  8
0
 62
7
  6
CONTINUOUS
 10
-33.1658032267
 20
267.6127253189
 11
-33.1824901848
 21
306.6675467879
  0
LINE
  8
0
 62
7
  6
CONTINUOUS
 10
-46.4672956164
 20
-13.2875192869
 11
-46.4672956164
 21
316.7124807131
  0
LINE
  8
0
 62
7
  6
CONTINUOUS
 10
-46.2581235515
 20
311.5699014315
 11
-46.2581235515
 21
-8.1449400054
  0
LINE
  8
0
 62
7
  6
CONTINUOUS
 10
-43.7676368062
 20
311.5699014315
 11
-43.7676368062
 21
-8.1449400054
  0
LINE
  8
0
 62
7
  6
CONTINUOUS
 10
-33.9672956164
 20
331.7124807131
 11
-33.9672956164
 21
329.2124807131
  0
LINE
  8
0
 62
7
  6
CONTINUOUS
 10
-33.9672956164
 20
-28.2875192869
 11
-33.9672956164
 21
-25.7875192869
  0
LINE
  8
0
 62
7
  6
CONTINUOUS
 10
-33.1604607433
 20
233.7997048601
 11
-33.1658032267
 21
267.6127253189
  0
LINE
  8
0
 62
7
  6
CONTINUOUS
 10
-28.8247163349
 20
-23.0878604767
 11
-28.8247163349
 21
-25.578347222
  0
LINE
  8
0
 62
7
  6
CONTINUOUS
 10
-28.8247163349
 20
326.5128219029
 11
-28.8247163349
 21
329.0033086481
  0
LINE
  8
0
 62
7
  6
CONTINUOUS
 10
-33.1629582712
 20
165.690302883
 11
-33.1604607433
 21
233.7997048601
  0
LINE
  8
0
 62
7
  6
CONTINUOUS
 10
-33.1683087573
 20
27.6173343829
 11
-33.1629582712
 21
165.690302883
  0
LINE
  8
0
 62
7
  6
CONTINUOUS
 10
-38.1571747993
 20
140.0300112216
 11
-38.1534837713
 21
151.7124807131
  0
LINE
  8
0
 62
7
  6
CONTINUOUS
 10
-33.1753991855
 20
10.1325703613
 11
-33.1683087573
 21
27.6173343829
  0
LINE
  8
0
 62
7
  6
CONTINUOUS
 10
-33.1826592018
 20
-3.2380039884
 11
-33.1753991855
 21
10.1325703613
  0
LINE
  8
0
 62
7
  6
CONTINUOUS
 10
-38.1666627023
 20
129.5664909251
 11
-38.1571747993
 21
140.0300112216
  0
LINE
  8
0
 62
7
  6
CONTINUOUS
 10
-38.1802667424
 20
120.0044737881
 11
-38.1666627023
 21
129.5664909251
  0
LINE
  8
0
 62
7
  6
CONTINUOUS
 10
-38.1972019747
 20
110.9809824202
 11
-38.1802667424
 21
120.0044737881
  0
LINE
  8
0
 62
7
  6
CONTINUOUS
 10
-38.2286051434
 20
97.7673024222
 11
-38.1972019747
 21
110.9809824202
  0
POLYLINE
  8
0
 62
7
  6
CONTINUOUS
 66
1
 70
0
  0
VERTEX
  8
0
 62
7
  6
CONTINUOUS
 10
-38.2805685731
 20
80.2945770867
  0
VERTEX
  8
0
 62
7
  6
CONTINUOUS
 10
-38.2665861686
 20
84.6645753371
  0
VERTEX
  8
0
 62
7
  6
CONTINUOUS
 10
-38.2286051434
 20
97.7673024222
  0
SEQEND
  0
LINE
  8
0
 62
7
  6
CONTINUOUS
 10
-38.3257688462
 20
67.1952541092
 11
-38.2805685731
 21
80.2945770867
  0
LINE
  8
0
 62
7
  6
CONTINUOUS
 10
-38.3581310402
 20
58.4690298239
 11
-38.3257688462
 21
67.1952541092
  0
LINE
  8
0
 62
7
  6
CONTINUOUS
 10
-38.6026408406
 20
-2.9799440397
 11
-38.5676584231
 21
5.9770247531
  0
LINE
  8
0
 62
7
  6
CONTINUOUS
 10
-38.3918671981
 20
49.7334986213
 11
-38.3581310402
 21
58.4690298239
  0
LINE
  8
0
 62
7
  6
CONTINUOUS
 10
-38.5676584231
 20
5.9770247531
 11
-38.3918671981
 21
49.7334986213
  0
POLYLINE
  8
0
 62
7
  6
CONTINUOUS
 66
1
 70
0
  0
VERTEX
  8
0
 62
7
  6
CONTINUOUS
 10
-38.602645178
 20
306.4049098033
  0
VERTEX
  8
0
 62
7
  6
CONTINUOUS
 10
-38.5720166616
 20
306.4171986942
  0
VERTEX
  8
0
 62
7
  6
CONTINUOUS
 10
-38.5286128856
 20
306.4294611841
  0
VERTEX
  8
0
 62
7
  6
CONTINUOUS
 10
-38.4725270975
 20
306.4416709289
  0
VERTEX
  8
0
 62
7
  6
CONTINUOUS
 10
-38.4038797876
 20
306.4538016981
  0
VERTEX
  8
0
 62
7
  6
CONTINUOUS
 10
-38.3228184276
 20
306.4658274313
  0
VERTEX
  8
0
 62
7
  6
CONTINUOUS
 10
-38.2295171772
 20
306.4777222913
  0
VERTEX
  8
0
 62
7
  6
CONTINUOUS
 10
-38.1241765077
 20
306.489460721
  0
VERTEX
  8
0
 62
7
  6
CONTINUOUS
 10
-38.0070226993
 20
306.5010175061
  0
VERTEX
  8
0
 62
7
  6
CONTINUOUS
 10
-37.8783073924
 20
306.5123678223
  0
VERTEX
  8
0
 62
7
  6
CONTINUOUS
 10
-37.7383071464
 20
306.5234872814
  0
VERTEX
  8
0
 62
7
  6
CONTINUOUS
 10
-37.5873227699
 20
306.5343519921
  0
VERTEX
  8
0
 62
7
  6
CONTINUOUS
 10
-37.4256786112
 20
306.5449386148
  0
VERTEX
  8
0
 62
7
  6
CONTINUOUS
 10
-37.2537219268
 20
306.5552244067
  0
VERTEX
  8
0
 62
7
  6
CONTINUOUS
 10
-37.0718221447
 20
306.5651872699
  0
SEQEND
  0
LINE
  8
0
 62
7
  6
CONTINUOUS
 10
-24.1095955891
 20
-13.3280804264
 11
-24.1230080263
 21
-12.7639013062
  0
LINE
  8
0
 62
7
  6
CONTINUOUS
 10
-24.1230080263
 20
-12.7639013062
 11
-24.1318544324
 21
-12.1919012148
  0
LINE
  8
0
 62
7
  6
CONTINUOUS
 10
-24.131854364
 20
315.6168627113
 11
-24.1230079615
 21
316.1888626214
  0
POLYLINE
  8
0
 62
7
  6
CONTINUOUS
 66
1
 70
0
  0
VERTEX
  8
0
 62
7
  6
CONTINUOUS
 10
-24.1230079615
 20
316.1888626214
  0
VERTEX
  8
0
 62
7
  6
CONTINUOUS
 10
-24.1095955277
 20
316.7530416732
  0
VERTEX
  8
0
 62
7
  6
CONTINUOUS
 10
-24.1012138821
 20
317.0305773056
  0
VERTEX
  8
0
 62
7
  6
CONTINUOUS
 10
-24.0917400706
 20
317.3042256459
  0
VERTEX
  8
0
 62
7
  6
CONTINUOUS
 10
-24.0811958239
 20
317.5733589888
  0
VERTEX
  8
0
 62
7
  6
CONTINUOUS
 10
-24.0696053341
 20
317.8373598373
  0
VERTEX
  8
0
 62
7
  6
CONTINUOUS
 10
-24.0569951955
 20
318.0956224643
  0
VERTEX
  8
0
 62
7
  6
CONTINUOUS
 10
-24.0433943326
 20
318.3475544971
  0
VERTEX
  8
0
 62
7
  6
CONTINUOUS
 10
-24.0288339422
 20
318.5925780642
  0
VERTEX
  8
0
 62
7
  6
CONTINUOUS
 10
-24.0133474291
 20
318.8301310115
  0
VERTEX
  8
0
 62
7
  6
CONTINUOUS
 10
-23.9969703224
 20
319.0596683478
  0
VERTEX
  8
0
 62
7
  6
CONTINUOUS
 10
-23.9797401914
 20
319.280663516
  0
VERTEX
  8
0
 62
7
  6
CONTINUOUS
 10
-23.9616965624
 20
319.4926095448
  0
VERTEX
  8
0
 62
7
  6
CONTINUOUS
 10
-23.9428808288
 20
319.6950202162
  0
VERTEX
  8
0
 62
7
  6
CONTINUOUS
 10
-23.9233361546
 20
319.8874311914
  0
VERTEX
  8
0
 62
7
  6
CONTINUOUS
 10
-23.9031073773
 20
320.0694010589
  0
VERTEX
  8
0
 62
7
  6
CONTINUOUS
 10
-23.8822409053
 20
320.240512351
  0
VERTEX
  8
0
 62
7
  6
CONTINUOUS
 10
-23.8607846031
 20
320.4003725659
  0
VERTEX
  8
0
 62
7
  6
CONTINUOUS
 10
-23.8387876846
 20
320.5486150219
  0
VERTEX
  8
0
 62
7
  6
CONTINUOUS
 10
-23.8163006232
 20
320.6848995588
  0
VERTEX
  8
0
 62
7
  6
CONTINUOUS
 10
-23.7933750195
 20
320.8089134633
  0
VERTEX
  8
0
 62
7
  6
CONTINUOUS
 10
-23.7700634528
 20
320.920372329
  0
VERTEX
  8
0
 62
7
  6
CONTINUOUS
 10
-23.7464193885
 20
321.0190205142
  0
VERTEX
  8
0
 62
7
  6
CONTINUOUS
 10
-23.7224970762
 20
321.1046316655
  0
VERTEX
  8
0
 62
7
  6
CONTINUOUS
 10
-23.6983514052
 20
321.1770093547
  0
VERTEX
  8
0
 62
7
  6
CONTINUOUS
 10
-23.6740377516
 20
321.2359875892
  0
VERTEX
  8
0
 62
7
  6
CONTINUOUS
 10
-23.6496118785
 20
321.2814310779
  0
VERTEX
  8
0
 62
7
  6
CONTINUOUS
 10
-23.6251298249
 20
321.3132355298
  0
SEQEND
  0
POLYLINE
  8
0
 62
7
  6
CONTINUOUS
 66
1
 70
0
  0
VERTEX
  8
0
 62
7
  6
CONTINUOUS
 10
400.890125102
 20
-25.578347222
  0
VERTEX
  8
0
 62
7
  6
CONTINUOUS
 10
401.5241534131
 20
-25.5666229197
  0
VERTEX
  8
0
 62
7
  6
CONTINUOUS
 10
402.1515051825
 20
-25.5329748272
  0
VERTEX
  8
0
 62
7
  6
CONTINUOUS
 10
402.7711973309
 20
-25.4773916664
  0
VERTEX
  8
0
 62
7
  6
CONTINUOUS
 10
403.3861790969
 20
-25.3999072716
  0
VERTEX
  8
0
 62
7
  6
CONTINUOUS
 10
403.999986116
 20
-25.3004578237
  0
VERTEX
  8
0
 62
7
  6
CONTINUOUS
 10
404.6098761193
 20
-25.1793250056
  0
VERTEX
  8
0
 62
7
  6
CONTINUOUS
 10
405.2145095451
 20
-25.0366751602
  0
VERTEX
  8
0
 62
7
  6
CONTINUOUS
 10
405.8132139071
 20
-24.872790489
  0
VERTEX
  8
0
 62
7
  6
CONTINUOUS
 10
406.4050509583
 20
-24.6879236169
  0
VERTEX
  8
0
 62
7
  6
CONTINUOUS
 10
406.9894784197
 20
-24.4823296157
  0
VERTEX
  8
0
 62
7
  6
CONTINUOUS
 10
407.5658272357
 20
-24.2562605079
  0
VERTEX
  8
0
 62
7
  6
CONTINUOUS
 10
408.1335394899
 20
-24.0099780662
  0
VERTEX
  8
0
 62
7
  6
CONTINUOUS
 10
408.6920753394
 20
-23.7437020786
  0
VERTEX
  8
0
 62
7
  6
CONTINUOUS
 10
409.2407115074
 20
-23.4578105218
  0
VERTEX
  8
0
 62
7
  6
CONTINUOUS
 10
409.7787805802
 20
-23.1526030574
  0
VERTEX
  8
0
 62
7
  6
CONTINUOUS
 10
410.3055751256
 20
-22.8285344186
  0
VERTEX
  8
0
 62
7
  6
CONTINUOUS
 10
410.820365173
 20
-22.4860051322
  0
VERTEX
  8
0
 62
7
  6
CONTINUOUS
 10
411.3225509244
 20
-22.1254774797
  0
VERTEX
  8
0
 62
7
  6
CONTINUOUS
 10
411.8114716169
 20
-21.7473875196
  0
VERTEX
  8
0
 62
7
  6
CONTINUOUS
 10
412.2865801748
 20
-21.3522144465
  0
VERTEX
  8
0
 62
7
  6
CONTINUOUS
 10
412.7472843282
 20
-20.9404106707
  0
VERTEX
  8
0
 62
7
  6
CONTINUOUS
 10
413.193058896
 20
-20.5124926036
  0
VERTEX
  8
0
 62
7
  6
CONTINUOUS
 10
413.6233471831
 20
-20.0689428284
  0
VERTEX
  8
0
 62
7
  6
CONTINUOUS
 10
414.0376514608
 20
-19.6103152405
  0
VERTEX
  8
0
 62
7
  6
CONTINUOUS
 10
414.4354503525
 20
-19.1371173977
  0
VERTEX
  8
0
 62
7
  6
CONTINUOUS
 10
414.8162581062
 20
-18.6499708959
  0
VERTEX
  8
0
 62
7
  6
CONTINUOUS
 10
415.1795683534
 20
-18.1494336693
  0
VERTEX
  8
0
 62
7
  6
CONTINUOUS
 10
415.5249215672
 20
-17.6362042609
  0
VERTEX
  8
0
 62
7
  6
CONTINUOUS
 10
415.8518074463
 20
-17.1109518405
  0
VERTEX
  8
0
 62
7
  6
CONTINUOUS
 10
416.1598719452
 20
-16.5743224612
  0
VERTEX
  8
0
 62
7
  6
CONTINUOUS
 10
416.4486814734
 20
-16.0270027663
  0
VERTEX
  8
0
 62
7
  6
CONTINUOUS
 10
416.7179643645
 20
-15.469540155
  0
VERTEX
  8
0
 62
7
  6
CONTINUOUS
 10
416.9673931154
 20
-14.9025295626
  0
VERTEX
  8
0
 62
7
  6
CONTINUOUS
 10
417.1967016467
 20
-14.3265150231
  0
VERTEX
  8
0
 62
7
  6
CONTINUOUS
 10
417.4056576815
 20
-13.7418083001
  0
VERTEX
  8
0
 62
7
  6
CONTINUOUS
 10
417.5938323086
 20
-13.1497011394
  0
VERTEX
  8
0
 62
7
  6
CONTINUOUS
 10
417.760566819
 20
-12.5526128914
  0
VERTEX
  8
0
 62
7
  6
CONTINUOUS
 10
417.9063183292
 20
-11.9474725049
  0
VERTEX
  8
0
 62
7
  6
CONTINUOUS
 10
418.0316903961
 20
-11.3313243163
  0
VERTEX
  8
0
 62
7
  6
CONTINUOUS
 10
418.1355849894
 20
-10.7062415132
  0
VERTEX
  8
0
 62
7
  6
CONTINUOUS
 10
418.2172922034
 20
-10.0722865484
  0
VERTEX
  8
0
 62
7
  6
CONTINUOUS
 10
418.2762512219
 20
-9.4325359629
  0
VERTEX
  8
0
 62
7
  6
CONTINUOUS
 10
418.3115649122
 20
-8.790474285
  0
VERTEX
  8
0
 62
7
  6
CONTINUOUS
 10
418.3235323186
 20
-8.1449400054
  0
SEQEND
  0
POLYLINE
  8
0
 62
7
  6
CONTINUOUS
 66
1
 70
0
  0
VERTEX
  8
0
 62
7
  6
CONTINUOUS
 10
400.890125102
 20
-23.0878604767
  0
VERTEX
  8
0
 62
7
  6
CONTINUOUS
 10
401.433922068
 20
-23.0787293995
  0
VERTEX
  8
0
 62
7
  6
CONTINUOUS
 10
401.9726176429
 20
-23.0502794808
  0
VERTEX
  8
0
 62
7
  6
CONTINUOUS
 10
402.5043827659
 20
-23.0031288841
  0
VERTEX
  8
0
 62
7
  6
CONTINUOUS
 10
403.0320959778
 20
-22.9374079651
  0
VERTEX
  8
0
 62
7
  6
CONTINUOUS
 10
403.5587747307
 20
-22.8527465095
  0
VERTEX
  8
0
 62
7
  6
CONTINUOUS
 10
404.0820594743
 20
-22.7494177935
  0
VERTEX
  8
0
 62
7
  6
CONTINUOUS
 10
404.6008183417
 20
-22.6276566311
  0
VERTEX
  8
0
 62
7
  6
CONTINUOUS
 10
405.1144577024
 20
-22.4876397581
  0
VERTEX
  8
0
 62
7
  6
CONTINUOUS
 10
405.6221872754
 20
-22.3296250579
  0
VERTEX
  8
0
 62
7
  6
CONTINUOUS
 10
406.1235307221
 20
-22.153805305
  0
VERTEX
  8
0
 62
7
  6
CONTINUOUS
 10
406.6179226192
 20
-21.9604114181
  0
VERTEX
  8
0
 62
7
  6
CONTINUOUS
 10
407.104877914
 20
-21.7496559655
  0
VERTEX
  8
0
 62
7
  6
CONTINUOUS
 10
407.583941285
 20
-21.5217413531
  0
VERTEX
  8
0
 62
7
  6
CONTINUOUS
 10
408.0544802289
 20
-21.2769672275
  0
VERTEX
  8
0
 62
7
  6
CONTINUOUS
 10
408.5159384977
 20
-21.0156206409
  0
VERTEX
  8
0
 62
7
  6
CONTINUOUS
 10
408.967689592
 20
-20.7380568293
  0
VERTEX
  8
0
 62
7
  6
CONTINUOUS
 10
409.409128899
 20
-20.4446529869
  0
VERTEX
  8
0
 62
7
  6
CONTINUOUS
 10
409.839721218
 20
-20.1357746802
  0
VERTEX
  8
0
 62
7
  6
CONTINUOUS
 10
410.2589201839
 20
-19.8118226325
  0
VERTEX
  8
0
 62
7
  6
CONTINUOUS
 10
410.6662374554
 20
-19.473183246
  0
VERTEX
  8
0
 62
7
  6
CONTINUOUS
 10
411.0611842749
 20
-19.1202665538
  0
VERTEX
  8
0
 62
7
  6
CONTINUOUS
 10
411.4432911123
 20
-18.7534935622
  0
VERTEX
  8
0
 62
7
  6
CONTINUOUS
 10
411.8121006284
 20
-18.3732989282
  0
VERTEX
  8
0
 62
7
  6
CONTINUOUS
 10
412.1671655787
 20
-17.9801366618
  0
VERTEX
  8
0
 62
7
  6
CONTINUOUS
 10
412.5080614903
 20
-17.5744629995
  0
VERTEX
  8
0
 62
7
  6
CONTINUOUS
 10
412.8343469756
 20
-17.1567886386
  0
VERTEX
  8
0
 62
7
  6
CONTINUOUS
 10
413.1456165691
 20
-16.7276151211
  0
VERTEX
  8
0
 62
7
  6
CONTINUOUS
 10
413.4414442094
 20
-16.2875172187
  0
VERTEX
  8
0
 62
7
  6
CONTINUOUS
 10
413.7214254777
 20
-15.837091488
  0
VERTEX
  8
0
 62
7
  6
CONTINUOUS
 10
413.9852275941
 20
-15.3768730225
  0
VERTEX
  8
0
 62
7
  6
CONTINUOUS
 10
414.2325032805
 20
-14.9074654047
  0
VERTEX
  8
0
 62
7
  6
CONTINUOUS
 10
414.4630037509
 20
-14.4293279862
  0
VERTEX
  8
0
 62
7
  6
CONTINUOUS
 10
414.6764590832
 20
-13.942978508
  0
VERTEX
  8
0
 62
7
  6
CONTINUOUS
 10
414.8726345687
 20
-13.4488767345
  0
VERTEX
  8
0
 62
7
  6
CONTINUOUS
 10
415.0513575772
 20
-12.9473030641
  0
VERTEX
  8
0
 62
7
  6
CONTINUOUS
 10
415.2121925747
 20
-12.4393394167
  0
VERTEX
  8
0
 62
7
  6
CONTINUOUS
 10
415.3545425129
 20
-11.927065517
  0
VERTEX
  8
0
 62
7
  6
CONTINUOUS
 10
415.4790795041
 20
-11.4078994958
  0
VERTEX
  8
0
 62
7
  6
CONTINUOUS
 10
415.5860235429
 20
-10.8792579121
  0
VERTEX
  8
0
 62
7
  6
CONTINUOUS
 10
415.674503911
 20
-10.3428973517
  0
VERTEX
  8
0
 62
7
  6
CONTINUOUS
 10
415.7440230636
 20
-9.7989293017
  0
VERTEX
  8
0
 62
7
  6
CONTINUOUS
 10
415.7938547251
 20
-9.2499294763
  0
VERTEX
  8
0
 62
7
  6
CONTINUOUS
 10
415.8235700096
 20
-8.6985759495
  0
VERTEX
  8
0
 62
7
  6
CONTINUOUS
 10
415.8330455734
 20
-8.1449400054
  0
SEQEND
  0
LINE
  8
0
 62
7
  6
CONTINUOUS
 10
406.0327043836
 20
-28.2875192869
 11
-33.9672956164
 21
-28.2875192869
  0
LINE
  8
0
 62
7
  6
CONTINUOUS
 10
406.0327043836
 20
-25.7875192869
 11
-33.9672956164
 21
-25.7875192869
  0
LINE
  8
0
 62
7
  6
CONTINUOUS
 10
-28.8247163349
 20
-25.578347222
 11
400.890125102
 21
-25.578347222
  0
LINE
  8
0
 62
7
  6
CONTINUOUS
 10
409.1372309196
 20
-3.1402258434
 11
408.7451857253
 21
-3.1590979087
  0
LINE
  8
0
 62
7
  6
CONTINUOUS
 10
408.7451857253
 20
-3.1590979087
 11
408.3183189977
 21
-3.1764312959
  0
LINE
  8
0
 62
7
  6
CONTINUOUS
 10
408.3183189977
 20
-3.1764312959
 11
407.860297001
 21
-3.1920771324
  0
LINE
  8
0
 62
7
  6
CONTINUOUS
 10
407.860297001
 20
-3.1920771324
 11
407.3750536944
 21
-3.2059010366
  0
LINE
  8
0
 62
7
  6
CONTINUOUS
 10
407.3750536944
 20
-3.2059010366
 11
406.8667564185
 21
-3.217784286
  0
LINE
  8
0
 62
7
  6
CONTINUOUS
 10
406.8667564185
 20
-3.217784286
 11
406.3397711972
 21
-3.2276248089
  0
POLYLINE
  8
0
 62
7
  6
CONTINUOUS
 66
1
 70
0
  0
VERTEX
  8
0
 62
7
  6
CONTINUOUS
 10
395.6905386599
 20
-17.8882740346
  0
VERTEX
  8
0
 62
7
  6
CONTINUOUS
 10
396.2540877946
 20
-17.8786019969
  0
VERTEX
  8
0
 62
7
  6
CONTINUOUS
 10
396.8164905063
 20
-17.8479250353
  0
VERTEX
  8
0
 62
7
  6
CONTINUOUS
 10
397.3769712262
 20
-17.7963188962
  0
VERTEX
  8
0
 62
7
  6
CONTINUOUS
 10
397.9347513147
 20
-17.7238762977
  0
VERTEX
  8
0
 62
7
  6
CONTINUOUS
 10
398.4890603073
 20
-17.6307207098
  0
VERTEX
  8
0
 62
7
  6
CONTINUOUS
 10
399.0391276083
 20
-17.5170055567
  0
VERTEX
  8
0
 62
7
  6
CONTINUOUS
 10
399.5841892391
 20
-17.3829124103
  0
VERTEX
  8
0
 62
7
  6
CONTINUOUS
 10
400.1234973966
 20
-17.2286499457
  0
VERTEX
  8
0
 62
7
  6
CONTINUOUS
 10
400.6563089385
 20
-17.0544544921
  0
VERTEX
  8
0
 62
7
  6
CONTINUOUS
 10
401.1818999321
 20
-16.8605869943
  0
VERTEX
  8
0
 62
7
  6
CONTINUOUS
 10
401.6995542374
 20
-16.6473342826
  0
VERTEX
  8
0
 62
7
  6
CONTINUOUS
 10
402.2085694286
 20
-16.4150087952
  0
VERTEX
  8
0
 62
7
  6
CONTINUOUS
 10
402.7082539903
 20
-16.1639476196
  0
VERTEX
  8
0
 62
7
  6
CONTINUOUS
 10
403.1979333702
 20
-15.8945114666
  0
VERTEX
  8
0
 62
7
  6
CONTINUOUS
 10
403.6769455405
 20
-15.6070844526
  0
VERTEX
  8
0
 62
7
  6
CONTINUOUS
 10
404.1446449807
 20
-15.302074051
  0
VERTEX
  8
0
 62
7
  6
CONTINUOUS
 10
404.6003998376
 20
-14.9799104443
  0
VERTEX
  8
0
 62
7
  6
CONTINUOUS
 10
405.0435997039
 20
-14.6410433686
  0
VERTEX
  8
0
 62
7
  6
CONTINUOUS
 10
405.4736491479
 20
-14.2859436448
  0
VERTEX
  8
0
 62
7
  6
CONTINUOUS
 10
405.8899712859
 20
-13.9151031248
  0
VERTEX
  8
0
 62
7
  6
CONTINUOUS
 10
406.2920058424
 20
-13.5290335978
  0
VERTEX
  8
0
 62
7
  6
CONTINUOUS
 10
406.6792153322
 20
-13.1282636674
  0
VERTEX
  8
0
 62
7
  6
CONTINUOUS
 10
407.0510799432
 20
-12.7133401847
  0
VERTEX
  8
0
 62
7
  6
CONTINUOUS
 10
407.4071001528
 20
-12.2848288071
  0
VERTEX
  8
0
 62
7
  6
CONTINUOUS
 10
407.7467958032
 20
-11.8433118423
  0
VERTEX
  8
0
 62
7
  6
CONTINUOUS
 10
408.069709673
 20
-11.3893871235
  0
VERTEX
  8
0
 62
7
  6
CONTINUOUS
 10
408.3754051947
 20
-10.9236669679
  0
VERTEX
  8
0
 62
7
  6
CONTINUOUS
 10
408.6634664889
 20
-10.4467824801
  0
VERTEX
  8
0
 62
7
  6
CONTINUOUS
 10
408.933499499
 20
-9.959378378
  0
VERTEX
  8
0
 62
7
  6
CONTINUOUS
 10
409.1851355773
 20
-9.4621107799
  0
VERTEX
  8
0
 62
7
  6
CONTINUOUS
 10
409.4180276884
 20
-8.9556491546
  0
VERTEX
  8
0
 62
7
  6
CONTINUOUS
 10
409.6318543499
 20
-8.4406732203
  0
VERTEX
  8
0
 62
7
  6
CONTINUOUS
 10
409.8263167776
 20
-7.9178734792
  0
VERTEX
  8
0
 62
7
  6
CONTINUOUS
 10
410.0011408504
 20
-7.3879526661
  0
VERTEX
  8
0
 62
7
  6
CONTINUOUS
 10
410.1560771233
 20
-6.8516189799
  0
VERTEX
  8
0
 62
7
  6
CONTINUOUS
 10
410.2908984206
 20
-6.3096032254
  0
VERTEX
  8
0
 62
7
  6
CONTINUOUS
 10
410.4054043047
 20
-5.7626385709
  0
VERTEX
  8
0
 62
7
  6
CONTINUOUS
 10
410.499420262
 20
-5.2114746573
  0
VERTEX
  8
0
 62
7
  6
CONTINUOUS
 10
410.5727985241
 20
-4.6568670061
  0
VERTEX
  8
0
 62
7
  6
CONTINUOUS
 10
410.6254205632
 20
-4.0995694709
  0
VERTEX
  8
0
 62
7
  6
CONTINUOUS
 10
410.6571960691
 20
-3.5403389834
  0
VERTEX
  8
0
 62
7
  6
CONTINUOUS
 10
410.6680539451
 20
-2.9799483771
  0
SEQEND
  0
POLYLINE
  8
0
 62
7
  6
CONTINUOUS
 66
1
 70
0
  0
VERTEX
  8
0
 62
7
  6
CONTINUOUS
 10
396.1973232723
 20
-12.191899251
  0
VERTEX
  8
0
 62
7
  6
CONTINUOUS
 10
396.538493963
 20
-12.1870670776
  0
VERTEX
  8
0
 62
7
  6
CONTINUOUS
 10
396.8784968597
 20
-12.1696311107
  0
VERTEX
  8
0
 62
7
  6
CONTINUOUS
 10
397.2175697807
 20
-12.1395590997
  0
VERTEX
  8
0
 62
7
  6
CONTINUOUS
 10
397.5549996543
 20
-12.0969481188
  0
VERTEX
  8
0
 62
7
  6
CONTINUOUS
 10
397.8903044004
 20
-12.0418458316
  0
VERTEX
  8
0
 62
7
  6
CONTINUOUS
 10
398.2230281726
 20
-11.9743685626
  0
VERTEX
  8
0
 62
7
  6
CONTINUOUS
 10
398.5527022027
 20
-11.8945990259
  0
VERTEX
  8
0
 62
7
  6
CONTINUOUS
 10
398.8788824928
 20
-11.8026860404
  0
VERTEX
  8
0
 62
7
  6
CONTINUOUS
 10
399.2011112326
 20
-11.698746378
  0
VERTEX
  8
0
 62
7
  6
CONTINUOUS
 10
399.518960438
 20
-11.5829591885
  0
VERTEX
  8
0
 62
7
  6
CONTINUOUS
 10
399.8319871388
 20
-11.4554728994
  0
VERTEX
  8
0
 62
7
  6
CONTINUOUS
 10
400.1397778815
 20
-11.3164967085
  0
VERTEX
  8
0
 62
7
  6
CONTINUOUS
 10
400.4419031085
 20
-11.166210262
  0
VERTEX
  8
0
 62
7
  6
CONTINUOUS
 10
400.7379676326
 20
-11.0048508584
  0
VERTEX
  8
0
 62
7
  6
CONTINUOUS
 10
401.0275583645
 20
-10.8326275743
  0
VERTEX
  8
0
 62
7
  6
CONTINUOUS
 10
401.310299012
 20
-10.6498048914
  0
VERTEX
  8
0
 62
7
  6
CONTINUOUS
 10
401.5857934547
 20
-10.4566207688
  0
VERTEX
  8
0
 62
7
  6
CONTINUOUS
 10
401.853687754
 20
-10.2533639695
  0
VERTEX
  8
0
 62
7
  6
CONTINUOUS
 10
402.1136067104
 20
-10.0402982476
  0
VERTEX
  8
0
 62
7
  6
CONTINUOUS
 10
402.3652177715
 20
-9.8177366534
  0
VERTEX
  8
0
 62
7
  6
CONTINUOUS
 10
402.6081658932
 20
-9.5859688278
  0
VERTEX
  8
0
 62
7
  6
CONTINUOUS
 10
402.8421432662
 20
-9.3453287599
  0
VERTEX
  8
0
 62
7
  6
CONTINUOUS
 10
403.0668183843
 20
-9.0961285709
  0
VERTEX
  8
0
 62
7
  6
CONTINUOUS
 10
403.2819073441
 20
-8.8387234555
  0
VERTEX
  8
0
 62
7
  6
CONTINUOUS
 10
403.4871016344
 20
-8.5734481439
  0
VERTEX
  8
0
 62
7
  6
CONTINUOUS
 10
403.6821437603
 20
-8.300676043
  0
VERTEX
  8
0
 62
7
  6
CONTINUOUS
 10
403.8667506757
 20
-8.0207612948
  0
VERTEX
  8
0
 62
7
  6
CONTINUOUS
 10
404.0406908477
 20
-7.7340962615
  0
VERTEX
  8
0
 62
7
  6
CONTINUOUS
 10
404.2037059813
 20
-7.4410558905
  0
VERTEX
  8
0
 62
7
  6
CONTINUOUS
 10
404.3555937743
 20
-7.1420463528
  0
VERTEX
  8
0
 62
7
  6
CONTINUOUS
 10
404.496123776
 20
-6.8374590235
  0
VERTEX
  8
0
 62
7
  6
CONTINUOUS
 10
404.6251227181
 20
-6.5277129747
  0
VERTEX
  8
0
 62
7
  6
CONTINUOUS
 10
404.7423887489
 20
-6.21321374
  0
VERTEX
  8
0
 62
7
  6
CONTINUOUS
 10
404.847777857
 20
-5.894393002
  0
VERTEX
  8
0
 62
7
  6
CONTINUOUS
 10
404.9411171342
 20
-5.571668355
  0
VERTEX
  8
0
 62
7
  6
CONTINUOUS
 10
405.0222922046
 20
-5.2454872505
  0
VERTEX
  8
0
 62
7
  6
CONTINUOUS
 10
405.0911584938
 20
-4.9162837281
  0
VERTEX
  8
0
 62
7
  6
CONTINUOUS
 10
405.1476345614
 20
-4.5845152343
  0
VERTEX
  8
0
 62
7
  6
CONTINUOUS
 10
405.1916113547
 20
-4.2505100774
  0
VERTEX
  8
0
 62
7
  6
CONTINUOUS
 10
405.2230280744
 20
-3.9150892986
  0
VERTEX
  8
0
 62
7
  6
CONTINUOUS
 10
405.2417760506
 20
-3.5792993918
  0
VERTEX
  8
0
 62
7
  6
CONTINUOUS
 10
405.2478913415
 20
-3.2427916467
  0
SEQEND
  0
LINE
  8
0
 62
7
  6
CONTINUOUS
 10
406.3397711972
 20
-3.2276248089
 11
405.7986240058
 21
-3.2353380914
  0
LINE
  8
0
 62
7
  6
CONTINUOUS
 10
405.7986240058
 20
-3.2353380914
 11
405.2479626831
 21
-3.2408578849
  0
LINE
  8
0
 62
7
  6
CONTINUOUS
 10
-28.8247163349
 20
-23.0878604767
 11
400.890125102
 21
-23.0878604767
  0
LINE
  8
0
 62
7
  6
CONTINUOUS
 10
421.0327043836
 20
-13.2875192869
 11
418.5327043836
 21
-13.2875192869
  0
LINE
  8
0
 62
7
  6
CONTINUOUS
 10
-48.9672956164
 20
-13.2875192869
 11
-46.4672956164
 21
-13.2875192869
  0
LINE
  8
0
 62
7
  6
CONTINUOUS
 10
-43.7676368062
 20
-8.1449400054
 11
-46.2581235515
 21
-8.1449400054
  0
LINE
  8
0
 62
7
  6
CONTINUOUS
 10
415.8330455734
 20
-8.1449400054
 11
418.3235323186
 21
-8.1449400054
  0
POLYLINE
  8
0
 62
7
  6
CONTINUOUS
 66
1
 70
0
  0
VERTEX
  8
0
 62
7
  6
CONTINUOUS
 10
396.1973232723
 20
-12.191899251
  0
VERTEX
  8
0
 62
7
  6
CONTINUOUS
 10
382.2356363231
 20
-12.1317322995
  0
VERTEX
  8
0
 62
7
  6
CONTINUOUS
 10
368.2801919844
 20
-12.075658647
  0
VERTEX
  8
0
 62
7
  6
CONTINUOUS
 10
354.3317552928
 20
-12.0236745719
  0
VERTEX
  8
0
 62
7
  6
CONTINUOUS
 10
340.3899298513
 20
-11.9757895113
  0
VERTEX
  8
0
 62
7
  6
CONTINUOUS
 10
326.4548615679
 20
-11.9320102147
  0
VERTEX
  8
0
 62
7
  6
CONTINUOUS
 10
312.5256950825
 20
-11.8923412
  0
VERTEX
  8
0
 62
7
  6
CONTINUOUS
 10
298.6019793079
 20
-11.8567876799
  0
VERTEX
  8
0
 62
7
  6
CONTINUOUS
 10
284.6826484099
 20
-11.8253544997
  0
VERTEX
  8
0
 62
7
  6
CONTINUOUS
 10
270.766776106
 20
-11.7980465597
  0
VERTEX
  8
0
 62
7
  6
CONTINUOUS
 10
256.8534920706
 20
-11.7748690926
  0
VERTEX
  8
0
 62
7
  6
CONTINUOUS
 10
242.941913612
 20
-11.755827578
  0
VERTEX
  8
0
 62
7
  6
CONTINUOUS
 10
229.0311522353
 20
-11.7409263656
  0
VERTEX
  8
0
 62
7
  6
CONTINUOUS
 10
215.1203589848
 20
-11.7301706171
  0
VERTEX
  8
0
 62
7
  6
CONTINUOUS
 10
201.2085342085
 20
-11.7235635713
  0
VERTEX
  8
0
 62
7
  6
CONTINUOUS
 10
187.294625197
 20
-11.7211095882
  0
VERTEX
  8
0
 62
7
  6
CONTINUOUS
 10
173.3779447136
 20
-11.7228106632
  0
VERTEX
  8
0
 62
7
  6
CONTINUOUS
 10
159.4579747992
 20
-11.7286697936
  0
VERTEX
  8
0
 62
7
  6
CONTINUOUS
 10
145.5331584425
 20
-11.7386885339
  0
VERTEX
  8
0
 62
7
  6
CONTINUOUS
 10
131.601029969
 20
-11.7528712922
  0
VERTEX
  8
0
 62
7
  6
CONTINUOUS
 10
117.6638028307
 20
-11.7712126988
  0
VERTEX
  8
0
 62
7
  6
CONTINUOUS
 10
103.7239684026
 20
-11.7937086597
  0
VERTEX
  8
0
 62
7
  6
CONTINUOUS
 10
89.7782247906
 20
-11.8203599746
  0
VERTEX
  8
0
 62
7
  6
CONTINUOUS
 10
75.8384699078
 20
-11.8511205647
  0
VERTEX
  8
0
 62
7
  6
CONTINUOUS
 10
61.8616039253
 20
-11.8861271554
  0
VERTEX
  8
0
 62
7
  6
CONTINUOUS
 10
47.8224830793
 20
-11.9254207044
  0
VERTEX
  8
0
 62
7
  6
CONTINUOUS
 10
33.6793640635
 20
-11.9692423581
  0
VERTEX
  8
0
 62
7
  6
CONTINUOUS
 10
19.3602699415
 20
-12.0178899155
  0
VERTEX
  8
0
 62
7
  6
CONTINUOUS
 10
4.9311887088
 20
-12.071234304
  0
VERTEX
  8
0
 62
7
  6
CONTINUOUS
 10
-9.5610194663
 20
-12.1292420032
  0
VERTEX
  8
0
 62
7
  6
CONTINUOUS
 10
-24.1311350276
 20
-12.1919247325
  0
SEQEND
  0
POLYLINE
  8
0
 62
7
  6
CONTINUOUS
 66
1
 70
0
  0
VERTEX
  8
0
 62
7
  6
CONTINUOUS
 10
395.6905344559
 20
-17.8882698306
  0
VERTEX
  8
0
 62
7
  6
CONTINUOUS
 10
381.7622923215
 20
-17.7878748215
  0
VERTEX
  8
0
 62
7
  6
CONTINUOUS
 10
367.8407503812
 20
-17.694377094
  0
VERTEX
  8
0
 62
7
  6
CONTINUOUS
 10
353.9259605693
 20
-17.6077774997
  0
VERTEX
  8
0
 62
7
  6
CONTINUOUS
 10
340.0177670825
 20
-17.5280734842
  0
VERTEX
  8
0
 62
7
  6
CONTINUOUS
 10
326.1163173596
 20
-17.4552649757
  0
VERTEX
  8
0
 62
7
  6
CONTINUOUS
 10
312.2207536092
 20
-17.3893453778
  0
VERTEX
  8
0
 62
7
  6
CONTINUOUS
 10
298.3306217953
 20
-17.330309593
  0
VERTEX
  8
0
 62
7
  6
CONTINUOUS
 10
284.4448580909
 20
-17.2781530532
  0
VERTEX
  8
0
 62
7
  6
CONTINUOUS
 10
270.5625364315
 20
-17.2328699085
  0
VERTEX
  8
0
 62
7
  6
CONTINUOUS
 10
256.682789494
 20
-17.1944589065
  0
VERTEX
  8
0
 62
7
  6
CONTINUOUS
 10
242.8047360486
 20
-17.1629165714
  0
VERTEX
  8
0
 62
7
  6
CONTINUOUS
 10
228.9274917503
 20
-17.138243723
  0
VERTEX
  8
0
 62
7
  6
CONTINUOUS
 10
215.0502100347
 20
-17.1204390101
  0
VERTEX
  8
0
 62
7
  6
CONTINUOUS
 10
201.171896331
 20
-17.1095054706
  0
VERTEX
  8
0
 62
7
  6
CONTINUOUS
 10
187.2915014403
 20
-17.1054439487
  0
VERTEX
  8
0
 62
7
  6
CONTINUOUS
 10
173.4083426825
 20
-17.1082596745
  0
VERTEX
  8
0
 62
7
  6
CONTINUOUS
 10
159.5219043801
 20
-17.1179552879
  0
VERTEX
  8
0
 62
7
  6
CONTINUOUS
 10
145.6306363265
 20
-17.1345394036
  0
VERTEX
  8
0
 62
7
  6
CONTINUOUS
 10
131.7320802529
 20
-17.1580212505
  0
VERTEX
  8
0
 62
7
  6
CONTINUOUS
 10
117.8284446671
 20
-17.1884016251
  0
VERTEX
  8
0
 62
7
  6
CONTINUOUS
 10
103.9222166643
 20
-17.2256797944
  0
VERTEX
  8
0
 62
7
  6
CONTINUOUS
 10
90.0101022136
 20
-17.2698695752
  0
VERTEX
  8
0
 62
7
  6
CONTINUOUS
 10
76.1039537773
 20
-17.3209040536
  0
VERTEX
  8
0
 62
7
  6
CONTINUOUS
 10
62.1608189711
 20
-17.3790246891
  0
VERTEX
  8
0
 62
7
  6
CONTINUOUS
 10
48.1555457255
 20
-17.4443115965
  0
VERTEX
  8
0
 62
7
  6
CONTINUOUS
 10
34.0465855578
 20
-17.5171818953
  0
VERTEX
  8
0
 62
7
  6
CONTINUOUS
 10
19.7621183149
 20
-17.5981453717
  0
VERTEX
  8
0
 62
7
  6
CONTINUOUS
 10
5.3678069383
 20
-17.6870041405
  0
VERTEX
  8
0
 62
7
  6
CONTINUOUS
 10
-9.08941032
 20
-17.7837267507
  0
VERTEX
  8
0
 62
7
  6
CONTINUOUS
 10
-23.6251795441
 20
-17.8883236859
  0
SEQEND
  0
LINE
  8
0
 62
7
  6
CONTINUOUS
 10
-33.1825537536
 20
-3.2408579671
 11
-33.7332155225
 21
-3.2353381682
  0
LINE
  8
0
 62
7
  6
CONTINUOUS
 10
-33.7332155225
 20
-3.2353381682
 11
-34.2743628188
 21
-3.227624882
  0
LINE
  8
0
 62
7
  6
CONTINUOUS
 10
-34.2743628188
 20
-3.227624882
 11
-34.8013481328
 21
-3.2177843547
  0
LINE
  8
0
 62
7
  6
CONTINUOUS
 10
-34.8013481328
 20
-3.2177843547
 11
-35.3096454862
 21
-3.2059011002
  0
LINE
  8
0
 62
7
  6
CONTINUOUS
 10
-35.3096454862
 20
-3.2059011002
 11
-35.7948888525
 21
-3.1920771902
  0
LINE
  8
0
 62
7
  6
CONTINUOUS
 10
-35.7948888525
 20
-3.1920771902
 11
-36.252910889
 21
-3.1764313475
  0
LINE
  8
0
 62
7
  6
CONTINUOUS
 10
-36.252910889
 20
-3.1764313475
 11
-36.6797776348
 21
-3.1590979538
  0
POLYLINE
  8
0
 62
7
  6
CONTINUOUS
 66
1
 70
0
  0
VERTEX
  8
0
 62
7
  6
CONTINUOUS
 10
-36.6797776348
 20
-3.1590979538
  0
VERTEX
  8
0
 62
7
  6
CONTINUOUS
 10
-37.0718228243
 20
-3.1402258819
  0
VERTEX
  8
0
 62
7
  6
CONTINUOUS
 10
-37.2537225948
 20
-3.1302630153
  0
VERTEX
  8
0
 62
7
  6
CONTINUOUS
 10
-37.4256792616
 20
-3.1199772201
  0
VERTEX
  8
0
 62
7
  6
CONTINUOUS
 10
-37.5873233966
 20
-3.109390594
  0
VERTEX
  8
0
 62
7
  6
CONTINUOUS
 10
-37.7383077435
 20
-3.0985258802
  0
VERTEX
  8
0
 62
7
  6
CONTINUOUS
 10
-37.8783079538
 20
-3.0874064179
  0
VERTEX
  8
0
 62
7
  6
CONTINUOUS
 10
-38.0070232194
 20
-3.0760560987
  0
VERTEX
  8
0
 62
7
  6
CONTINUOUS
 10
-38.1241769805
 20
-3.0644993107
  0
VERTEX
  8
0
 62
7
  6
CONTINUOUS
 10
-38.2295175974
 20
-3.0527608781
  0
VERTEX
  8
0
 62
7
  6
CONTINUOUS
 10
-38.3228187897
 20
-3.0408660155
  0
VERTEX
  8
0
 62
7
  6
CONTINUOUS
 10
-38.4038800865
 20
-3.0288402798
  0
VERTEX
  8
0
 62
7
  6
CONTINUOUS
 10
-38.4725273545
 20
-3.0167095033
  0
VERTEX
  8
0
 62
7
  6
CONTINUOUS
 10
-38.5286130438
 20
-3.0044997615
  0
VERTEX
  8
0
 62
7
  6
CONTINUOUS
 10
-38.5720166497
 20
-2.9922373005
  0
VERTEX
  8
0
 62
7
  6
CONTINUOUS
 10
-38.6026450158
 20
-2.9799484594
  0
SEQEND
  0
LINE
  8
0
 62
7
  6
CONTINUOUS
 10
-38.6026408406
 20
-2.9799440397
 11
-43.7676368062
 21
-8.1449400054
  0
LINE
  8
0
 62
7
  6
CONTINUOUS
 10
-38.6026450356
 20
306.4049096609
 11
-43.7676368062
 21
311.5699014315
  0
LINE
  8
0
 62
7
  6
CONTINUOUS
 10
-23.6251795441
 20
-17.8883236859
 11
-28.8247163349
 21
-23.0878604767
  0
LINE
  8
0
 62
7
  6
CONTINUOUS
 10
-23.6251246202
 20
321.3132301883
 11
-28.8247163349
 21
326.5128219029
  0
LINE
  8
0
 62
7
  6
CONTINUOUS
 10
-38.1534837713
 20
151.7124807131
 11
166.0327043836
 21
151.7124807131
  0
LINE
  8
0
 62
7
  6
CONTINUOUS
 10
206.0327043836
 20
151.7124807131
 11
410.2188925385
 21
151.7124807131
  0
LINE
  8
0
 62
7
  6
CONTINUOUS
 10
395.690584416
 20
321.3132812169
 11
400.890125102
 21
326.5128219029
  0
LINE
  8
0
 62
7
  6
CONTINUOUS
 10
395.6905344559
 20
-17.8882698306
 11
400.890125102
 21
-23.0878604767
  0
LINE
  8
0
 62
7
  6
CONTINUOUS
 10
410.6680484516
 20
306.4049043098
 11
415.8330455734
 21
311.5699014315
  0
LINE
  8
0
 62
7
  6
CONTINUOUS
 10
410.6680542422
 20
-2.9799486742
 11
415.8330455734
 21
-8.1449400054
  0
LINE
  8
0
 62
7
  6
CONTINUOUS
 10
-35.3096449201
 20
306.630862463
 11
-34.8013476454
 21
306.6427457123
  0
LINE
  8
0
 62
7
  6
CONTINUOUS
 10
-34.8013476454
 20
306.6427457123
 11
-34.2743624258
 21
306.6525862351
  0
LINE
  8
0
 62
7
  6
CONTINUOUS
 10
-34.2743624258
 20
306.6525862351
 11
-33.7332152364
 21
306.6602995176
  0
LINE
  8
0
 62
7
  6
CONTINUOUS
 10
-33.7332152364
 20
306.6602995176
 11
-33.1825539159
 21
306.6658193111
  0
LINE
  8
0
 62
7
  6
CONTINUOUS
 10
-43.7676368062
 20
311.5699014315
 11
-46.2581235515
 21
311.5699014315
  0
LINE
  8
0
 62
7
  6
CONTINUOUS
 10
415.8330455734
 20
311.5699014315
 11
418.3235323186
 21
311.5699014315
  0
LINE
  8
0
 62
7
  6
CONTINUOUS
 10
405.2479624892
 20
306.6658194093
 11
405.7986243416
 21
306.6602996094
  0
LINE
  8
0
 62
7
  6
CONTINUOUS
 10
405.7986243416
 20
306.6602996094
 11
406.3397716553
 21
306.6525863226
  0
LINE
  8
0
 62
7
  6
CONTINUOUS
 10
406.3397716553
 20
306.6525863226
 11
406.8667569848
 21
306.6427457945
  0
LINE
  8
0
 62
7
  6
CONTINUOUS
 10
406.8667569848
 20
306.6427457945
 11
407.3750543514
 21
306.630862539
  0
LINE
  8
0
 62
7
  6
CONTINUOUS
 10
-37.0718221447
 20
306.5651872699
 11
-36.6797769499
 21
306.5840593352
  0
LINE
  8
0
 62
7
  6
CONTINUOUS
 10
-36.6797769499
 20
306.5840593352
 11
-36.2529102222
 21
306.6013927223
  0
LINE
  8
0
 62
7
  6
CONTINUOUS
 10
-36.2529102222
 20
306.6013927223
 11
-35.7948882259
 21
306.6170385588
  0
LINE
  8
0
 62
7
  6
CONTINUOUS
 10
-35.7948882259
 20
306.6170385588
 11
-35.3096449201
 21
306.630862463
  0
POLYLINE
  8
0
 62
7
  6
CONTINUOUS
 66
1
 70
0
  0
VERTEX
  8
0
 62
7
  6
CONTINUOUS
 10
-23.6251298927
 20
321.3132354607
  0
VERTEX
  8
0
 62
7
  6
CONTINUOUS
 10
-24.1886790274
 20
321.3035634231
  0
VERTEX
  8
0
 62
7
  6
CONTINUOUS
 10
-24.7510817391
 20
321.2728864615
  0
VERTEX
  8
0
 62
7
  6
CONTINUOUS
 10
-25.3115624591
 20
321.2212803224
  0
VERTEX
  8
0
 62
7
  6
CONTINUOUS
 10
-25.8693425475
 20
321.1488377239
  0
VERTEX
  8
0
 62
7
  6
CONTINUOUS
 10
-26.4236515402
 20
321.055682136
  0
VERTEX
  8
0
 62
7
  6
CONTINUOUS
 10
-26.9737188411
 20
320.9419669829
  0
VERTEX
  8
0
 62
7
  6
CONTINUOUS
 10
-27.5187804719
 20
320.8078738365
  0
VERTEX
  8
0
 62
7
  6
CONTINUOUS
 10
-28.0580886295
 20
320.6536113718
  0
VERTEX
  8
0
 62
7
  6
CONTINUOUS
 10
-28.5909001713
 20
320.4794159182
  0
VERTEX
  8
0
 62
7
  6
CONTINUOUS
 10
-29.1164911649
 20
320.2855484205
  0
VERTEX
  8
0
 62
7
  6
CONTINUOUS
 10
-29.6341454702
 20
320.0722957088
  0
VERTEX
  8
0
 62
7
  6
CONTINUOUS
 10
-30.1431606614
 20
319.8399702214
  0
VERTEX
  8
0
 62
7
  6
CONTINUOUS
 10
-30.6428452231
 20
319.5889090458
  0
VERTEX
  8
0
 62
7
  6
CONTINUOUS
 10
-31.132524603
 20
319.3194728927
  0
VERTEX
  8
0
 62
7
  6
CONTINUOUS
 10
-31.6115367733
 20
319.0320458788
  0
VERTEX
  8
0
 62
7
  6
CONTINUOUS
 10
-32.0792362136
 20
318.7270354771
  0
VERTEX
  8
0
 62
7
  6
CONTINUOUS
 10
-32.5349910704
 20
318.4048718705
  0
VERTEX
  8
0
 62
7
  6
CONTINUOUS
 10
-32.9781909367
 20
318.0660047948
  0
VERTEX
  8
0
 62
7
  6
CONTINUOUS
 10
-33.4082403807
 20
317.710905071
  0
VERTEX
  8
0
 62
7
  6
CONTINUOUS
 10
-33.8245625187
 20
317.340064551
  0
VERTEX
  8
0
 62
7
  6
CONTINUOUS
 10
-34.2265970753
 20
316.953995024
  0
VERTEX
  8
0
 62
7
  6
CONTINUOUS
 10
-34.6138065651
 20
316.5532250936
  0
VERTEX
  8
0
 62
7
  6
CONTINUOUS
 10
-34.9856711761
 20
316.1383016109
  0
VERTEX
  8
0
 62
7
  6
CONTINUOUS
 10
-35.3416913856
 20
315.7097902333
  0
VERTEX
  8
0
 62
7
  6
CONTINUOUS
 10
-35.681387036
 20
315.2682732685
  0
VERTEX
  8
0
 62
7
  6
CONTINUOUS
 10
-36.0043009059
 20
314.8143485497
  0
VERTEX
  8
0
 62
7
  6
CONTINUOUS
 10
-36.3099964275
 20
314.348628394
  0
VERTEX
  8
0
 62
7
  6
CONTINUOUS
 10
-36.5980577218
 20
313.8717439063
  0
VERTEX
  8
0
 62
7
  6
CONTINUOUS
 10
-36.8680907318
 20
313.3843398041
  0
VERTEX
  8
0
 62
7
  6
CONTINUOUS
 10
-37.1197268102
 20
312.8870722061
  0
VERTEX
  8
0
 62
7
  6
CONTINUOUS
 10
-37.3526189213
 20
312.3806105807
  0
VERTEX
  8
0
 62
7
  6
CONTINUOUS
 10
-37.5664455827
 20
311.8656346464
  0
VERTEX
  8
0
 62
7
  6
CONTINUOUS
 10
-37.7609080104
 20
311.3428349054
  0
VERTEX
  8
0
 62
7
  6
CONTINUOUS
 10
-37.9357320833
 20
310.8129140923
  0
VERTEX
  8
0
 62
7
  6
CONTINUOUS
 10
-38.0906683562
 20
310.2765804061
  0
VERTEX
  8
0
 62
7
  6
CONTINUOUS
 10
-38.2254896534
 20
309.7345646516
  0
VERTEX
  8
0
 62
7
  6
CONTINUOUS
 10
-38.3399955376
 20
309.187599997
  0
VERTEX
  8
0
 62
7
  6
CONTINUOUS
 10
-38.4340114949
 20
308.6364360835
  0
VERTEX
  8
0
 62
7
  6
CONTINUOUS
 10
-38.5073897569
 20
308.0818284323
  0
VERTEX
  8
0
 62
7
  6
CONTINUOUS
 10
-38.560011796
 20
307.5245308971
  0
VERTEX
  8
0
 62
7
  6
CONTINUOUS
 10
-38.591787302
 20
306.9653004096
  0
VERTEX
  8
0
 62
7
  6
CONTINUOUS
 10
-38.602645178
 20
306.4049098033
  0
SEQEND
  0
POLYLINE
  8
0
 62
7
  6
CONTINUOUS
 66
1
 70
0
  0
VERTEX
  8
0
 62
7
  6
CONTINUOUS
 10
-28.8247163349
 20
326.5128219029
  0
VERTEX
  8
0
 62
7
  6
CONTINUOUS
 10
-29.3685133009
 20
326.5036908257
  0
VERTEX
  8
0
 62
7
  6
CONTINUOUS
 10
-29.9072088757
 20
326.475240907
  0
VERTEX
  8
0
 62
7
  6
CONTINUOUS
 10
-30.4389739988
 20
326.4280903103
  0
VERTEX
  8
0
 62
7
  6
CONTINUOUS
 10
-30.9666872106
 20
326.3623693913
  0
VERTEX
  8
0
 62
7
  6
CONTINUOUS
 10
-31.4933659636
 20
326.2777079356
  0
VERTEX
  8
0
 62
7
  6
CONTINUOUS
 10
-32.0166507072
 20
326.1743792197
  0
VERTEX
  8
0
 62
7
  6
CONTINUOUS
 10
-32.5354095745
 20
326.0526180573
  0
VERTEX
  8
0
 62
7
  6
CONTINUOUS
 10
-33.0490489352
 20
325.9126011843
  0
VERTEX
  8
0
 62
7
  6
CONTINUOUS
 10
-33.5567785083
 20
325.7545864841
  0
VERTEX
  8
0
 62
7
  6
CONTINUOUS
 10
-34.058121955
 20
325.5787667312
  0
VERTEX
  8
0
 62
7
  6
CONTINUOUS
 10
-34.552513852
 20
325.3853728443
  0
VERTEX
  8
0
 62
7
  6
CONTINUOUS
 10
-35.0394691468
 20
325.1746173916
  0
VERTEX
  8
0
 62
7
  6
CONTINUOUS
 10
-35.5185325179
 20
324.9467027793
  0
VERTEX
  8
0
 62
7
  6
CONTINUOUS
 10
-35.9890714618
 20
324.7019286537
  0
VERTEX
  8
0
 62
7
  6
CONTINUOUS
 10
-36.4505297305
 20
324.440582067
  0
VERTEX
  8
0
 62
7
  6
CONTINUOUS
 10
-36.9022808249
 20
324.1630182555
  0
VERTEX
  8
0
 62
7
  6
CONTINUOUS
 10
-37.3437201318
 20
323.869614413
  0
VERTEX
  8
0
 62
7
  6
CONTINUOUS
 10
-37.7743124509
 20
323.5607361064
  0
VERTEX
  8
0
 62
7
  6
CONTINUOUS
 10
-38.1935114167
 20
323.2367840586
  0
VERTEX
  8
0
 62
7
  6
CONTINUOUS
 10
-38.6008286883
 20
322.8981446722
  0
VERTEX
  8
0
 62
7
  6
CONTINUOUS
 10
-38.9957755078
 20
322.5452279799
  0
VERTEX
  8
0
 62
7
  6
CONTINUOUS
 10
-39.3778823451
 20
322.1784549883
  0
VERTEX
  8
0
 62
7
  6
CONTINUOUS
 10
-39.7466918613
 20
321.7982603544
  0
VERTEX
  8
0
 62
7
  6
CONTINUOUS
 10
-40.1017568116
 20
321.405098088
  0
VERTEX
  8
0
 62
7
  6
CONTINUOUS
 10
-40.4426527232
 20
320.9994244257
  0
VERTEX
  8
0
 62
7
  6
CONTINUOUS
 10
-40.7689382084
 20
320.5817500648
  0
VERTEX
  8
0
 62
7
  6
CONTINUOUS
 10
-41.080207802
 20
320.1525765473
  0
VERTEX
  8
0
 62
7
  6
CONTINUOUS
 10
-41.3760354422
 20
319.7124786449
  0
VERTEX
  8
0
 62
7
  6
CONTINUOUS
 10
-41.6560167106
 20
319.2620529142
  0
VERTEX
  8
0
 62
7
  6
CONTINUOUS
 10
-41.919818827
 20
318.8018344487
  0
VERTEX
  8
0
 62
7
  6
CONTINUOUS
 10
-42.1670945133
 20
318.3324268308
  0
VERTEX
  8
0
 62
7
  6
CONTINUOUS
 10
-42.3975949838
 20
317.8542894123
  0
VERTEX
  8
0
 62
7
  6
CONTINUOUS
 10
-42.611050316
 20
317.3679399342
  0
VERTEX
  8
0
 62
7
  6
CONTINUOUS
 10
-42.8072258015
 20
316.8738381606
  0
VERTEX
  8
0
 62
7
  6
CONTINUOUS
 10
-42.98594881
 20
316.3722644903
  0
VERTEX
  8
0
 62
7
  6
CONTINUOUS
 10
-43.1467838075
 20
315.8643008428
  0
VERTEX
  8
0
 62
7
  6
CONTINUOUS
 10
-43.2891337458
 20
315.3520269432
  0
VERTEX
  8
0
 62
7
  6
CONTINUOUS
 10
-43.413670737
 20
314.832860922
  0
VERTEX
  8
0
 62
7
  6
CONTINUOUS
 10
-43.5206147758
 20
314.3042193382
  0
VERTEX
  8
0
 62
7
  6
CONTINUOUS
 10
-43.6090951438
 20
313.7678587779
  0
VERTEX
  8
0
 62
7
  6
CONTINUOUS
 10
-43.6786142965
 20
313.2238907278
  0
VERTEX
  8
0
 62
7
  6
CONTINUOUS
 10
-43.7284459579
 20
312.6748909024
  0
VERTEX
  8
0
 62
7
  6
CONTINUOUS
 10
-43.7581612425
 20
312.1235373757
  0
VERTEX
  8
0
 62
7
  6
CONTINUOUS
 10
-43.7676368062
 20
311.5699014315
  0
SEQEND
  0
POLYLINE
  8
0
 62
7
  6
CONTINUOUS
 66
1
 70
0
  0
VERTEX
  8
0
 62
7
  6
CONTINUOUS
 10
-24.1319333847
 20
315.61686006
  0
VERTEX
  8
0
 62
7
  6
CONTINUOUS
 10
-24.4730922756
 20
315.6120282723
  0
VERTEX
  8
0
 62
7
  6
CONTINUOUS
 10
-24.8130880925
 20
315.5945925368
  0
VERTEX
  8
0
 62
7
  6
CONTINUOUS
 10
-25.1521598336
 20
315.5645205645
  0
VERTEX
  8
0
 62
7
  6
CONTINUOUS
 10
-25.4895908871
 20
315.521909545
  0
VERTEX
  8
0
 62
7
  6
CONTINUOUS
 10
-25.8248956333
 20
315.4668072578
  0
VERTEX
  8
0
 62
7
  6
CONTINUOUS
 10
-26.1576194055
 20
315.3993299888
  0
VERTEX
  8
0
 62
7
  6
CONTINUOUS
 10
-26.4872934356
 20
315.3195604521
  0
VERTEX
  8
0
 62
7
  6
CONTINUOUS
 10
-26.8134737257
 20
315.2276474666
  0
VERTEX
  8
0
 62
7
  6
CONTINUOUS
 10
-27.1357024654
 20
315.1237078042
  0
VERTEX
  8
0
 62
7
  6
CONTINUOUS
 10
-27.4535516709
 20
315.0079206146
  0
VERTEX
  8
0
 62
7
  6
CONTINUOUS
 10
-27.7665783716
 20
314.8804343256
  0
VERTEX
  8
0
 62
7
  6
CONTINUOUS
 10
-28.0743691144
 20
314.7414581346
  0
VERTEX
  8
0
 62
7
  6
CONTINUOUS
 10
-28.3764943414
 20
314.5911716882
  0
VERTEX
  8
0
 62
7
  6
CONTINUOUS
 10
-28.6725588654
 20
314.4298122846
  0
VERTEX
  8
0
 62
7
  6
CONTINUOUS
 10
-28.9621495974
 20
314.2575890005
  0
VERTEX
  8
0
 62
7
  6
CONTINUOUS
 10
-29.2448902449
 20
314.0747663176
  0
VERTEX
  8
0
 62
7
  6
CONTINUOUS
 10
-29.5203846876
 20
313.8815821949
  0
VERTEX
  8
0
 62
7
  6
CONTINUOUS
 10
-29.7882789869
 20
313.6783253957
  0
VERTEX
  8
0
 62
7
  6
CONTINUOUS
 10
-30.0481979433
 20
313.4652596738
  0
VERTEX
  8
0
 62
7
  6
CONTINUOUS
 10
-30.2998090044
 20
313.2426980796
  0
VERTEX
  8
0
 62
7
  6
CONTINUOUS
 10
-30.542757126
 20
313.010930254
  0
VERTEX
  8
0
 62
7
  6
CONTINUOUS
 10
-30.776734499
 20
312.7702901861
  0
VERTEX
  8
0
 62
7
  6
CONTINUOUS
 10
-31.0014096171
 20
312.5210899971
  0
VERTEX
  8
0
 62
7
  6
CONTINUOUS
 10
-31.216498577
 20
312.2636848816
  0
VERTEX
  8
0
 62
7
  6
CONTINUOUS
 10
-31.4216928672
 20
311.9984095701
  0
VERTEX
  8
0
 62
7
  6
CONTINUOUS
 10
-31.6167349932
 20
311.7256374692
  0
VERTEX
  8
0
 62
7
  6
CONTINUOUS
 10
-31.8013419086
 20
311.445722721
  0
VERTEX
  8
0
 62
7
  6
CONTINUOUS
 10
-31.9752820806
 20
311.1590576877
  0
VERTEX
  8
0
 62
7
  6
CONTINUOUS
 10
-32.1382972141
 20
310.8660173166
  0
VERTEX
  8
0
 62
7
  6
CONTINUOUS
 10
-32.2901850072
 20
310.5670077789
  0
VERTEX
  8
0
 62
7
  6
CONTINUOUS
 10
-32.4307150089
 20
310.2624204497
  0
VERTEX
  8
0
 62
7
  6
CONTINUOUS
 10
-32.5597139509
 20
309.9526744008
  0
VERTEX
  8
0
 62
7
  6
CONTINUOUS
 10
-32.6769799818
 20
309.6381751662
  0
VERTEX
  8
0
 62
7
  6
CONTINUOUS
 10
-32.7823690898
 20
309.3193544282
  0
VERTEX
  8
0
 62
7
  6
CONTINUOUS
 10
-32.8757083671
 20
308.9966297812
  0
VERTEX
  8
0
 62
7
  6
CONTINUOUS
 10
-32.9568834374
 20
308.6704486766
  0
VERTEX
  8
0
 62
7
  6
CONTINUOUS
 10
-33.0257497266
 20
308.3412451543
  0
VERTEX
  8
0
 62
7
  6
CONTINUOUS
 10
-33.0822257942
 20
308.0094766604
  0
VERTEX
  8
0
 62
7
  6
CONTINUOUS
 10
-33.1262021084
 20
307.6754843979
  0
VERTEX
  8
0
 62
7
  6
CONTINUOUS
 10
-33.1576193073
 20
307.3400507248
  0
VERTEX
  8
0
 62
7
  6
CONTINUOUS
 10
-33.1763701444
 20
307.004183458
  0
VERTEX
  8
0
 62
7
  6
CONTINUOUS
 10
-33.1824901848
 20
306.6675467879
  0
SEQEND
  0
LINE
  8
0
 62
7
  6
CONTINUOUS
 10
421.0327043836
 20
316.7124807131
 11
418.5327043836
 21
316.7124807131
  0
LINE
  8
0
 62
7
  6
CONTINUOUS
 10
-48.9672956164
 20
316.7124807131
 11
-46.4672956164
 21
316.7124807131
  0
LINE
  8
0
 62
7
  6
CONTINUOUS
 10
400.890125102
 20
326.5128219029
 11
-28.8247163349
 21
326.5128219029
  0
LINE
  8
0
 62
7
  6
CONTINUOUS
 10
400.890125102
 20
329.0033086481
 11
-28.8247163349
 21
329.0033086481
  0
LINE
  8
0
 62
7
  6
CONTINUOUS
 10
-33.9672956164
 20
329.2124807131
 11
406.0327043836
 21
329.2124807131
  0
LINE
  8
0
 62
7
  6
CONTINUOUS
 10
-33.9672956164
 20
331.7124807131
 11
406.0327043836
 21
331.7124807131
  0
POLYLINE
  8
0
 62
7
  6
CONTINUOUS
 66
1
 70
0
  0
VERTEX
  8
0
 62
7
  6
CONTINUOUS
 10
-24.1319333847
 20
315.61686006
  0
VERTEX
  8
0
 62
7
  6
CONTINUOUS
 10
-10.1736005894
 20
315.556707424
  0
VERTEX
  8
0
 62
7
  6
CONTINUOUS
 10
3.7786919721
 20
315.5006453429
  0
VERTEX
  8
0
 62
7
  6
CONTINUOUS
 10
17.7242154667
 20
315.4486698701
  0
VERTEX
  8
0
 62
7
  6
CONTINUOUS
 10
31.6632600374
 20
315.400791118
  0
VERTEX
  8
0
 62
7
  6
CONTINUOUS
 10
45.5955908636
 20
315.3570164512
  0
VERTEX
  8
0
 62
7
  6
CONTINUOUS
 10
59.5220466337
 20
315.3173503443
  0
VERTEX
  8
0
 62
7
  6
CONTINUOUS
 10
73.4430240261
 20
315.2817982024
  0
VERTEX
  8
0
 62
7
  6
CONTINUOUS
 10
87.3596128596
 20
315.2503647815
  0
VERTEX
  8
0
 62
7
  6
CONTINUOUS
 10
101.2727463546
 20
315.2230549548
  0
VERTEX
  8
0
 62
7
  6
CONTINUOUS
 10
115.1832916055
 20
315.1998739615
  0
VERTEX
  8
0
 62
7
  6
CONTINUOUS
 10
129.0921306583
 20
315.180827279
  0
VERTEX
  8
0
 62
7
  6
CONTINUOUS
 10
143.0001511888
 20
315.1659192561
  0
VERTEX
  8
0
 62
7
  6
CONTINUOUS
 10
156.9082012284
 20
315.1551550527
  0
VERTEX
  8
0
 62
7
  6
CONTINUOUS
 10
170.8172800991
 20
315.1485379071
  0
VERTEX
  8
0
 62
7
  6
CONTINUOUS
 10
184.7284400817
 20
315.146072178
  0
VERTEX
  8
0
 62
7
  6
CONTINUOUS
 10
198.6423677869
 20
315.1477598616
  0
VERTEX
  8
0
 62
7
  6
CONTINUOUS
 10
212.559579969
 20
315.1536039551
  0
VERTEX
  8
0
 62
7
  6
CONTINUOUS
 10
226.4816349516
 20
315.1636060159
  0
VERTEX
  8
0
 62
7
  6
CONTINUOUS
 10
240.4110059454
 20
315.177770466
  0
VERTEX
  8
0
 62
7
  6
CONTINUOUS
 10
254.3454596242
 20
315.1960919041
  0
VERTEX
  8
0
 62
7
  6
CONTINUOUS
 10
268.2824074964
 20
315.2185660104
  0
VERTEX
  8
0
 62
7
  6
CONTINUOUS
 10
282.2253907706
 20
315.245194183
  0
VERTEX
  8
0
 62
7
  6
CONTINUOUS
 10
296.1633058153
 20
315.2759326454
  0
VERTEX
  8
0
 62
7
  6
CONTINUOUS
 10
310.1374895286
 20
315.3109127842
  0
VERTEX
  8
0
 62
7
  6
CONTINUOUS
 10
324.170726989
 20
315.3501687349
  0
VERTEX
  8
0
 62
7
  6
CONTINUOUS
 10
338.3073515906
 20
315.3939484061
  0
VERTEX
  8
0
 62
7
  6
CONTINUOUS
 10
352.6154436712
 20
315.4425280457
  0
VERTEX
  8
0
 62
7
  6
CONTINUOUS
 10
367.0461066394
 20
315.4958566837
  0
VERTEX
  8
0
 62
7
  6
CONTINUOUS
 10
381.5702141984
 20
315.5539805615
  0
VERTEX
  8
0
 62
7
  6
CONTINUOUS
 10
396.1965859135
 20
315.6168847818
  0
SEQEND
  0
POLYLINE
  8
0
 62
7
  6
CONTINUOUS
 66
1
 70
0
  0
VERTEX
  8
0
 62
7
  6
CONTINUOUS
 10
-23.6251246202
 20
321.3132301883
  0
VERTEX
  8
0
 62
7
  6
CONTINUOUS
 10
-9.7002410303
 20
321.2128590745
  0
VERTEX
  8
0
 62
7
  6
CONTINUOUS
 10
4.2181496951
 20
321.1193806318
  0
VERTEX
  8
0
 62
7
  6
CONTINUOUS
 10
18.1300321339
 20
321.0327953292
  0
VERTEX
  8
0
 62
7
  6
CONTINUOUS
 10
32.035452552
 20
320.9531017596
  0
VERTEX
  8
0
 62
7
  6
CONTINUOUS
 10
45.934171314
 20
320.8803008936
  0
VERTEX
  8
0
 62
7
  6
CONTINUOUS
 10
59.8270307013
 20
320.814386068
  0
VERTEX
  8
0
 62
7
  6
CONTINUOUS
 10
73.714430536
 20
320.7553525135
  0
VERTEX
  8
0
 62
7
  6
CONTINUOUS
 10
87.5974585602
 20
320.7031955198
  0
VERTEX
  8
0
 62
7
  6
CONTINUOUS
 10
101.4770477538
 20
320.6579091998
  0
VERTEX
  8
0
 62
7
  6
CONTINUOUS
 10
115.3540622255
 20
320.6194923143
  0
VERTEX
  8
0
 62
7
  6
CONTINUOUS
 10
129.229382566
 20
320.5879413898
  0
VERTEX
  8
0
 62
7
  6
CONTINUOUS
 10
143.1038923093
 20
320.5632572436
  0
VERTEX
  8
0
 62
7
  6
CONTINUOUS
 10
156.9784371038
 20
320.545438524
  0
VERTEX
  8
0
 62
7
  6
CONTINUOUS
 10
170.8540111972
 20
320.5344882638
  0
VERTEX
  8
0
 62
7
  6
CONTINUOUS
 10
184.7316633663
 20
320.5304073036
  0
VERTEX
  8
0
 62
7
  6
CONTINUOUS
 10
198.6120756732
 20
320.5332008675
  0
VERTEX
  8
0
 62
7
  6
CONTINUOUS
 10
212.4957625991
 20
320.5428715897
  0
VERTEX
  8
0
 62
7
  6
CONTINUOUS
 10
226.384275664
 20
320.5594280796
  0
VERTEX
  8
0
 62
7
  6
CONTINUOUS
 10
240.2800806527
 20
320.5828795807
  0
VERTEX
  8
0
 62
7
  6
CONTINUOUS
 10
254.1809492518
 20
320.6132268254
  0
VERTEX
  8
0
 62
7
  6
CONTINUOUS
 10
268.0842975623
 20
320.6504686951
  0
VERTEX
  8
0
 62
7
  6
CONTINUOUS
 10
281.9936581253
 20
320.6946199874
  0
VERTEX
  8
0
 62
7
  6
CONTINUOUS
 10
295.8979703569
 20
320.7456176022
  0
VERTEX
  8
0
 62
7
  6
CONTINUOUS
 10
309.8384297341
 20
320.8036941146
  0
VERTEX
  8
0
 62
7
  6
CONTINUOUS
 10
323.8378344503
 20
320.8689182883
  0
VERTEX
  8
0
 62
7
  6
CONTINUOUS
 10
337.9403157735
 20
320.9417184572
  0
VERTEX
  8
0
 62
7
  6
CONTINUOUS
 10
352.2138206223
 20
321.022568481
  0
VERTEX
  8
0
 62
7
  6
CONTINUOUS
 10
366.6097002384
 20
321.1114005458
  0
VERTEX
  8
0
 62
7
  6
CONTINUOUS
 10
381.0987048631
 20
321.2083160585
  0
VERTEX
  8
0
 62
7
  6
CONTINUOUS
 10
395.690584416
 20
321.3132812169
  0
SEQEND
  0
LINE
  8
0
 62
7
  6
CONTINUOUS
 10
407.3750543514
 20
306.630862539
 11
407.8602977281
 21
306.617038628
  0
LINE
  8
0
 62
7
  6
CONTINUOUS
 10
407.8602977281
 20
306.617038628
 11
408.3183197718
 21
306.6013927843
  0
LINE
  8
0
 62
7
  6
CONTINUOUS
 10
408.3183197718
 20
306.6013927843
 11
408.7451865213
 21
306.5840593894
  0
POLYLINE
  8
0
 62
7
  6
CONTINUOUS
 66
1
 70
0
  0
VERTEX
  8
0
 62
7
  6
CONTINUOUS
 10
408.7451865213
 20
306.5840593894
  0
VERTEX
  8
0
 62
7
  6
CONTINUOUS
 10
409.1372317107
 20
306.5651873162
  0
VERTEX
  8
0
 62
7
  6
CONTINUOUS
 10
409.3191314797
 20
306.555224449
  0
VERTEX
  8
0
 62
7
  6
CONTINUOUS
 10
409.4910881439
 20
306.5449386531
  0
VERTEX
  8
0
 62
7
  6
CONTINUOUS
 10
409.6527322753
 20
306.5343520264
  0
VERTEX
  8
0
 62
7
  6
CONTINUOUS
 10
409.8037166175
 20
306.5234873119
  0
VERTEX
  8
0
 62
7
  6
CONTINUOUS
 10
409.943716822
 20
306.5123678491
  0
VERTEX
  8
0
 62
7
  6
CONTINUOUS
 10
410.0724320806
 20
306.5010175292
  0
VERTEX
  8
0
 62
7
  6
CONTINUOUS
 10
410.1895858338
 20
306.4894607406
  0
VERTEX
  8
0
 62
7
  6
CONTINUOUS
 10
410.2949264416
 20
306.4777223074
  0
VERTEX
  8
0
 62
7
  6
CONTINUOUS
 10
410.3882276238
 20
306.4658274442
  0
VERTEX
  8
0
 62
7
  6
CONTINUOUS
 10
410.4692889093
 20
306.453801708
  0
VERTEX
  8
0
 62
7
  6
CONTINUOUS
 10
410.53793617
 20
306.4416709299
  0
VERTEX
  8
0
 62
7
  6
CONTINUOUS
 10
410.5940218408
 20
306.4294611886
  0
VERTEX
  8
0
 62
7
  6
CONTINUOUS
 10
410.6374254141
 20
306.4171987331
  0
VERTEX
  8
0
 62
7
  6
CONTINUOUS
 10
410.6680537513
 20
306.4049099017
  0
SEQEND
  0
POLYLINE
  8
0
 62
7
  6
CONTINUOUS
 66
1
 70
0
  0
VERTEX
  8
0
 62
7
  6
CONTINUOUS
 10
-28.8247163349
 20
329.0033086481
  0
VERTEX
  8
0
 62
7
  6
CONTINUOUS
 10
-29.4587446459
 20
328.9915843459
  0
VERTEX
  8
0
 62
7
  6
CONTINUOUS
 10
-30.0860964154
 20
328.9579362534
  0
VERTEX
  8
0
 62
7
  6
CONTINUOUS
 10
-30.7057885637
 20
328.9023530926
  0
VERTEX
  8
0
 62
7
  6
CONTINUOUS
 10
-31.3207703298
 20
328.8248686978
  0
VERTEX
  8
0
 62
7
  6
CONTINUOUS
 10
-31.9345773489
 20
328.7254192499
  0
VERTEX
  8
0
 62
7
  6
CONTINUOUS
 10
-32.5444673522
 20
328.6042864318
  0
VERTEX
  8
0
 62
7
  6
CONTINUOUS
 10
-33.1491007779
 20
328.4616365864
  0
VERTEX
  8
0
 62
7
  6
CONTINUOUS
 10
-33.74780514
 20
328.2977519151
  0
VERTEX
  8
0
 62
7
  6
CONTINUOUS
 10
-34.3396421911
 20
328.112885043
  0
VERTEX
  8
0
 62
7
  6
CONTINUOUS
 10
-34.9240696525
 20
327.9072910419
  0
VERTEX
  8
0
 62
7
  6
CONTINUOUS
 10
-35.5004184686
 20
327.681221934
  0
VERTEX
  8
0
 62
7
  6
CONTINUOUS
 10
-36.0681307227
 20
327.4349394923
  0
VERTEX
  8
0
 62
7
  6
CONTINUOUS
 10
-36.6266665722
 20
327.1686635048
  0
VERTEX
  8
0
 62
7
  6
CONTINUOUS
 10
-37.1753027402
 20
326.882771948
  0
VERTEX
  8
0
 62
7
  6
CONTINUOUS
 10
-37.713371813
 20
326.5775644835
  0
VERTEX
  8
0
 62
7
  6
CONTINUOUS
 10
-38.2401663585
 20
326.2534958447
  0
VERTEX
  8
0
 62
7
  6
CONTINUOUS
 10
-38.7549564058
 20
325.9109665584
  0
VERTEX
  8
0
 62
7
  6
CONTINUOUS
 10
-39.2571421572
 20
325.5504389059
  0
VERTEX
  8
0
 62
7
  6
CONTINUOUS
 10
-39.7460628498
 20
325.1723489458
  0
VERTEX
  8
0
 62
7
  6
CONTINUOUS
 10
-40.2211714076
 20
324.7771758727
  0
VERTEX
  8
0
 62
7
  6
CONTINUOUS
 10
-40.6818755611
 20
324.3653720969
  0
VERTEX
  8
0
 62
7
  6
CONTINUOUS
 10
-41.1276501289
 20
323.9374540298
  0
VERTEX
  8
0
 62
7
  6
CONTINUOUS
 10
-41.557938416
 20
323.4939042546
  0
VERTEX
  8
0
 62
7
  6
CONTINUOUS
 10
-41.9722426936
 20
323.0352766667
  0
VERTEX
  8
0
 62
7
  6
CONTINUOUS
 10
-42.3700415853
 20
322.5620788238
  0
VERTEX
  8
0
 62
7
  6
CONTINUOUS
 10
-42.7508493391
 20
322.074932322
  0
VERTEX
  8
0
 62
7
  6
CONTINUOUS
 10
-43.1141595863
 20
321.5743950955
  0
VERTEX
  8
0
 62
7
  6
CONTINUOUS
 10
-43.4595128001
 20
321.0611656871
  0
VERTEX
  8
0
 62
7
  6
CONTINUOUS
 10
-43.7863986792
 20
320.5359132667
  0
VERTEX
  8
0
 62
7
  6
CONTINUOUS
 10
-44.0944631781
 20
319.9992838873
  0
VERTEX
  8
0
 62
7
  6
CONTINUOUS
 10
-44.3832727062
 20
319.4519641925
  0
VERTEX
  8
0
 62
7
  6
CONTINUOUS
 10
-44.6525555974
 20
318.8945015812
  0
VERTEX
  8
0
 62
7
  6
CONTINUOUS
 10
-44.9019843483
 20
318.3274909888
  0
VERTEX
  8
0
 62
7
  6
CONTINUOUS
 10
-45.1312928795
 20
317.7514764492
  0
VERTEX
  8
0
 62
7
  6
CONTINUOUS
 10
-45.3402489143
 20
317.1667697263
  0
VERTEX
  8
0
 62
7
  6
CONTINUOUS
 10
-45.5284235414
 20
316.5746625656
  0
VERTEX
  8
0
 62
7
  6
CONTINUOUS
 10
-45.6951580518
 20
315.9775743176
  0
VERTEX
  8
0
 62
7
  6
CONTINUOUS
 10
-45.8409095621
 20
315.3724339311
  0
VERTEX
  8
0
 62
7
  6
CONTINUOUS
 10
-45.9662816289
 20
314.7562857425
  0
VERTEX
  8
0
 62
7
  6
CONTINUOUS
 10
-46.0701762223
 20
314.1312029394
  0
VERTEX
  8
0
 62
7
  6
CONTINUOUS
 10
-46.1518834362
 20
313.4972479746
  0
VERTEX
  8
0
 62
7
  6
CONTINUOUS
 10
-46.2108424548
 20
312.857497389
  0
VERTEX
  8
0
 62
7
  6
CONTINUOUS
 10
-46.2461561451
 20
312.2154357112
  0
VERTEX
  8
0
 62
7
  6
CONTINUOUS
 10
-46.2581235515
 20
311.5699014315
  0
SEQEND
  0
LINE
  8
0
 62
7
  6
CONTINUOUS
 10
396.1666227085
 20
317.0305775163
 11
396.1822746109
 21
316.4722555376
  0
POLYLINE
  8
0
 62
7
  6
CONTINUOUS
 66
1
 70
0
  0
VERTEX
  8
0
 62
7
  6
CONTINUOUS
 10
396.1822746109
 20
316.4722555376
  0
VERTEX
  8
0
 62
7
  6
CONTINUOUS
 10
396.193416813
 20
315.9035135649
  0
VERTEX
  8
0
 62
7
  6
CONTINUOUS
 10
396.1972631995
 20
315.616862641
  0
SEQEND
  0
LINE
  8
0
 62
7
  6
CONTINUOUS
 10
405.245445039
 20
1.0148197733
 11
405.2478913415
 21
-3.2427916467
  0
LINE
  8
0
 62
7
  6
CONTINUOUS
 10
405.2389403186
 20
14.2174918037
 11
405.245445039
 21
1.0148197733
  0
LINE
  8
0
 62
7
  6
CONTINUOUS
 10
405.2338274047
 20
27.2402139761
 11
405.2389403186
 21
14.2174918037
  0
LINE
  8
0
 62
7
  6
CONTINUOUS
 10
400.890125102
 20
-23.0878604767
 11
400.890125102
 21
-25.578347222
  0
LINE
  8
0
 62
7
  6
CONTINUOUS
 10
400.890125102
 20
326.5128219029
 11
400.890125102
 21
329.0033086481
  0
LINE
  8
0
 62
7
  6
CONTINUOUS
 10
405.2267078797
 20
192.5850029917
 11
405.2283666588
 21
137.7257563379
  0
LINE
  8
0
 62
7
  6
CONTINUOUS
 10
405.226396958
 20
240.8374327656
 11
405.2267078797
 21
192.5850029917
  0
POLYLINE
  8
0
 62
7
  6
CONTINUOUS
 66
1
 70
0
  0
VERTEX
  8
0
 62
7
  6
CONTINUOUS
 10
405.2283666588
 20
137.7257563379
  0
VERTEX
  8
0
 62
7
  6
CONTINUOUS
 10
405.2270646124
 20
116.1561584011
  0
VERTEX
  8
0
 62
7
  6
CONTINUOUS
 10
405.2338274047
 20
27.2402139761
  0
SEQEND
  0
LINE
  8
0
 62
7
  6
CONTINUOUS
 10
405.2310782766
 20
267.0692022856
 11
405.226396958
 21
240.8374327656
  0
LINE
  8
0
 62
7
  6
CONTINUOUS
 10
405.2480729323
 20
306.6628308744
 11
405.2310782766
 21
267.0692022856
  0
LINE
  8
0
 62
7
  6
CONTINUOUS
 10
396.1972631313
 20
-12.191901285
 11
396.1884167288
 21
-12.7639011955
  0
POLYLINE
  8
0
 62
7
  6
CONTINUOUS
 66
1
 70
0
  0
VERTEX
  8
0
 62
7
  6
CONTINUOUS
 10
396.1884167288
 20
-12.7639011955
  0
VERTEX
  8
0
 62
7
  6
CONTINUOUS
 10
396.175004295
 20
-13.3280802475
  0
VERTEX
  8
0
 62
7
  6
CONTINUOUS
 10
396.1666226494
 20
-13.6056158799
  0
VERTEX
  8
0
 62
7
  6
CONTINUOUS
 10
396.1571488379
 20
-13.8792642203
  0
VERTEX
  8
0
 62
7
  6
CONTINUOUS
 10
396.1466045911
 20
-14.1483975632
  0
VERTEX
  8
0
 62
7
  6
CONTINUOUS
 10
396.1350141014
 20
-14.4123984118
  0
VERTEX
  8
0
 62
7
  6
CONTINUOUS
 10
396.1224039628
 20
-14.6706610389
  0
VERTEX
  8
0
 62
7
  6
CONTINUOUS
 10
396.1088030999
 20
-14.9225930717
  0
VERTEX
  8
0
 62
7
  6
CONTINUOUS
 10
396.0942427094
 20
-15.1676166389
  0
VERTEX
  8
0
 62
7
  6
CONTINUOUS
 10
396.0787561963
 20
-15.4051695862
  0
VERTEX
  8
0
 62
7
  6
CONTINUOUS
 10
396.0623790897
 20
-15.6347069225
  0
VERTEX
  8
0
 62
7
  6
CONTINUOUS
 10
396.0451489586
 20
-15.8557020908
  0
VERTEX
  8
0
 62
7
  6
CONTINUOUS
 10
396.0271053296
 20
-16.0676481195
  0
VERTEX
  8
0
 62
7
  6
CONTINUOUS
 10
396.0082895961
 20
-16.2700587909
  0
VERTEX
  8
0
 62
7
  6
CONTINUOUS
 10
395.9887449218
 20
-16.4624697661
  0
VERTEX
  8
0
 62
7
  6
CONTINUOUS
 10
395.9685161445
 20
-16.6444396336
  0
VERTEX
  8
0
 62
7
  6
CONTINUOUS
 10
395.9476496725
 20
-16.8155509256
  0
VERTEX
  8
0
 62
7
  6
CONTINUOUS
 10
395.9261933703
 20
-16.9754111405
  0
VERTEX
  8
0
 62
7
  6
CONTINUOUS
 10
395.9041964518
 20
-17.1236535964
  0
VERTEX
  8
0
 62
7
  6
CONTINUOUS
 10
395.8817093904
 20
-17.2599381332
  0
VERTEX
  8
0
 62
7
  6
CONTINUOUS
 10
395.8587837867
 20
-17.3839520377
  0
VERTEX
  8
0
 62
7
  6
CONTINUOUS
 10
395.83547222
 20
-17.4954109033
  0
VERTEX
  8
0
 62
7
  6
CONTINUOUS
 10
395.8118281557
 20
-17.5940590884
  0
VERTEX
  8
0
 62
7
  6
CONTINUOUS
 10
395.7879058434
 20
-17.6796702397
  0
VERTEX
  8
0
 62
7
  6
CONTINUOUS
 10
395.7637601723
 20
-17.7520479289
  0
VERTEX
  8
0
 62
7
  6
CONTINUOUS
 10
395.7394465187
 20
-17.8110261632
  0
VERTEX
  8
0
 62
7
  6
CONTINUOUS
 10
395.7150206457
 20
-17.8564696517
  0
VERTEX
  8
0
 62
7
  6
CONTINUOUS
 10
395.6905385923
 20
-17.8882741035
  0
SEQEND
  0
POLYLINE
  8
0
 62
7
  6
CONTINUOUS
 66
1
 70
0
  0
VERTEX
  8
0
 62
7
  6
CONTINUOUS
 10
410.6680539451
 20
306.4049098033
  0
VERTEX
  8
0
 62
7
  6
CONTINUOUS
 10
410.6571960566
 20
306.9653007244
  0
VERTEX
  8
0
 62
7
  6
CONTINUOUS
 10
410.6254205948
 20
307.5245304785
  0
VERTEX
  8
0
 62
7
  6
CONTINUOUS
 10
410.5727988015
 20
308.0818259873
  0
VERTEX
  8
0
 62
7
  6
CONTINUOUS
 10
410.4994210164
 20
308.6364311001
  0
VERTEX
  8
0
 62
7
  6
CONTINUOUS
 10
410.4054057134
 20
309.1875925801
  0
VERTEX
  8
0
 62
7
  6
CONTINUOUS
 10
410.290900601
 20
309.7345551284
  0
VERTEX
  8
0
 62
7
  6
CONTINUOUS
 10
410.1560800421
 20
310.2765695439
  0
VERTEX
  8
0
 62
7
  6
CONTINUOUS
 10
410.0011444184
 20
310.8129025556
  0
VERTEX
  8
0
 62
7
  6
CONTINUOUS
 10
409.8263207742
 20
311.3428235118
  0
VERTEX
  8
0
 62
7
  6
CONTINUOUS
 10
409.6318586004
 20
311.8656238427
  0
VERTEX
  8
0
 62
7
  6
CONTINUOUS
 10
409.4180320484
 20
312.3806006109
  0
VERTEX
  8
0
 62
7
  6
CONTINUOUS
 10
409.1851400175
 20
312.8870630081
  0
VERTEX
  8
0
 62
7
  6
CONTINUOUS
 10
408.9335042254
 20
313.384330883
  0
VERTEX
  8
0
 62
7
  6
CONTINUOUS
 10
408.6634716135
 20
313.8717350519
  0
VERTEX
  8
0
 62
7
  6
CONTINUOUS
 10
408.3754108051
 20
314.3486194875
  0
VERTEX
  8
0
 62
7
  6
CONTINUOUS
 10
408.0697157973
 20
314.81433959
  0
VERTEX
  8
0
 62
7
  6
CONTINUOUS
 10
407.7468023655
 20
315.2682644003
  0
VERTEX
  8
0
 62
7
  6
CONTINUOUS
 10
407.4071070936
 20
315.7097815534
  0
VERTEX
  8
0
 62
7
  6
CONTINUOUS
 10
407.0510871579
 20
316.1382932508
  0
VERTEX
  8
0
 62
7
  6
CONTINUOUS
 10
406.6792227937
 20
316.5532170755
  0
VERTEX
  8
0
 62
7
  6
CONTINUOUS
 10
406.2920136154
 20
316.9539872746
  0
VERTEX
  8
0
 62
7
  6
CONTINUOUS
 10
405.8899794069
 20
317.3400570397
  0
VERTEX
  8
0
 62
7
  6
CONTINUOUS
 10
405.4736576848
 20
317.7108977489
  0
VERTEX
  8
0
 62
7
  6
CONTINUOUS
 10
405.0436086319
 20
318.0659976996
  0
VERTEX
  8
0
 62
7
  6
CONTINUOUS
 10
404.6004090166
 20
318.4048651207
  0
VERTEX
  8
0
 62
7
  6
CONTINUOUS
 10
404.1446543221
 20
318.7270291328
  0
VERTEX
  8
0
 62
7
  6
CONTINUOUS
 10
403.6769549262
 20
319.0320400052
  0
VERTEX
  8
0
 62
7
  6
CONTINUOUS
 10
403.197942825
 20
319.3194674575
  0
VERTEX
  8
0
 62
7
  6
CONTINUOUS
 10
402.708263678
 20
319.588903949
  0
VERTEX
  8
0
 62
7
  6
CONTINUOUS
 10
402.208579551
 20
319.8399653704
  0
VERTEX
  8
0
 62
7
  6
CONTINUOUS
 10
401.699565224
 20
320.0722909407
  0
VERTEX
  8
0
 62
7
  6
CONTINUOUS
 10
401.181911798
 20
320.2855437898
  0
VERTEX
  8
0
 62
7
  6
CONTINUOUS
 10
400.6563213686
 20
320.4794115956
  0
VERTEX
  8
0
 62
7
  6
CONTINUOUS
 10
400.1235099486
 20
320.6536075263
  0
VERTEX
  8
0
 62
7
  6
CONTINUOUS
 10
399.5842011876
 20
320.807870659
  0
VERTEX
  8
0
 62
7
  6
CONTINUOUS
 10
399.0391383344
 20
320.9419645556
  0
VERTEX
  8
0
 62
7
  6
CONTINUOUS
 10
398.4890691029
 20
321.0556804882
  0
VERTEX
  8
0
 62
7
  6
CONTINUOUS
 10
397.9347578107
 20
321.1488367565
  0
VERTEX
  8
0
 62
7
  6
CONTINUOUS
 10
397.3769752104
 20
321.2212798802
  0
VERTEX
  8
0
 62
7
  6
CONTINUOUS
 10
396.8164922823
 20
321.2728863313
  0
VERTEX
  8
0
 62
7
  6
CONTINUOUS
 10
396.2540883089
 20
321.303563405
  0
VERTEX
  8
0
 62
7
  6
CONTINUOUS
 10
395.6905386599
 20
321.3132354607
  0
SEQEND
  0
POLYLINE
  8
0
 62
7
  6
CONTINUOUS
 66
1
 70
0
  0
VERTEX
  8
0
 62
7
  6
CONTINUOUS
 10
418.3235323186
 20
311.5699014315
  0
VERTEX
  8
0
 62
7
  6
CONTINUOUS
 10
418.3118080163
 20
312.2039297426
  0
VERTEX
  8
0
 62
7
  6
CONTINUOUS
 10
418.2781599239
 20
312.8312815121
  0
VERTEX
  8
0
 62
7
  6
CONTINUOUS
 10
418.222576763
 20
313.4509736604
  0
VERTEX
  8
0
 62
7
  6
CONTINUOUS
 10
418.1450923683
 20
314.0659554264
  0
VERTEX
  8
0
 62
7
  6
CONTINUOUS
 10
418.0456429204
 20
314.6797624455
  0
VERTEX
  8
0
 62
7
  6
CONTINUOUS
 10
417.9245101023
 20
315.2896524488
  0
VERTEX
  8
0
 62
7
  6
CONTINUOUS
 10
417.7818602569
 20
315.8942858746
  0
VERTEX
  8
0
 62
7
  6
CONTINUOUS
 10
417.6179755856
 20
316.4929902366
  0
VERTEX
  8
0
 62
7
  6
CONTINUOUS
 10
417.4331087135
 20
317.0848272878
  0
VERTEX
  8
0
 62
7
  6
CONTINUOUS
 10
417.2275147123
 20
317.6692547492
  0
VERTEX
  8
0
 62
7
  6
CONTINUOUS
 10
417.0014456045
 20
318.2456035652
  0
VERTEX
  8
0
 62
7
  6
CONTINUOUS
 10
416.7551631628
 20
318.8133158194
  0
VERTEX
  8
0
 62
7
  6
CONTINUOUS
 10
416.4888871753
 20
319.3718516689
  0
VERTEX
  8
0
 62
7
  6
CONTINUOUS
 10
416.2029956185
 20
319.9204878369
  0
VERTEX
  8
0
 62
7
  6
CONTINUOUS
 10
415.897788154
 20
320.4585569097
  0
VERTEX
  8
0
 62
7
  6
CONTINUOUS
 10
415.5737195152
 20
320.9853514551
  0
VERTEX
  8
0
 62
7
  6
CONTINUOUS
 10
415.2311902289
 20
321.5001415025
  0
VERTEX
  8
0
 62
7
  6
CONTINUOUS
 10
414.8706625763
 20
322.0023272539
  0
VERTEX
  8
0
 62
7
  6
CONTINUOUS
 10
414.4925726163
 20
322.4912479464
  0
VERTEX
  8
0
 62
7
  6
CONTINUOUS
 10
414.0973995432
 20
322.9663565043
  0
VERTEX
  8
0
 62
7
  6
CONTINUOUS
 10
413.6855957674
 20
323.4270606578
  0
VERTEX
  8
0
 62
7
  6
CONTINUOUS
 10
413.2576777003
 20
323.8728352255
  0
VERTEX
  8
0
 62
7
  6
CONTINUOUS
 10
412.8141279251
 20
324.3031235126
  0
VERTEX
  8
0
 62
7
  6
CONTINUOUS
 10
412.3555003372
 20
324.7174277903
  0
VERTEX
  8
0
 62
7
  6
CONTINUOUS
 10
411.8823024943
 20
325.115226682
  0
VERTEX
  8
0
 62
7
  6
CONTINUOUS
 10
411.3951559925
 20
325.4960344357
  0
VERTEX
  8
0
 62
7
  6
CONTINUOUS
 10
410.894618766
 20
325.859344683
  0
VERTEX
  8
0
 62
7
  6
CONTINUOUS
 10
410.3813893576
 20
326.2046978967
  0
VERTEX
  8
0
 62
7
  6
CONTINUOUS
 10
409.8561369372
 20
326.5315837759
  0
VERTEX
  8
0
 62
7
  6
CONTINUOUS
 10
409.3195075578
 20
326.8396482747
  0
VERTEX
  8
0
 62
7
  6
CONTINUOUS
 10
408.772187863
 20
327.1284578029
  0
VERTEX
  8
0
 62
7
  6
CONTINUOUS
 10
408.2147252517
 20
327.397740694
  0
VERTEX
  8
0
 62
7
  6
CONTINUOUS
 10
407.6477146593
 20
327.6471694449
  0
VERTEX
  8
0
 62
7
  6
CONTINUOUS
 10
407.0717001197
 20
327.8764779762
  0
VERTEX
  8
0
 62
7
  6
CONTINUOUS
 10
406.4869933968
 20
328.085434011
  0
VERTEX
  8
0
 62
7
  6
CONTINUOUS
 10
405.8948862361
 20
328.2736086381
  0
VERTEX
  8
0
 62
7
  6
CONTINUOUS
 10
405.2977979881
 20
328.4403431485
  0
VERTEX
  8
0
 62
7
  6
CONTINUOUS
 10
404.6926576016
 20
328.5860946587
  0
VERTEX
  8
0
 62
7
  6
CONTINUOUS
 10
404.076509413
 20
328.7114667256
  0
VERTEX
  8
0
 62
7
  6
CONTINUOUS
 10
403.4514266099
 20
328.815361319
  0
VERTEX
  8
0
 62
7
  6
CONTINUOUS
 10
402.8174716451
 20
328.8970685329
  0
VERTEX
  8
0
 62
7
  6
CONTINUOUS
 10
402.1777210595
 20
328.9560275514
  0
VERTEX
  8
0
 62
7
  6
CONTINUOUS
 10
401.5356593817
 20
328.9913412417
  0
VERTEX
  8
0
 62
7
  6
CONTINUOUS
 10
400.890125102
 20
329.0033086481
  0
SEQEND
  0
POLYLINE
  8
0
 62
7
  6
CONTINUOUS
 66
1
 70
0
  0
VERTEX
  8
0
 62
7
  6
CONTINUOUS
 10
405.2480729323
 20
306.6628308744
  0
VERTEX
  8
0
 62
7
  6
CONTINUOUS
 10
405.2418442738
 20
307.0024151055
  0
VERTEX
  8
0
 62
7
  6
CONTINUOUS
 10
405.2230280932
 20
307.3400504727
  0
VERTEX
  8
0
 62
7
  6
CONTINUOUS
 10
405.1916001041
 20
307.6757777069
  0
VERTEX
  8
0
 62
7
  6
CONTINUOUS
 10
405.1476350141
 20
308.0094736605
  0
VERTEX
  8
0
 62
7
  6
CONTINUOUS
 10
405.0911593509
 20
308.3412406925
  0
VERTEX
  8
0
 62
7
  6
CONTINUOUS
 10
405.0222935168
 20
308.6704429452
  0
VERTEX
  8
0
 62
7
  6
CONTINUOUS
 10
404.9411188933
 20
308.9966232464
  0
VERTEX
  8
0
 62
7
  6
CONTINUOUS
 10
404.8477800072
 20
309.3193474867
  0
VERTEX
  8
0
 62
7
  6
CONTINUOUS
 10
404.7423911511
 20
309.63816831
  0
VERTEX
  8
0
 62
7
  6
CONTINUOUS
 10
404.6251252818
 20
309.9526679022
  0
VERTEX
  8
0
 62
7
  6
CONTINUOUS
 10
404.4961263977
 20
310.2624144494
  0
VERTEX
  8
0
 62
7
  6
CONTINUOUS
 10
404.355596454
 20
310.5670022477
  0
VERTEX
  8
0
 62
7
  6
CONTINUOUS
 10
404.2037088375
 20
310.8660119538
  0
VERTEX
  8
0
 62
7
  6
CONTINUOUS
 10
404.0406939417
 20
311.1590523647
  0
VERTEX
  8
0
 62
7
  6
CONTINUOUS
 10
403.8667540671
 20
311.4457173696
  0
VERTEX
  8
0
 62
7
  6
CONTINUOUS
 10
403.6821474591
 20
311.7256320846
  0
VERTEX
  8
0
 62
7
  6
CONTINUOUS
 10
403.4871055983
 20
311.9984042417
  0
VERTEX
  8
0
 62
7
  6
CONTINUOUS
 10
403.2819115371
 20
312.2636796671
  0
VERTEX
  8
0
 62
7
  6
CONTINUOUS
 10
403.0668227409
 20
312.5210849738
  0
VERTEX
  8
0
 62
7
  6
CONTINUOUS
 10
402.8421477746
 20
312.770285371
  0
VERTEX
  8
0
 62
7
  6
CONTINUOUS
 10
402.6081705904
 20
313.0109256014
  0
VERTEX
  8
0
 62
7
  6
CONTINUOUS
 10
402.3652226793
 20
313.242693571
  0
VERTEX
  8
0
 62
7
  6
CONTINUOUS
 10
402.1136118718
 20
313.4652552821
  0
VERTEX
  8
0
 62
7
  6
CONTINUOUS
 10
401.8536931504
 20
313.6783211392
  0
VERTEX
  8
0
 62
7
  6
CONTINUOUS
 10
401.5857990026
 20
313.8815781464
  0
VERTEX
  8
0
 62
7
  6
CONTINUOUS
 10
401.310304659
 20
314.074762514
  0
VERTEX
  8
0
 62
7
  6
CONTINUOUS
 10
401.0275640365
 20
314.2575854769
  0
VERTEX
  8
0
 62
7
  6
CONTINUOUS
 10
400.7379733488
 20
314.4298090287
  0
VERTEX
  8
0
 62
7
  6
CONTINUOUS
 10
400.4419089654
 20
314.5911686345
  0
VERTEX
  8
0
 62
7
  6
CONTINUOUS
 10
400.1397840021
 20
314.7414552318
  0
VERTEX
  8
0
 62
7
  6
CONTINUOUS
 10
399.8319937862
 20
314.8804314831
  0
VERTEX
  8
0
 62
7
  6
CONTINUOUS
 10
399.5189676137
 20
315.0079178476
  0
VERTEX
  8
0
 62
7
  6
CONTINUOUS
 10
399.201118751
 20
315.1237052294
  0
VERTEX
  8
0
 62
7
  6
CONTINUOUS
 10
398.8788900842
 20
315.2276451735
  0
VERTEX
  8
0
 62
7
  6
CONTINUOUS
 10
398.5527094282
 20
315.3195585596
  0
VERTEX
  8
0
 62
7
  6
CONTINUOUS
 10
398.2230346605
 20
315.3993285465
  0
VERTEX
  8
0
 62
7
  6
CONTINUOUS
 10
397.8903097186
 20
315.4668062734
  0
VERTEX
  8
0
 62
7
  6
CONTINUOUS
 10
397.5550035839
 20
315.5219089742
  0
VERTEX
  8
0
 62
7
  6
CONTINUOUS
 10
397.2176182733
 20
315.5645187461
  0
VERTEX
  8
0
 62
7
  6
CONTINUOUS
 10
396.8784979341
 20
315.5945924617
  0
VERTEX
  8
0
 62
7
  6
CONTINUOUS
 10
396.5382177715
 20
315.612037558
  0
VERTEX
  8
0
 62
7
  6
CONTINUOUS
 10
396.1965859135
 20
315.6168847818
  0
SEQEND
  0
POLYLINE
  8
0
 62
7
  6
CONTINUOUS
 66
1
 70
0
  0
VERTEX
  8
0
 62
7
  6
CONTINUOUS
 10
415.8330455734
 20
311.5699014315
  0
VERTEX
  8
0
 62
7
  6
CONTINUOUS
 10
415.8239144962
 20
312.1136983975
  0
VERTEX
  8
0
 62
7
  6
CONTINUOUS
 10
415.7954645774
 20
312.6523939724
  0
VERTEX
  8
0
 62
7
  6
CONTINUOUS
 10
415.7483139808
 20
313.1841590955
  0
VERTEX
  8
0
 62
7
  6
CONTINUOUS
 10
415.6825930618
 20
313.7118723073
  0
VERTEX
  8
0
 62
7
  6
CONTINUOUS
 10
415.5979316061
 20
314.2385510602
  0
VERTEX
  8
0
 62
7
  6
CONTINUOUS
 10
415.4946028901
 20
314.7618358038
  0
VERTEX
  8
0
 62
7
  6
CONTINUOUS
 10
415.3728417278
 20
315.2805946712
  0
VERTEX
  8
0
 62
7
  6
CONTINUOUS
 10
415.2328248548
 20
315.7942340319
  0
VERTEX
  8
0
 62
7
  6
CONTINUOUS
 10
415.0748101546
 20
316.3019636049
  0
VERTEX
  8
0
 62
7
  6
CONTINUOUS
 10
414.8989904017
 20
316.8033070516
  0
VERTEX
  8
0
 62
7
  6
CONTINUOUS
 10
414.7055965148
 20
317.2976989487
  0
VERTEX
  8
0
 62
7
  6
CONTINUOUS
 10
414.4948410621
 20
317.7846542435
  0
VERTEX
  8
0
 62
7
  6
CONTINUOUS
 10
414.2669264498
 20
318.2637176145
  0
VERTEX
  8
0
 62
7
  6
CONTINUOUS
 10
414.0221523242
 20
318.7342565584
  0
VERTEX
  8
0
 62
7
  6
CONTINUOUS
 10
413.7608057375
 20
319.1957148272
  0
VERTEX
  8
0
 62
7
  6
CONTINUOUS
 10
413.483241926
 20
319.6474659215
  0
VERTEX
  8
0
 62
7
  6
CONTINUOUS
 10
413.1898380835
 20
320.0889052285
  0
VERTEX
  8
0
 62
7
  6
CONTINUOUS
 10
412.8809597769
 20
320.5194975476
  0
VERTEX
  8
0
 62
7
  6
CONTINUOUS
 10
412.5570077291
 20
320.9386965134
  0
VERTEX
  8
0
 62
7
  6
CONTINUOUS
 10
412.2183683426
 20
321.3460137849
  0
VERTEX
  8
0
 62
7
  6
CONTINUOUS
 10
411.8654516504
 20
321.7409606044
  0
VERTEX
  8
0
 62
7
  6
CONTINUOUS
 10
411.4986786588
 20
322.1230674418
  0
VERTEX
  8
0
 62
7
  6
CONTINUOUS
 10
411.1184840249
 20
322.4918769579
  0
VERTEX
  8
0
 62
7
  6
CONTINUOUS
 10
410.7253217585
 20
322.8469419082
  0
VERTEX
  8
0
 62
7
  6
CONTINUOUS
 10
410.3196480962
 20
323.1878378198
  0
VERTEX
  8
0
 62
7
  6
CONTINUOUS
 10
409.9019737353
 20
323.5141233051
  0
VERTEX
  8
0
 62
7
  6
CONTINUOUS
 10
409.4728002178
 20
323.8253928986
  0
VERTEX
  8
0
 62
7
  6
CONTINUOUS
 10
409.0327023154
 20
324.1212205389
  0
VERTEX
  8
0
 62
7
  6
CONTINUOUS
 10
408.5822765847
 20
324.4012018072
  0
VERTEX
  8
0
 62
7
  6
CONTINUOUS
 10
408.1220581192
 20
324.6650039236
  0
VERTEX
  8
0
 62
7
  6
CONTINUOUS
 10
407.6526505013
 20
324.91227961
  0
VERTEX
  8
0
 62
7
  6
CONTINUOUS
 10
407.1745130828
 20
325.1427800804
  0
VERTEX
  8
0
 62
7
  6
CONTINUOUS
 10
406.6881636047
 20
325.3562354127
  0
VERTEX
  8
0
 62
7
  6
CONTINUOUS
 10
406.1940618311
 20
325.5524108982
  0
VERTEX
  8
0
 62
7
  6
CONTINUOUS
 10
405.6924881608
 20
325.7311339067
  0
VERTEX
  8
0
 62
7
  6
CONTINUOUS
 10
405.1845245133
 20
325.8919689042
  0
VERTEX
  8
0
 62
7
  6
CONTINUOUS
 10
404.6722506137
 20
326.0343188424
  0
VERTEX
  8
0
 62
7
  6
CONTINUOUS
 10
404.1530845925
 20
326.1588558336
  0
VERTEX
  8
0
 62
7
  6
CONTINUOUS
 10
403.6244430087
 20
326.2657998725
  0
VERTEX
  8
0
 62
7
  6
CONTINUOUS
 10
403.0880824484
 20
326.3542802405
  0
VERTEX
  8
0
 62
7
  6
CONTINUOUS
 10
402.5441143983
 20
326.4237993931
  0
VERTEX
  8
0
 62
7
  6
CONTINUOUS
 10
401.9951145729
 20
326.4736310546
  0
VERTEX
  8
0
 62
7
  6
CONTINUOUS
 10
401.4437610462
 20
326.5033463391
  0
VERTEX
  8
0
 62
7
  6
CONTINUOUS
 10
400.890125102
 20
326.5128219029
  0
SEQEND
  0
POLYLINE
  8
0
 62
7
  6
CONTINUOUS
 66
1
 70
0
  0
VERTEX
  8
0
 62
7
  6
CONTINUOUS
 10
410.4449124107
 20
52.9012420247
  0
VERTEX
  8
0
 62
7
  6
CONTINUOUS
 10
410.4614347216
 20
48.6752584161
  0
VERTEX
  8
0
 62
7
  6
CONTINUOUS
 10
410.6345130748
 20
5.6110131814
  0
SEQEND
  0
POLYLINE
  8
0
 62
7
  6
CONTINUOUS
 66
1
 70
0
  0
VERTEX
  8
0
 62
7
  6
CONTINUOUS
 10
410.6345130748
 20
5.6110131814
  0
VERTEX
  8
0
 62
7
  6
CONTINUOUS
 10
410.6515138899
 20
1.2796806961
  0
VERTEX
  8
0
 62
7
  6
CONTINUOUS
 10
410.6680542422
 20
-2.9799486742
  0
SEQEND
  0
LINE
  8
0
 62
7
  6
CONTINUOUS
 10
410.4126606876
 20
61.3573674699
 11
410.4449124107
 21
52.9012420247
  0
LINE
  8
0
 62
7
  6
CONTINUOUS
 10
410.3818028805
 20
69.8093530179
 11
410.4126606876
 21
61.3573674699
  0
LINE
  8
0
 62
7
  6
CONTINUOUS
 10
410.3389534664
 20
82.4660594203
 11
410.3818028805
 21
69.8093530179
  0
LINE
  8
0
 62
7
  6
CONTINUOUS
 10
410.3011512947
 20
95.1294096647
 11
410.3389534664
 21
82.4660594203
  0
LINE
  8
0
 62
7
  6
CONTINUOUS
 10
410.2694395243
 20
107.8182917686
 11
410.3011512947
 21
95.1294096647
  0
LINE
  8
0
 62
7
  6
CONTINUOUS
 10
410.2521996716
 20
116.2790139595
 11
410.2694395243
 21
107.8182917686
  0
LINE
  8
0
 62
7
  6
CONTINUOUS
 10
410.2383086844
 20
124.7784573961
 11
410.2521996716
 21
116.2790139595
  0
LINE
  8
0
 62
7
  6
CONTINUOUS
 10
410.2279295072
 20
133.3984655255
 11
410.2383086844
 21
124.7784573961
  0
LINE
  8
0
 62
7
  6
CONTINUOUS
 10
410.2213129558
 20
142.2574214568
 11
410.2279295072
 21
133.3984655255
  0
LINE
  8
0
 62
7
  6
CONTINUOUS
 10
410.2188925385
 20
151.7124807131
 11
410.2213129558
 21
142.2574214568
  0
LINE
  8
0
 62
7
  6
CONTINUOUS
 10
406.0327043836
 20
331.7124807131
 11
406.0327043836
 21
329.2124807131
  0
LINE
  8
0
 62
7
  6
CONTINUOUS
 10
406.0327043836
 20
-28.2875192869
 11
406.0327043836
 21
-25.7875192869
  0
LINE
  8
0
 62
7
  6
CONTINUOUS
 10
415.8330455734
 20
-8.1449400054
 11
415.8330455734
 21
311.5699014315
  0
LINE
  8
0
 62
7
  6
CONTINUOUS
 10
418.3235323186
 20
-8.1449400054
 11
418.3235323186
 21
311.5699014315
  0
LINE
  8
0
 62
7
  6
CONTINUOUS
 10
418.5327043836
 20
316.7124807131
 11
418.5327043836
 21
-13.2875192869
  0
LINE
  8
0
 62
7
  6
CONTINUOUS
 10
421.0327043836
 20
316.7124807131
 11
421.0327043836
 21
-13.2875192869
  0
LINE
  8
0
 62
7
  6
CONTINUOUS
 10
410.2225826946
 20
163.3935598617
 11
410.2188925385
 21
151.7124807131
  0
LINE
  8
0
 62
7
  6
CONTINUOUS
 10
410.232070948
 20
173.8580246008
 11
410.2225826946
 21
163.3935598617
  0
LINE
  8
0
 62
7
  6
CONTINUOUS
 10
410.2456771987
 20
183.4215010215
 11
410.232070948
 21
173.8580246008
  0
LINE
  8
0
 62
7
  6
CONTINUOUS
 10
410.2626141309
 20
192.4455993041
 11
410.2456771987
 21
183.4215010215
  0
LINE
  8
0
 62
7
  6
CONTINUOUS
 10
410.2940142974
 20
205.6577898463
 11
410.2626141309
 21
192.4455993041
  0
LINE
  8
0
 62
7
  6
CONTINUOUS
 10
410.3319908201
 20
218.7590686556
 11
410.2940142974
 21
205.6577898463
  0
LINE
  8
0
 62
7
  6
CONTINUOUS
 10
410.3911645766
 20
236.2261019865
 11
410.3319908201
 21
218.7590686556
  0
POLYLINE
  8
0
 62
7
  6
CONTINUOUS
 66
1
 70
0
  0
VERTEX
  8
0
 62
7
  6
CONTINUOUS
 10
410.4745128143
 20
258.0568470389
  0
VERTEX
  8
0
 62
7
  6
CONTINUOUS
 10
410.4572535076
 20
253.6857400392
  0
VERTEX
  8
0
 62
7
  6
CONTINUOUS
 10
410.3911645766
 20
236.2261019865
  0
SEQEND
  0
POLYLINE
  8
0
 62
7
  6
CONTINUOUS
 66
1
 70
0
  0
VERTEX
  8
0
 62
7
  6
CONTINUOUS
 10
410.6680484516
 20
306.4049043098
  0
VERTEX
  8
0
 62
7
  6
CONTINUOUS
 10
410.633017374
 20
297.4353382528
  0
VERTEX
  8
0
 62
7
  6
CONTINUOUS
 10
410.4745128143
 20
258.0568470389
  0
SEQEND
  0
POLYLINE
  8
0
 62
7
  6
CONTINUOUS
 66
1
 70
0
  0
VERTEX
  8
0
 62
7
  6
CONTINUOUS
 10
410.6680539451
 20
-2.9799483771
  0
VERTEX
  8
0
 62
7
  6
CONTINUOUS
 10
410.637425429
 20
-2.9922372679
  0
VERTEX
  8
0
 62
7
  6
CONTINUOUS
 10
410.5940216534
 20
-3.0044997578
  0
VERTEX
  8
0
 62
7
  6
CONTINUOUS
 10
410.5379358657
 20
-3.0167095026
  0
VERTEX
  8
0
 62
7
  6
CONTINUOUS
 10
410.4692885563
 20
-3.0288402717
  0
VERTEX
  8
0
 62
7
  6
CONTINUOUS
 10
410.388227197
 20
-3.0408660048
  0
VERTEX
  8
0
 62
7
  6
CONTINUOUS
 10
410.2949259472
 20
-3.0527608647
  0
VERTEX
  8
0
 62
7
  6
CONTINUOUS
 10
410.1895852784
 20
-3.0644992945
  0
VERTEX
  8
0
 62
7
  6
CONTINUOUS
 10
410.0724314707
 20
-3.0760560796
  0
VERTEX
  8
0
 62
7
  6
CONTINUOUS
 10
409.9437161645
 20
-3.0874063957
  0
VERTEX
  8
0
 62
7
  6
CONTINUOUS
 10
409.8037159192
 20
-3.0985258548
  0
VERTEX
  8
0
 62
7
  6
CONTINUOUS
 10
409.6527315433
 20
-3.1093905655
  0
VERTEX
  8
0
 62
7
  6
CONTINUOUS
 10
409.4910873851
 20
-3.1199771882
  0
VERTEX
  8
0
 62
7
  6
CONTINUOUS
 10
409.3191307013
 20
-3.1302629801
  0
VERTEX
  8
0
 62
7
  6
CONTINUOUS
 10
409.1372309196
 20
-3.1402258434
  0
SEQEND
  0
POLYLINE
  8
0
 62
7
  6
CONTINUOUS
 66
1
 70
0
  0
VERTEX
  8
0
 62
7
  6
CONTINUOUS
 10
395.6905386599
 20
321.3132354607
  0
VERTEX
  8
0
 62
7
  6
CONTINUOUS
 10
395.7150206712
 20
321.2814310756
  0
VERTEX
  8
0
 62
7
  6
CONTINUOUS
 10
395.7394465193
 20
321.235987664
  0
VERTEX
  8
0
 62
7
  6
CONTINUOUS
 10
395.7637601695
 20
321.1770094771
  0
VERTEX
  8
0
 62
7
  6
CONTINUOUS
 10
395.7879058458
 20
321.1046318114
  0
VERTEX
  8
0
 62
7
  6
CONTINUOUS
 10
395.8118281595
 20
321.0190206932
  0
VERTEX
  8
0
 62
7
  6
CONTINUOUS
 10
395.8354722254
 20
320.9203725393
  0
VERTEX
  8
0
 62
7
  6
CONTINUOUS
 10
395.858783794
 20
320.8089137026
  0
VERTEX
  8
0
 62
7
  6
CONTINUOUS
 10
395.8817093998
 20
320.6848998247
  0
VERTEX
  8
0
 62
7
  6
CONTINUOUS
 10
395.9041964636
 20
320.5486153116
  0
VERTEX
  8
0
 62
7
  6
CONTINUOUS
 10
395.9261933847
 20
320.4003728765
  0
VERTEX
  8
0
 62
7
  6
CONTINUOUS
 10
395.9476496897
 20
320.2405126792
  0
VERTEX
  8
0
 62
7
  6
CONTINUOUS
 10
395.9685161646
 20
320.0694014016
  0
VERTEX
  8
0
 62
7
  6
CONTINUOUS
 10
395.9887449449
 20
319.8874315449
  0
VERTEX
  8
0
 62
7
  6
CONTINUOUS
 10
396.0082896223
 20
319.6950205771
  0
VERTEX
  8
0
 62
7
  6
CONTINUOUS
 10
396.0271053591
 20
319.4926099094
  0
VERTEX
  8
0
 62
7
  6
CONTINUOUS
 10
396.0451489913
 20
319.2806638807
  0
VERTEX
  8
0
 62
7
  6
CONTINUOUS
 10
396.0623791256
 20
319.0596687088
  0
VERTEX
  8
0
 62
7
  6
CONTINUOUS
 10
396.0787562355
 20
318.8301313654
  0
VERTEX
  8
0
 62
7
  6
CONTINUOUS
 10
396.0942427518
 20
318.5925784072
  0
VERTEX
  8
0
 62
7
  6
CONTINUOUS
 10
396.1088031455
 20
318.3475548258
  0
VERTEX
  8
0
 62
7
  6
CONTINUOUS
 10
396.1224040113
 20
318.0956227754
  0
VERTEX
  8
0
 62
7
  6
CONTINUOUS
 10
396.1350141528
 20
317.8373601275
  0
VERTEX
  8
0
 62
7
  6
CONTINUOUS
 10
396.1466046453
 20
317.5733592552
  0
VERTEX
  8
0
 62
7
  6
CONTINUOUS
 10
396.1571488946
 20
317.3042258857
  0
VERTEX
  8
0
 62
7
  6
CONTINUOUS
 10
396.1666227085
 20
317.0305775163
  0
SEQEND
  0
CIRCLE
  8
0
 62
7
  6
CONTINUOUS
 10
186.0327043836
 20
151.7124807131
 40
20.0
  0
ARC
  8
0
 62
7
  6
CONTINUOUS
 10
-33.9672956164
 20
316.7124807131
 40
15.0
 50
90.0
 51
180.0
  0
ARC
  8
0
 62
7
  6
CONTINUOUS
 10
406.0327043836
 20
316.7124807131
 40
15.0
 50
0.0
 51
90.0
  0
ARC
  8
0
 62
7
  6
CONTINUOUS
 10
406.0327043836
 20
-13.2875192869
 40
15.0
 50
270.0
 51
360.0
  0
ARC
  8
0
 62
7
  6
CONTINUOUS
 10
-33.9672956164
 20
-13.2875192869
 40
15.0
 50
180.0
 51
270.0
  0
ARC
  8
0
 62
7
  6
CONTINUOUS
 10
406.0327043836
 20
316.7124807131
 40
12.5
 50
0.0
 51
90.0
  0
ARC
  8
0
 62
7
  6
CONTINUOUS
 10
406.0327043836
 20
-13.2875192869
 40
12.5
 50
270.0
 51
360.0
  0
ARC
  8
0
 62
7
  6
CONTINUOUS
 10
-33.9672956164
 20
-13.2875192869
 40
12.5
 50
180.0
 51
270.0
  0
ARC
  8
0
 62
7
  6
CONTINUOUS
 10
-33.9672956164
 20
316.7124807131
 40
12.5
 50
90.0
 51
180.0
  0
ENDSEC
  0
EOF
