999
DXF file: K:\Client\125_Heirloom\001\00\Final_Data\Drawings\BASINS\stadium-362122_3.dxf
999
Pro/ENGINEER 2017110 by Parametric Technology Corporation
  0
SECTION
  2
HEADER
  9
$EXTMAX
 10
420.0
 20
297.0
 30
0.0
  9
$EXTMIN
 10
0.0
 20
0.0
 30
0.0
  9
$LIMMIN
 10
0.0
 20
0.0
  9
$LIMMAX
 10
420.0
 20
297.0
  9
$VIEWCTR
 10
210.0
 20
148.5
  9
$VIEWSIZE
 40
297.0
  9
$CLAYER
  8
0
  9
$LTSCALE
 40
23.1
  9
$CELTYPE
  6
BYLAYER
  9
$DIMSCALE
 40
1.0
  9
$DIMASZ
 40
3.0
  9
$DIMEXO
 40
1.0
  9
$DIMDLI
 40
15.96
  9
$DIMEXE
 40
1.0
  9
$DIMCEN
 40
3.78
  9
$DIMLFAC
 40
1.0
  9
$DIMBLK
  1
_FILLED
  9
$DIMALT
 70
0
  9
$DIMALTF
 40
0.0393700787
  9
$DIMTXT
 40
3.0
  9
$AUNITS
 70
0
  9
$PDMODE
 70
3
  9
$PDSIZE
 40
5.0
  9
$TILEMODE
 70
1
  0
ENDSEC
  0
SECTION
  2
TABLES
  0
TABLE
  2
LTYPE
 70
6
  0
LTYPE
  2
BYBLOCK
 70
0
  3

 72
65
 73
0
 40
0.0
  0
LTYPE
  2
BYLAYER
 70
0
  3

 72
65
 73
0
 40
0.0
  0
LTYPE
  2
CONTINUOUS
 70
64
  3
Solid line
 72
65
 73
0
 40
0.0
  0
LTYPE
  2
CENTER
 70
64
  3
____ _ ____ _ ____ _ ____ _ ____ _ ____ _ ____
 72
65
 73
4
 40
0.6
 49
0.375
 49
-0.075
 49
0.075
 49
-0.075
  0
LTYPE
  2
HIDDEN
 70
64
  3
- - - - - - - - - - - - - - - - - - - -
 72
65
 73
2
 40
0.2
 49
0.1
 49
-0.1
  0
LTYPE
  2
PHANTOM
 70
64
  3
_____ _ _ _____ _ _ _____ _ _ _____
 72
65
 73
6
 40
0.8
 49
0.45
 49
-0.05
 49
0.1
 49
-0.05
 49
0.1
 49
-0.05
  0
LTYPE
  2
DOT
 70
64
  3
. . . . . . . . . . . . . . . . . . . .
 72
65
 73
2
 40
0.2
 49
0.1
 49
-0.1
  0
LTYPE
  2
DASHED
 70
64
  3
- - - - - - - - - - - - - - - - - - - -
 72
65
 73
2
 40
0.2
 49
0.1
 49
-0.1
  0
ENDTAB
  0
TABLE
  2
LAYER
 70
36
  0
LAYER
  2
0
 70
0
 62
7
  6
CONTINUOUS
  0
LAYER
  2
DEFAULT_1
 70
0
 62
7
  6
CENTER
  0
LAYER
  2
DEFAULT_2
 70
0
 62
8
  6
HIDDEN
  0
LAYER
  2
DEFAULT_3
 70
0
 62
7
  6
PHANTOM
  0
LAYER
  2
0000_BOM
 70
0
 62
7
  6
CONTINUOUS
  0
LAYER
  2
0000_REV_TABLE
 70
0
 62
7
  6
CONTINUOUS
  0
LAYER
  2
0000_STEVENS_NOTE
 70
0
 62
7
  6
CONTINUOUS
  0
LAYER
  2
01_DATUM_PLANES
 70
0
 62
7
  6
CONTINUOUS
  0
LAYER
  2
01_DEF_PLANES
 70
0
 62
7
  6
CONTINUOUS
  0
LAYER
  2
02_DATUM_COS
 70
0
 62
7
  6
CONTINUOUS
  0
LAYER
  2
99_SOLID
 70
0
 62
7
  6
CONTINUOUS
  0
LAYER
  2
CAD-MASTER_ZINC-PL
 70
0
 62
7
  6
CONTINUOUS
  0
LAYER
  2
CURVE
 70
0
 62
7
  6
CONTINUOUS
  0
LAYER
  2
SKEL
 70
0
 62
7
  6
CONTINUOUS
  0
LAYER
  2
SKETCH
 70
0
 62
7
  6
CONTINUOUS
  0
LAYER
  2
SURFACE
 70
0
 62
7
  6
CONTINUOUS
  0
ENDTAB
  0
TABLE
  2
STYLE
 70
1
  0
STYLE
  2
STANDARD
 70
0
 40
0.0
 41
0.75
 50
0.0
 71
0
 42
0.2
  3
txt
  4

  0
STYLE
  2
TEXTSTYLE_1
 70
0
 40
0.0
 41
0.8
 50
0.0
 71
0
 42
0.2
  3
gdt
  4

  0
ENDTAB
  0
ENDSEC
  0
SECTION
  2
BLOCKS
  0
ENDSEC
  0
SECTION
  2
ENTITIES
  0
POLYLINE
  8
0
 62
7
  6
CONTINUOUS
 66
1
 70
0
  0
VERTEX
  8
0
 62
7
  6
CONTINUOUS
 10
-88.6653788735
 20
-40.4285230154
  0
VERTEX
  8
0
 62
7
  6
CONTINUOUS
 10
-88.684840957
 20
-40.3964395218
  0
VERTEX
  8
0
 62
7
  6
CONTINUOUS
 10
-88.704257827
 20
-40.3505446413
  0
VERTEX
  8
0
 62
7
  6
CONTINUOUS
 10
-88.7235843747
 20
-40.2909449957
  0
VERTEX
  8
0
 62
7
  6
CONTINUOUS
 10
-88.742775702
 20
-40.2177790425
  0
VERTEX
  8
0
 62
7
  6
CONTINUOUS
 10
-88.7617872259
 20
-40.1312167504
  0
VERTEX
  8
0
 62
7
  6
CONTINUOUS
 10
-88.7805747766
 20
-40.0314592297
  0
VERTEX
  8
0
 62
7
  6
CONTINUOUS
 10
-88.7990947033
 20
-39.9187382631
  0
VERTEX
  8
0
 62
7
  6
CONTINUOUS
 10
-88.8173039875
 20
-39.7933156883
  0
VERTEX
  8
0
 62
7
  6
CONTINUOUS
 10
-88.8351603319
 20
-39.6554828314
  0
VERTEX
  8
0
 62
7
  6
CONTINUOUS
 10
-88.8526222477
 20
-39.505559935
  0
VERTEX
  8
0
 62
7
  6
CONTINUOUS
 10
-88.8696491639
 20
-39.3438953325
  0
VERTEX
  8
0
 62
7
  6
CONTINUOUS
 10
-88.8862015265
 20
-39.1708645794
  0
VERTEX
  8
0
 62
7
  6
CONTINUOUS
 10
-88.9022408829
 20
-38.9868696445
  0
VERTEX
  8
0
 62
7
  6
CONTINUOUS
 10
-88.9177299707
 20
-38.7923379802
  0
VERTEX
  8
0
 62
7
  6
CONTINUOUS
 10
-88.9326328063
 20
-38.5877215137
  0
VERTEX
  8
0
 62
7
  6
CONTINUOUS
 10
-88.9469147681
 20
-38.3734956024
  0
VERTEX
  8
0
 62
7
  6
CONTINUOUS
 10
-88.9605426769
 20
-38.1501579269
  0
VERTEX
  8
0
 62
7
  6
CONTINUOUS
 10
-88.9734848726
 20
-37.9182273379
  0
VERTEX
  8
0
 62
7
  6
CONTINUOUS
 10
-88.9857112887
 20
-37.678242643
  0
SEQEND
  0
POLYLINE
  8
0
 62
7
  6
CONTINUOUS
 66
1
 70
0
  0
VERTEX
  8
0
 62
7
  6
CONTINUOUS
 10
-103.634343155
 20
-25.5116463541
  0
VERTEX
  8
0
 62
7
  6
CONTINUOUS
 10
-103.6221531169
 20
-26.0998818499
  0
VERTEX
  8
0
 62
7
  6
CONTINUOUS
 10
-103.586921498
 20
-26.6868467531
  0
VERTEX
  8
0
 62
7
  6
CONTINUOUS
 10
-103.5287299982
 20
-27.2716471919
  0
VERTEX
  8
0
 62
7
  6
CONTINUOUS
 10
-103.4476847093
 20
-27.8534031005
  0
VERTEX
  8
0
 62
7
  6
CONTINUOUS
 10
-103.3439263374
 20
-28.4312391705
  0
VERTEX
  8
0
 62
7
  6
CONTINUOUS
 10
-103.2176311709
 20
-29.0042796033
  0
VERTEX
  8
0
 62
7
  6
CONTINUOUS
 10
-103.069008488
 20
-29.5716553616
  0
VERTEX
  8
0
 62
7
  6
CONTINUOUS
 10
-102.8982987606
 20
-30.1325185502
  0
VERTEX
  8
0
 62
7
  6
CONTINUOUS
 10
-102.7057747946
 20
-30.6860255844
  0
VERTEX
  8
0
 62
7
  6
CONTINUOUS
 10
-102.4917381006
 20
-31.2313553115
  0
VERTEX
  8
0
 62
7
  6
CONTINUOUS
 10
-102.2565202163
 20
-31.7676953821
  0
VERTEX
  8
0
 62
7
  6
CONTINUOUS
 10
-102.0004832393
 20
-32.2942481028
  0
VERTEX
  8
0
 62
7
  6
CONTINUOUS
 10
-101.724017141
 20
-32.8102299135
  0
VERTEX
  8
0
 62
7
  6
CONTINUOUS
 10
-101.4275432678
 20
-33.3148704622
  0
VERTEX
  8
0
 62
7
  6
CONTINUOUS
 10
-101.1115100832
 20
-33.8074156634
  0
VERTEX
  8
0
 62
7
  6
CONTINUOUS
 10
-100.7763945161
 20
-34.2871301868
  0
VERTEX
  8
0
 62
7
  6
CONTINUOUS
 10
-100.4226999544
 20
-34.7532957798
  0
VERTEX
  8
0
 62
7
  6
CONTINUOUS
 10
-100.0509562272
 20
-35.2052156065
  0
VERTEX
  8
0
 62
7
  6
CONTINUOUS
 10
-99.6617180055
 20
-35.6422118835
  0
VERTEX
  8
0
 62
7
  6
CONTINUOUS
 10
-99.2555662778
 20
-36.0636282711
  0
VERTEX
  8
0
 62
7
  6
CONTINUOUS
 10
-98.8331050046
 20
-36.4688298345
  0
VERTEX
  8
0
 62
7
  6
CONTINUOUS
 10
-98.3949636
 20
-36.8572042948
  0
VERTEX
  8
0
 62
7
  6
CONTINUOUS
 10
-97.9417926507
 20
-37.2281627636
  0
VERTEX
  8
0
 62
7
  6
CONTINUOUS
 10
-97.4742673196
 20
-37.5811402931
  0
VERTEX
  8
0
 62
7
  6
CONTINUOUS
 10
-96.9930819347
 20
-37.9155972828
  0
VERTEX
  8
0
 62
7
  6
CONTINUOUS
 10
-96.4989548056
 20
-38.2310192209
  0
VERTEX
  8
0
 62
7
  6
CONTINUOUS
 10
-95.9926214541
 20
-38.5269187408
  0
VERTEX
  8
0
 62
7
  6
CONTINUOUS
 10
-95.4748397158
 20
-38.8028354622
  0
VERTEX
  8
0
 62
7
  6
CONTINUOUS
 10
-94.9463835159
 20
-39.0583373094
  0
VERTEX
  8
0
 62
7
  6
CONTINUOUS
 10
-94.408044196
 20
-39.2930223769
  0
VERTEX
  8
0
 62
7
  6
CONTINUOUS
 10
-93.8606273391
 20
-39.5065180511
  0
VERTEX
  8
0
 62
7
  6
CONTINUOUS
 10
-93.3049556453
 20
-39.6984823964
  0
VERTEX
  8
0
 62
7
  6
CONTINUOUS
 10
-92.7418619513
 20
-39.868604669
  0
VERTEX
  8
0
 62
7
  6
CONTINUOUS
 10
-92.1722000715
 20
-40.0166043526
  0
VERTEX
  8
0
 62
7
  6
CONTINUOUS
 10
-91.5968296208
 20
-40.1422341975
  0
VERTEX
  8
0
 62
7
  6
CONTINUOUS
 10
-91.0166317253
 20
-40.2452790371
  0
VERTEX
  8
0
 62
7
  6
CONTINUOUS
 10
-90.4324945995
 20
-40.3255580172
  0
VERTEX
  8
0
 62
7
  6
CONTINUOUS
 10
-89.8453080116
 20
-40.3829264207
  0
VERTEX
  8
0
 62
7
  6
CONTINUOUS
 10
-89.2559709594
 20
-40.4172764731
  0
VERTEX
  8
0
 62
7
  6
CONTINUOUS
 10
-88.6653788735
 20
-40.4285230154
  0
SEQEND
  0
POLYLINE
  8
0
 62
7
  6
CONTINUOUS
 66
1
 70
0
  0
VERTEX
  8
0
 62
7
  6
CONTINUOUS
 10
-111.2581235515
 20
-30.6449400054
  0
VERTEX
  8
0
 62
7
  6
CONTINUOUS
 10
-111.2452487789
 20
-31.3092139109
  0
VERTEX
  8
0
 62
7
  6
CONTINUOUS
 10
-111.2083289085
 20
-31.9662612052
  0
VERTEX
  8
0
 62
7
  6
CONTINUOUS
 10
-111.1473450464
 20
-32.6150845356
  0
VERTEX
  8
0
 62
7
  6
CONTINUOUS
 10
-111.0623538738
 20
-33.2586759605
  0
VERTEX
  8
0
 62
7
  6
CONTINUOUS
 10
-110.9532913344
 20
-33.9006930641
  0
VERTEX
  8
0
 62
7
  6
CONTINUOUS
 10
-110.8205007462
 20
-34.5381419167
  0
VERTEX
  8
0
 62
7
  6
CONTINUOUS
 10
-110.6641988855
 20
-35.1694781378
  0
VERTEX
  8
0
 62
7
  6
CONTINUOUS
 10
-110.4847013216
 20
-35.7940106635
  0
VERTEX
  8
0
 62
7
  6
CONTINUOUS
 10
-110.2823010295
 20
-36.4107345132
  0
VERTEX
  8
0
 62
7
  6
CONTINUOUS
 10
-110.0572825684
 20
-37.0190470561
  0
VERTEX
  8
0
 62
7
  6
CONTINUOUS
 10
-109.8099165741
 20
-37.6182454604
  0
VERTEX
  8
0
 62
7
  6
CONTINUOUS
 10
-109.5405377917
 20
-38.207625349
  0
VERTEX
  8
0
 62
7
  6
CONTINUOUS
 10
-109.2494136204
 20
-38.7865302113
  0
VERTEX
  8
0
 62
7
  6
CONTINUOUS
 10
-108.9370167335
 20
-39.3541136166
  0
VERTEX
  8
0
 62
7
  6
CONTINUOUS
 10
-108.6037326602
 20
-39.9095652112
  0
VERTEX
  8
0
 62
7
  6
CONTINUOUS
 10
-108.2500902318
 20
-40.4521202535
  0
VERTEX
  8
0
 62
7
  6
CONTINUOUS
 10
-107.876567927
 20
-40.980962788
  0
VERTEX
  8
0
 62
7
  6
CONTINUOUS
 10
-107.4837023329
 20
-41.4954361035
  0
VERTEX
  8
0
 62
7
  6
CONTINUOUS
 10
-107.0719997264
 20
-41.9948166919
  0
VERTEX
  8
0
 62
7
  6
CONTINUOUS
 10
-106.642029517
 20
-42.4784889885
  0
VERTEX
  8
0
 62
7
  6
CONTINUOUS
 10
-106.1943251425
 20
-42.9457917767
  0
VERTEX
  8
0
 62
7
  6
CONTINUOUS
 10
-105.7295007944
 20
-43.3961385049
  0
VERTEX
  8
0
 62
7
  6
CONTINUOUS
 10
-105.2481229047
 20
-43.8289100347
  0
VERTEX
  8
0
 62
7
  6
CONTINUOUS
 10
-104.7508681892
 20
-44.2435429094
  0
VERTEX
  8
0
 62
7
  6
CONTINUOUS
 10
-104.2383442228
 20
-44.6394492124
  0
VERTEX
  8
0
 62
7
  6
CONTINUOUS
 10
-103.7113248592
 20
-45.0160831855
  0
VERTEX
  8
0
 62
7
  6
CONTINUOUS
 10
-103.1705270575
 20
-45.3728542927
  0
VERTEX
  8
0
 62
7
  6
CONTINUOUS
 10
-102.6167290757
 20
-45.7093089499
  0
VERTEX
  8
0
 62
7
  6
CONTINUOUS
 10
-102.0507264516
 20
-46.0249083107
  0
VERTEX
  8
0
 62
7
  6
CONTINUOUS
 10
-101.4731843055
 20
-46.3193176263
  0
VERTEX
  8
0
 62
7
  6
CONTINUOUS
 10
-100.8848436611
 20
-46.5921175141
  0
VERTEX
  8
0
 62
7
  6
CONTINUOUS
 10
-100.2862723464
 20
-46.8430230297
  0
VERTEX
  8
0
 62
7
  6
CONTINUOUS
 10
-99.6778201904
 20
-47.0717742232
  0
VERTEX
  8
0
 62
7
  6
CONTINUOUS
 10
-99.060882214
 20
-47.277876729
  0
VERTEX
  8
0
 62
7
  6
CONTINUOUS
 10
-98.4380283503
 20
-47.460590286
  0
VERTEX
  8
0
 62
7
  6
CONTINUOUS
 10
-97.8060836918
 20
-47.6203926301
  0
VERTEX
  8
0
 62
7
  6
CONTINUOUS
 10
-97.1619752544
 20
-47.7579278416
  0
VERTEX
  8
0
 62
7
  6
CONTINUOUS
 10
-96.5079672005
 20
-47.8719566259
  0
VERTEX
  8
0
 62
7
  6
CONTINUOUS
 10
-95.8441656553
 20
-47.9616662356
  0
VERTEX
  8
0
 62
7
  6
CONTINUOUS
 10
-95.1739717452
 20
-48.0264211097
  0
VERTEX
  8
0
 62
7
  6
CONTINUOUS
 10
-94.5012515344
 20
-48.0652014623
  0
VERTEX
  8
0
 62
7
  6
CONTINUOUS
 10
-93.8247163349
 20
-48.078347222
  0
SEQEND
  0
POLYLINE
  8
0
 62
7
  6
CONTINUOUS
 66
1
 70
0
  0
VERTEX
  8
0
 62
7
  6
CONTINUOUS
 10
-98.0908549589
 20
-25.7250102404
  0
VERTEX
  8
0
 62
7
  6
CONTINUOUS
 10
-98.0841567002
 20
-26.0800035417
  0
VERTEX
  8
0
 62
7
  6
CONTINUOUS
 10
-98.0635961414
 20
-26.433413897
  0
VERTEX
  8
0
 62
7
  6
CONTINUOUS
 10
-98.0291387054
 20
-26.7854469592
  0
VERTEX
  8
0
 62
7
  6
CONTINUOUS
 10
-97.9808892682
 20
-27.1354851777
  0
VERTEX
  8
0
 62
7
  6
CONTINUOUS
 10
-97.9188954229
 20
-27.4831723857
  0
VERTEX
  8
0
 62
7
  6
CONTINUOUS
 10
-97.8432950396
 20
-27.8279297901
  0
VERTEX
  8
0
 62
7
  6
CONTINUOUS
 10
-97.7541843472
 20
-28.169226787
  0
VERTEX
  8
0
 62
7
  6
CONTINUOUS
 10
-97.6517366049
 20
-28.5065622767
  0
VERTEX
  8
0
 62
7
  6
CONTINUOUS
 10
-97.5360878054
 20
-28.8394192046
  0
VERTEX
  8
0
 62
7
  6
CONTINUOUS
 10
-97.4074466581
 20
-29.1673144954
  0
VERTEX
  8
0
 62
7
  6
CONTINUOUS
 10
-97.2659859829
 20
-29.4897483013
  0
VERTEX
  8
0
 62
7
  6
CONTINUOUS
 10
-97.1119500464
 20
-29.8062535833
  0
VERTEX
  8
0
 62
7
  6
CONTINUOUS
 10
-96.945547804
 20
-30.1163461255
  0
VERTEX
  8
0
 62
7
  6
CONTINUOUS
 10
-96.7670585287
 20
-30.4195773475
  0
VERTEX
  8
0
 62
7
  6
CONTINUOUS
 10
-96.5767273455
 20
-30.7154790645
  0
VERTEX
  8
0
 62
7
  6
CONTINUOUS
 10
-96.3748660777
 20
-31.0036256522
  0
VERTEX
  8
0
 62
7
  6
CONTINUOUS
 10
-96.1617541805
 20
-31.2835689428
  0
VERTEX
  8
0
 62
7
  6
CONTINUOUS
 10
-95.9377342004
 20
-31.5549082082
  0
VERTEX
  8
0
 62
7
  6
CONTINUOUS
 10
-95.7031178384
 20
-31.817218176
  0
VERTEX
  8
0
 62
7
  6
CONTINUOUS
 10
-95.4582772922
 20
-32.0701241873
  0
VERTEX
  8
0
 62
7
  6
CONTINUOUS
 10
-95.2035553053
 20
-32.3132252932
  0
VERTEX
  8
0
 62
7
  6
CONTINUOUS
 10
-94.9393520324
 20
-32.5461750201
  0
VERTEX
  8
0
 62
7
  6
CONTINUOUS
 10
-94.6660397294
 20
-32.768598691
  0
VERTEX
  8
0
 62
7
  6
CONTINUOUS
 10
-94.3840448144
 20
-32.9801799503
  0
VERTEX
  8
0
 62
7
  6
CONTINUOUS
 10
-94.0937674037
 20
-33.1805723571
  0
VERTEX
  8
0
 62
7
  6
CONTINUOUS
 10
-93.7956585262
 20
-33.3694915267
  0
VERTEX
  8
0
 62
7
  6
CONTINUOUS
 10
-93.4901447295
 20
-33.5466210426
  0
VERTEX
  8
0
 62
7
  6
CONTINUOUS
 10
-93.1776993393
 20
-33.7117106455
  0
VERTEX
  8
0
 62
7
  6
CONTINUOUS
 10
-92.8587738266
 20
-33.8644759106
  0
VERTEX
  8
0
 62
7
  6
CONTINUOUS
 10
-92.5338599749
 20
-34.0047030538
  0
VERTEX
  8
0
 62
7
  6
CONTINUOUS
 10
-92.2034303026
 20
-34.1321423774
  0
VERTEX
  8
0
 62
7
  6
CONTINUOUS
 10
-91.8679936663
 20
-34.2466173781
  0
VERTEX
  8
0
 62
7
  6
CONTINUOUS
 10
-91.5280410127
 20
-34.3479144207
  0
VERTEX
  8
0
 62
7
  6
CONTINUOUS
 10
-91.1840981152
 20
-34.4358954238
  0
VERTEX
  8
0
 62
7
  6
CONTINUOUS
 10
-90.8366741431
 20
-34.5103836077
  0
VERTEX
  8
0
 62
7
  6
CONTINUOUS
 10
-90.4863093324
 20
-34.5712816856
  0
VERTEX
  8
0
 62
7
  6
CONTINUOUS
 10
-90.1335825268
 20
-34.6184498532
  0
VERTEX
  8
0
 62
7
  6
CONTINUOUS
 10
-89.7788865201
 20
-34.6518391638
  0
VERTEX
  8
0
 62
7
  6
CONTINUOUS
 10
-89.4228800728
 20
-34.671342276
  0
VERTEX
  8
0
 62
7
  6
CONTINUOUS
 10
-89.0653435481
 20
-34.6769948697
  0
SEQEND
  0
POLYLINE
  8
0
 62
7
  6
CONTINUOUS
 66
1
 70
0
  0
VERTEX
  8
0
 62
7
  6
CONTINUOUS
 10
-108.7676368062
 20
-30.6449400054
  0
VERTEX
  8
0
 62
7
  6
CONTINUOUS
 10
-108.7575804949
 20
-31.2146446278
  0
VERTEX
  8
0
 62
7
  6
CONTINUOUS
 10
-108.7263251064
 20
-31.7788704412
  0
VERTEX
  8
0
 62
7
  6
CONTINUOUS
 10
-108.674559992
 20
-32.3356298128
  0
VERTEX
  8
0
 62
7
  6
CONTINUOUS
 10
-108.6024383191
 20
-32.88788921
  0
VERTEX
  8
0
 62
7
  6
CONTINUOUS
 10
-108.5095619047
 20
-33.438769333
  0
VERTEX
  8
0
 62
7
  6
CONTINUOUS
 10
-108.3962531352
 20
-33.9856918036
  0
VERTEX
  8
0
 62
7
  6
CONTINUOUS
 10
-108.2628041791
 20
-34.5273532329
  0
VERTEX
  8
0
 62
7
  6
CONTINUOUS
 10
-108.1094159497
 20
-35.063141625
  0
VERTEX
  8
0
 62
7
  6
CONTINUOUS
 10
-107.9363799657
 20
-35.5922105754
  0
VERTEX
  8
0
 62
7
  6
CONTINUOUS
 10
-107.7439160374
 20
-36.1140318368
  0
VERTEX
  8
0
 62
7
  6
CONTINUOUS
 10
-107.5322714901
 20
-36.6280116545
  0
VERTEX
  8
0
 62
7
  6
CONTINUOUS
 10
-107.3017154938
 20
-37.1335367816
  0
VERTEX
  8
0
 62
7
  6
CONTINUOUS
 10
-107.0525003785
 20
-37.6300561419
  0
VERTEX
  8
0
 62
7
  6
CONTINUOUS
 10
-106.7849964943
 20
-38.1168257757
  0
VERTEX
  8
0
 62
7
  6
CONTINUOUS
 10
-106.4995738312
 20
-38.5931729254
  0
VERTEX
  8
0
 62
7
  6
CONTINUOUS
 10
-106.196645075
 20
-39.0584170465
  0
VERTEX
  8
0
 62
7
  6
CONTINUOUS
 10
-105.8766581139
 20
-39.5118838542
  0
VERTEX
  8
0
 62
7
  6
CONTINUOUS
 10
-105.5400394074
 20
-39.9529860208
  0
VERTEX
  8
0
 62
7
  6
CONTINUOUS
 10
-105.1872524632
 20
-40.3811266658
  0
VERTEX
  8
0
 62
7
  6
CONTINUOUS
 10
-104.8187578287
 20
-40.7957550429
  0
VERTEX
  8
0
 62
7
  6
CONTINUOUS
 10
-104.435038592
 20
-41.1963274399
  0
VERTEX
  8
0
 62
7
  6
CONTINUOUS
 10
-104.0365958671
 20
-41.5823172862
  0
VERTEX
  8
0
 62
7
  6
CONTINUOUS
 10
-103.6239404281
 20
-41.9532190865
  0
VERTEX
  8
0
 62
7
  6
CONTINUOUS
 10
-103.1976265897
 20
-42.3085225885
  0
VERTEX
  8
0
 62
7
  6
CONTINUOUS
 10
-102.7582021014
 20
-42.647754777
  0
VERTEX
  8
0
 62
7
  6
CONTINUOUS
 10
-102.3063018929
 20
-42.9704124111
  0
VERTEX
  8
0
 62
7
  6
CONTINUOUS
 10
-101.8425688787
 20
-43.2760275645
  0
VERTEX
  8
0
 62
7
  6
CONTINUOUS
 10
-101.3676446683
 20
-43.5641736562
  0
VERTEX
  8
0
 62
7
  6
CONTINUOUS
 10
-100.88223305
 20
-43.8344230504
  0
VERTEX
  8
0
 62
7
  6
CONTINUOUS
 10
-100.386888829
 20
-44.0864636283
  0
VERTEX
  8
0
 62
7
  6
CONTINUOUS
 10
-99.8822583626
 20
-44.319952699
  0
VERTEX
  8
0
 62
7
  6
CONTINUOUS
 10
-99.3688214615
 20
-44.5346397146
  0
VERTEX
  8
0
 62
7
  6
CONTINUOUS
 10
-98.846891435
 20
-44.7303272759
  0
VERTEX
  8
0
 62
7
  6
CONTINUOUS
 10
-98.3176356703
 20
-44.9065200638
  0
VERTEX
  8
0
 62
7
  6
CONTINUOUS
 10
-97.7832634344
 20
-45.0625453659
  0
VERTEX
  8
0
 62
7
  6
CONTINUOUS
 10
-97.2411115707
 20
-45.1991226162
  0
VERTEX
  8
0
 62
7
  6
CONTINUOUS
 10
-96.688489701
 20
-45.3164771917
  0
VERTEX
  8
0
 62
7
  6
CONTINUOUS
 10
-96.127313176
 20
-45.413621773
  0
VERTEX
  8
0
 62
7
  6
CONTINUOUS
 10
-95.557741949
 20
-45.489988306
  0
VERTEX
  8
0
 62
7
  6
CONTINUOUS
 10
-94.9826181687
 20
-45.5447495918
  0
VERTEX
  8
0
 62
7
  6
CONTINUOUS
 10
-94.4049020794
 20
-45.5774190151
  0
VERTEX
  8
0
 62
7
  6
CONTINUOUS
 10
-93.8247163349
 20
-45.5878604767
  0
SEQEND
  0
POLYLINE
  8
0
 62
7
  6
CONTINUOUS
 66
1
 70
0
  0
VERTEX
  8
0
 62
7
  6
CONTINUOUS
 10
-103.3829465386
 20
254.2019397155
  0
VERTEX
  8
0
 62
7
  6
CONTINUOUS
 10
-103.6190090143
 20
324.1242408076
  0
VERTEX
  8
0
 62
7
  6
CONTINUOUS
 10
-103.6343428762
 20
328.9366075014
  0
SEQEND
  0
LINE
  8
0
 62
7
  6
CONTINUOUS
 10
-103.313066042
 20
231.3516608299
 11
-103.3829465386
 21
254.2019397155
  0
LINE
  8
0
 62
7
  6
CONTINUOUS
 10
-103.2765647146
 20
217.642263624
 11
-103.313066042
 21
231.3516608299
  0
LINE
  8
0
 62
7
  6
CONTINUOUS
 10
-103.2362637495
 20
199.3212026099
 11
-103.2765647146
 21
217.642263624
  0
LINE
  8
0
 62
7
  6
CONTINUOUS
 10
-103.2135275075
 20
185.5612321696
 11
-103.2362637495
 21
199.3212026099
  0
LINE
  8
0
 62
7
  6
CONTINUOUS
 10
-103.1978701298
 20
171.5778565132
 11
-103.2135275075
 21
185.5612321696
  0
LINE
  8
0
 62
7
  6
CONTINUOUS
 10
-103.1917354175
 20
161.9593630258
 11
-103.1978701298
 21
171.5778565132
  0
LINE
  8
0
 62
7
  6
CONTINUOUS
 10
-113.9672956164
 20
-35.7875192869
 11
-113.9672956164
 21
339.2124807131
  0
LINE
  8
0
 62
7
  6
CONTINUOUS
 10
-111.4672956164
 20
-35.7875192869
 11
-111.4672956164
 21
339.2124807131
  0
LINE
  8
0
 62
7
  6
CONTINUOUS
 10
-111.2581235515
 20
334.0699014315
 11
-111.2581235515
 21
-30.6449400054
  0
LINE
  8
0
 62
7
  6
CONTINUOUS
 10
-108.7676368062
 20
334.0699014315
 11
-108.7676368062
 21
-30.6449400054
  0
LINE
  8
0
 62
7
  6
CONTINUOUS
 10
-103.1894964139
 20
151.7124807131
 11
-103.1917354175
 21
161.9593630258
  0
LINE
  8
0
 62
7
  6
CONTINUOUS
 10
-103.1928777574
 20
139.1136559444
 11
-103.1894964139
 21
151.7124807131
  0
LINE
  8
0
 62
7
  6
CONTINUOUS
 10
-103.2016067278
 20
127.7891560646
 11
-103.1928777574
 21
139.1136559444
  0
LINE
  8
0
 62
7
  6
CONTINUOUS
 10
-103.2216184382
 20
112.4569633818
 11
-103.2016067278
 21
127.7891560646
  0
LINE
  8
0
 62
7
  6
CONTINUOUS
 10
-103.2484937551
 20
98.0010194856
 11
-103.2216184382
 21
112.4569633818
  0
LINE
  8
0
 62
7
  6
CONTINUOUS
 10
-103.2698994062
 20
88.5134676285
 11
-103.2484937551
 21
98.0010194856
  0
LINE
  8
0
 62
7
  6
CONTINUOUS
 10
-103.3067951079
 20
74.307931797
 11
-103.2698994062
 21
88.5134676285
  0
LINE
  8
0
 62
7
  6
CONTINUOUS
 10
-103.3484952493
 20
60.1038511653
 11
-103.3067951079
 21
74.307931797
  0
POLYLINE
  8
0
 62
7
  6
CONTINUOUS
 66
1
 70
0
  0
VERTEX
  8
0
 62
7
  6
CONTINUOUS
 10
-103.6343414598
 20
-25.5116446589
  0
VERTEX
  8
0
 62
7
  6
CONTINUOUS
 10
-103.6028039849
 20
-15.6946399823
  0
VERTEX
  8
0
 62
7
  6
CONTINUOUS
 10
-103.5869665401
 20
-10.8823527032
  0
SEQEND
  0
LINE
  8
0
 62
7
  6
CONTINUOUS
 10
-103.3783324562
 20
50.6484082925
 11
-103.3484952493
 21
60.1038511653
  0
POLYLINE
  8
0
 62
7
  6
CONTINUOUS
 66
1
 70
0
  0
VERTEX
  8
0
 62
7
  6
CONTINUOUS
 10
-103.5869665401
 20
-10.8823527032
  0
VERTEX
  8
0
 62
7
  6
CONTINUOUS
 10
-103.4902355866
 20
17.5224614192
  0
VERTEX
  8
0
 62
7
  6
CONTINUOUS
 10
-103.3783324562
 20
50.6484082925
  0
SEQEND
  0
LINE
  8
0
 62
7
  6
CONTINUOUS
 10
-88.9857112887
 20
-37.678242643
 11
-89.0079048914
 21
-37.1763585365
  0
LINE
  8
0
 62
7
  6
CONTINUOUS
 10
-89.0079048914
 20
-37.1763585365
 11
-89.026917375
 21
-36.6491665567
  0
LINE
  8
0
 62
7
  6
CONTINUOUS
 10
-89.026917375
 20
-36.6491665567
 11
-89.0425721625
 21
-36.1015629097
  0
LINE
  8
0
 62
7
  6
CONTINUOUS
 10
-89.0425721625
 20
-36.1015629097
 11
-89.0547238603
 21
-35.5386334736
  0
POLYLINE
  8
0
 62
7
  6
CONTINUOUS
 66
1
 70
0
  0
VERTEX
  8
0
 62
7
  6
CONTINUOUS
 10
-89.0547238603
 20
-35.5386334736
  0
VERTEX
  8
0
 62
7
  6
CONTINUOUS
 10
-89.0632596164
 20
-34.9656061727
  0
VERTEX
  8
0
 62
7
  6
CONTINUOUS
 10
-89.0661454088
 20
-34.6769666006
  0
SEQEND
  0
LINE
  8
0
 62
7
  6
CONTINUOUS
 10
-98.0464098799
 20
277.29016709
 11
-98.0907841543
 21
329.1518146835
  0
LINE
  8
0
 62
7
  6
CONTINUOUS
 10
-98.0204050503
 20
240.688544447
 11
-98.0464098799
 21
277.29016709
  0
LINE
  8
0
 62
7
  6
CONTINUOUS
 10
-97.997392082
 20
190.2639198137
 11
-98.0204050503
 21
240.688544447
  0
LINE
  8
0
 62
7
  6
CONTINUOUS
 10
-98.9672956164
 20
354.2124807131
 11
-98.9672956164
 21
351.7124807131
  0
LINE
  8
0
 62
7
  6
CONTINUOUS
 10
-98.9672956164
 20
-50.7875192869
 11
-98.9672956164
 21
-48.2875192869
  0
LINE
  8
0
 62
7
  6
CONTINUOUS
 10
-97.9928431089
 20
166.8669969795
 11
-97.997392082
 21
190.2639198137
  0
LINE
  8
0
 62
7
  6
CONTINUOUS
 10
-93.8247163349
 20
-45.5878604767
 11
-93.8247163349
 21
-48.078347222
  0
LINE
  8
0
 62
7
  6
CONTINUOUS
 10
-93.8247163349
 20
349.0128219029
 11
-93.8247163349
 21
351.5033086481
  0
LINE
  8
0
 62
7
  6
CONTINUOUS
 10
-98.0044806157
 20
93.0969695594
 11
-97.9928431089
 21
166.8669969795
  0
LINE
  8
0
 62
7
  6
CONTINUOUS
 10
-98.0694675952
 20
-1.6007009804
 11
-98.0044806157
 21
93.0969695594
  0
LINE
  8
0
 62
7
  6
CONTINUOUS
 10
-98.0908549589
 20
-25.7250102404
 11
-98.0694675952
 21
-1.6007009804
  0
LINE
  8
0
 62
7
  6
CONTINUOUS
 10
-89.0661454046
 20
338.1019280322
 11
-89.0594494791
 21
338.6780124742
  0
LINE
  8
0
 62
7
  6
CONTINUOUS
 10
-89.0594494791
 20
338.6780124742
 11
-89.0490937229
 21
339.2466513742
  0
LINE
  8
0
 62
7
  6
CONTINUOUS
 10
-89.0490937229
 20
339.2466513742
 11
-89.0351743138
 21
339.8025635862
  0
LINE
  8
0
 62
7
  6
CONTINUOUS
 10
-89.0351743138
 20
339.8025635862
 11
-89.0178205173
 21
340.3405864568
  0
POLYLINE
  8
0
 62
7
  6
CONTINUOUS
 66
1
 70
0
  0
VERTEX
  8
0
 62
7
  6
CONTINUOUS
 10
-89.0178205173
 20
340.3405864568
  0
VERTEX
  8
0
 62
7
  6
CONTINUOUS
 10
-88.9971935177
 20
340.8557227832
  0
VERTEX
  8
0
 62
7
  6
CONTINUOUS
 10
-88.9857112861
 20
341.1032040427
  0
VERTEX
  8
0
 62
7
  6
CONTINUOUS
 10
-88.9734848701
 20
341.3431887367
  0
VERTEX
  8
0
 62
7
  6
CONTINUOUS
 10
-88.9605426746
 20
341.5751193251
  0
VERTEX
  8
0
 62
7
  6
CONTINUOUS
 10
-88.9469147661
 20
341.7984570002
  0
VERTEX
  8
0
 62
7
  6
CONTINUOUS
 10
-88.9326328045
 20
342.0126829115
  0
VERTEX
  8
0
 62
7
  6
CONTINUOUS
 10
-88.917729969
 20
342.2172993782
  0
VERTEX
  8
0
 62
7
  6
CONTINUOUS
 10
-88.9022408815
 20
342.4118310431
  0
VERTEX
  8
0
 62
7
  6
CONTINUOUS
 10
-88.8862015253
 20
342.5958259788
  0
VERTEX
  8
0
 62
7
  6
CONTINUOUS
 10
-88.8696491628
 20
342.7688567331
  0
VERTEX
  8
0
 62
7
  6
CONTINUOUS
 10
-88.8526222468
 20
342.9305213369
  0
VERTEX
  8
0
 62
7
  6
CONTINUOUS
 10
-88.8351603312
 20
343.0804442349
  0
VERTEX
  8
0
 62
7
  6
CONTINUOUS
 10
-88.8173039869
 20
343.2182770937
  0
VERTEX
  8
0
 62
7
  6
CONTINUOUS
 10
-88.7990947029
 20
343.3436996705
  0
VERTEX
  8
0
 62
7
  6
CONTINUOUS
 10
-88.7805747763
 20
343.4564206394
  0
VERTEX
  8
0
 62
7
  6
CONTINUOUS
 10
-88.7617872257
 20
343.5561781625
  0
VERTEX
  8
0
 62
7
  6
CONTINUOUS
 10
-88.7427757019
 20
343.6427404573
  0
VERTEX
  8
0
 62
7
  6
CONTINUOUS
 10
-88.7235843749
 20
343.7159064122
  0
VERTEX
  8
0
 62
7
  6
CONTINUOUS
 10
-88.7042578269
 20
343.7755060616
  0
VERTEX
  8
0
 62
7
  6
CONTINUOUS
 10
-88.6848409554
 20
343.8214009481
  0
VERTEX
  8
0
 62
7
  6
CONTINUOUS
 10
-88.6653788693
 20
343.8534844469
  0
SEQEND
  0
POLYLINE
  8
0
 62
7
  6
CONTINUOUS
 66
1
 70
0
  0
VERTEX
  8
0
 62
7
  6
CONTINUOUS
 10
-103.634343155
 20
328.9366077803
  0
VERTEX
  8
0
 62
7
  6
CONTINUOUS
 10
-103.6004243324
 20
328.9475433667
  0
VERTEX
  8
0
 62
7
  6
CONTINUOUS
 10
-103.5514108445
 20
328.9584511788
  0
VERTEX
  8
0
 62
7
  6
CONTINUOUS
 10
-103.487427177
 20
328.9693035128
  0
VERTEX
  8
0
 62
7
  6
CONTINUOUS
 10
-103.4086358337
 20
328.9800728063
  0
VERTEX
  8
0
 62
7
  6
CONTINUOUS
 10
-103.3152369194
 20
328.9907317084
  0
VERTEX
  8
0
 62
7
  6
CONTINUOUS
 10
-103.2074676647
 20
329.0012531457
  0
VERTEX
  8
0
 62
7
  6
CONTINUOUS
 10
-103.0856018219
 20
329.0116103929
  0
VERTEX
  8
0
 62
7
  6
CONTINUOUS
 10
-102.9499488632
 20
329.0217771492
  0
VERTEX
  8
0
 62
7
  6
CONTINUOUS
 10
-102.800853246
 20
329.0317275973
  0
VERTEX
  8
0
 62
7
  6
CONTINUOUS
 10
-102.6386937004
 20
329.0414364605
  0
VERTEX
  8
0
 62
7
  6
CONTINUOUS
 10
-102.4638821487
 20
329.0508790764
  0
VERTEX
  8
0
 62
7
  6
CONTINUOUS
 10
-102.2768625373
 20
329.0600314656
  0
SEQEND
  0
POLYLINE
  8
0
 62
7
  6
CONTINUOUS
 66
1
 70
0
  0
VERTEX
  8
0
 62
7
  6
CONTINUOUS
 10
465.890125102
 20
-48.078347222
  0
VERTEX
  8
0
 62
7
  6
CONTINUOUS
 10
466.5543990075
 20
-48.0654724494
  0
VERTEX
  8
0
 62
7
  6
CONTINUOUS
 10
467.2114463019
 20
-48.028552579
  0
VERTEX
  8
0
 62
7
  6
CONTINUOUS
 10
467.8602696323
 20
-47.9675687169
  0
VERTEX
  8
0
 62
7
  6
CONTINUOUS
 10
468.5038610572
 20
-47.8825775443
  0
VERTEX
  8
0
 62
7
  6
CONTINUOUS
 10
469.1458781608
 20
-47.7735150049
  0
VERTEX
  8
0
 62
7
  6
CONTINUOUS
 10
469.7833270133
 20
-47.6407244167
  0
VERTEX
  8
0
 62
7
  6
CONTINUOUS
 10
470.4146632345
 20
-47.484422556
  0
VERTEX
  8
0
 62
7
  6
CONTINUOUS
 10
471.0391957602
 20
-47.304924992
  0
VERTEX
  8
0
 62
7
  6
CONTINUOUS
 10
471.6559196099
 20
-47.1025247
  0
VERTEX
  8
0
 62
7
  6
CONTINUOUS
 10
472.2642321528
 20
-46.8775062389
  0
VERTEX
  8
0
 62
7
  6
CONTINUOUS
 10
472.863430557
 20
-46.6301402446
  0
VERTEX
  8
0
 62
7
  6
CONTINUOUS
 10
473.4528104456
 20
-46.3607614622
  0
VERTEX
  8
0
 62
7
  6
CONTINUOUS
 10
474.0317153079
 20
-46.0696372909
  0
VERTEX
  8
0
 62
7
  6
CONTINUOUS
 10
474.5992987133
 20
-45.757240404
  0
VERTEX
  8
0
 62
7
  6
CONTINUOUS
 10
475.1547503078
 20
-45.4239563307
  0
VERTEX
  8
0
 62
7
  6
CONTINUOUS
 10
475.6973053502
 20
-45.0703139023
  0
VERTEX
  8
0
 62
7
  6
CONTINUOUS
 10
476.2261478847
 20
-44.6967915975
  0
VERTEX
  8
0
 62
7
  6
CONTINUOUS
 10
476.7406212002
 20
-44.3039260034
  0
VERTEX
  8
0
 62
7
  6
CONTINUOUS
 10
477.2400017885
 20
-43.8922233969
  0
VERTEX
  8
0
 62
7
  6
CONTINUOUS
 10
477.7236740852
 20
-43.4622531875
  0
VERTEX
  8
0
 62
7
  6
CONTINUOUS
 10
478.1909768734
 20
-43.014548813
  0
VERTEX
  8
0
 62
7
  6
CONTINUOUS
 10
478.6413236016
 20
-42.5497244649
  0
VERTEX
  8
0
 62
7
  6
CONTINUOUS
 10
479.0740951313
 20
-42.0683465752
  0
VERTEX
  8
0
 62
7
  6
CONTINUOUS
 10
479.488728006
 20
-41.5710918597
  0
VERTEX
  8
0
 62
7
  6
CONTINUOUS
 10
479.8846343091
 20
-41.0585678933
  0
VERTEX
  8
0
 62
7
  6
CONTINUOUS
 10
480.2612682821
 20
-40.5315485297
  0
VERTEX
  8
0
 62
7
  6
CONTINUOUS
 10
480.6180393893
 20
-39.990750728
  0
VERTEX
  8
0
 62
7
  6
CONTINUOUS
 10
480.9544940466
 20
-39.4369527462
  0
VERTEX
  8
0
 62
7
  6
CONTINUOUS
 10
481.2700934073
 20
-38.8709501221
  0
VERTEX
  8
0
 62
7
  6
CONTINUOUS
 10
481.5645027229
 20
-38.2934079759
  0
VERTEX
  8
0
 62
7
  6
CONTINUOUS
 10
481.8373026107
 20
-37.7050673316
  0
VERTEX
  8
0
 62
7
  6
CONTINUOUS
 10
482.0882081264
 20
-37.1064960169
  0
VERTEX
  8
0
 62
7
  6
CONTINUOUS
 10
482.3169593199
 20
-36.4980438609
  0
VERTEX
  8
0
 62
7
  6
CONTINUOUS
 10
482.5230618256
 20
-35.8811058845
  0
VERTEX
  8
0
 62
7
  6
CONTINUOUS
 10
482.7057753827
 20
-35.2582520208
  0
VERTEX
  8
0
 62
7
  6
CONTINUOUS
 10
482.8655777268
 20
-34.6263073623
  0
VERTEX
  8
0
 62
7
  6
CONTINUOUS
 10
483.0031129383
 20
-33.9821989249
  0
VERTEX
  8
0
 62
7
  6
CONTINUOUS
 10
483.1171417226
 20
-33.328190871
  0
VERTEX
  8
0
 62
7
  6
CONTINUOUS
 10
483.2068513322
 20
-32.6643893258
  0
VERTEX
  8
0
 62
7
  6
CONTINUOUS
 10
483.2716062064
 20
-31.9941954157
  0
VERTEX
  8
0
 62
7
  6
CONTINUOUS
 10
483.310386559
 20
-31.3214752049
  0
VERTEX
  8
0
 62
7
  6
CONTINUOUS
 10
483.3235323186
 20
-30.6449400054
  0
SEQEND
  0
POLYLINE
  8
0
 62
7
  6
CONTINUOUS
 66
1
 70
0
  0
VERTEX
  8
0
 62
7
  6
CONTINUOUS
 10
460.7307876406
 20
-40.4285230154
  0
VERTEX
  8
0
 62
7
  6
CONTINUOUS
 10
461.3213791764
 20
-40.4172764939
  0
VERTEX
  8
0
 62
7
  6
CONTINUOUS
 10
461.9107146824
 20
-40.3829265842
  0
VERTEX
  8
0
 62
7
  6
CONTINUOUS
 10
462.49789845
 20
-40.3255585953
  0
VERTEX
  8
0
 62
7
  6
CONTINUOUS
 10
463.0820323807
 20
-40.2452803143
  0
VERTEX
  8
0
 62
7
  6
CONTINUOUS
 10
463.6622274348
 20
-40.1422363653
  0
VERTEX
  8
0
 62
7
  6
CONTINUOUS
 10
464.2375955901
 20
-40.0166075187
  0
VERTEX
  8
0
 62
7
  6
CONTINUOUS
 10
464.8072561934
 20
-39.8686087482
  0
VERTEX
  8
0
 62
7
  6
CONTINUOUS
 10
465.370349431
 20
-39.6984872452
  0
VERTEX
  8
0
 62
7
  6
CONTINUOUS
 10
465.9260215859
 20
-39.5065233882
  0
VERTEX
  8
0
 62
7
  6
CONTINUOUS
 10
466.4734393649
 20
-39.2930279901
  0
VERTEX
  8
0
 62
7
  6
CONTINUOUS
 10
467.0117797743
 20
-39.058343057
  0
VERTEX
  8
0
 62
7
  6
CONTINUOUS
 10
467.5402369138
 20
-38.8028413386
  0
VERTEX
  8
0
 62
7
  6
CONTINUOUS
 10
468.0580189212
 20
-38.5269250504
  0
VERTEX
  8
0
 62
7
  6
CONTINUOUS
 10
468.5643523253
 20
-38.2310260936
  0
VERTEX
  8
0
 62
7
  6
CONTINUOUS
 10
469.0584795348
 20
-37.9156047239
  0
VERTEX
  8
0
 62
7
  6
CONTINUOUS
 10
469.5396650543
 20
-37.5811482873
  0
VERTEX
  8
0
 62
7
  6
CONTINUOUS
 10
470.0071906865
 20
-37.2281712016
  0
VERTEX
  8
0
 62
7
  6
CONTINUOUS
 10
470.4603620402
 20
-36.8572130926
  0
VERTEX
  8
0
 62
7
  6
CONTINUOUS
 10
470.8985039803
 20
-36.4688388632
  0
VERTEX
  8
0
 62
7
  6
CONTINUOUS
 10
471.3209657617
 20
-36.063637532
  0
VERTEX
  8
0
 62
7
  6
CONTINUOUS
 10
471.7271177829
 20
-35.6422215857
  0
VERTEX
  8
0
 62
7
  6
CONTINUOUS
 10
472.1163562882
 20
-35.2052257762
  0
VERTEX
  8
0
 62
7
  6
CONTINUOUS
 10
472.4881004128
 20
-34.7533062952
  0
VERTEX
  8
0
 62
7
  6
CONTINUOUS
 10
472.8417954506
 20
-34.2871409425
  0
VERTEX
  8
0
 62
7
  6
CONTINUOUS
 10
473.1769116029
 20
-33.8074264848
  0
VERTEX
  8
0
 62
7
  6
CONTINUOUS
 10
473.4929453917
 20
-33.3148812777
  0
VERTEX
  8
0
 62
7
  6
CONTINUOUS
 10
473.7894198792
 20
-32.8102406529
  0
VERTEX
  8
0
 62
7
  6
CONTINUOUS
 10
474.065886452
 20
-32.2942589773
  0
VERTEX
  8
0
 62
7
  6
CONTINUOUS
 10
474.3219235735
 20
-31.7677070877
  0
VERTEX
  8
0
 62
7
  6
CONTINUOUS
 10
474.5571415846
 20
-31.2313680316
  0
VERTEX
  8
0
 62
7
  6
CONTINUOUS
 10
474.7711785149
 20
-30.6860392254
  0
VERTEX
  8
0
 62
7
  6
CONTINUOUS
 10
474.963702928
 20
-30.1325326618
  0
VERTEX
  8
0
 62
7
  6
CONTINUOUS
 10
475.134413401
 20
-29.5716689786
  0
VERTEX
  8
0
 62
7
  6
CONTINUOUS
 10
475.2830369813
 20
-29.0042918682
  0
VERTEX
  8
0
 62
7
  6
CONTINUOUS
 10
475.409333143
 20
-28.4312489821
  0
VERTEX
  8
0
 62
7
  6
CONTINUOUS
 10
475.5130923869
 20
-27.8534099366
  0
VERTEX
  8
0
 62
7
  6
CONTINUOUS
 10
475.5941383361
 20
-27.2716507849
  0
VERTEX
  8
0
 62
7
  6
CONTINUOUS
 10
475.6523301925
 20
-26.6868476629
  0
VERTEX
  8
0
 62
7
  6
CONTINUOUS
 10
475.687561892
 20
-26.0998816694
  0
VERTEX
  8
0
 62
7
  6
CONTINUOUS
 10
475.6997519222
 20
-25.5116463541
  0
SEQEND
  0
POLYLINE
  8
0
 62
7
  6
CONTINUOUS
 66
1
 70
0
  0
VERTEX
  8
0
 62
7
  6
CONTINUOUS
 10
465.890125102
 20
-45.5878604767
  0
VERTEX
  8
0
 62
7
  6
CONTINUOUS
 10
466.4598297245
 20
-45.5778041654
  0
VERTEX
  8
0
 62
7
  6
CONTINUOUS
 10
467.0240555378
 20
-45.5465487769
  0
VERTEX
  8
0
 62
7
  6
CONTINUOUS
 10
467.5808149094
 20
-45.4947836624
  0
VERTEX
  8
0
 62
7
  6
CONTINUOUS
 10
468.1330743067
 20
-45.4226619896
  0
VERTEX
  8
0
 62
7
  6
CONTINUOUS
 10
468.6839544296
 20
-45.3297855752
  0
VERTEX
  8
0
 62
7
  6
CONTINUOUS
 10
469.2308769003
 20
-45.2164768057
  0
VERTEX
  8
0
 62
7
  6
CONTINUOUS
 10
469.7725383295
 20
-45.0830278496
  0
VERTEX
  8
0
 62
7
  6
CONTINUOUS
 10
470.3083267216
 20
-44.9296396202
  0
VERTEX
  8
0
 62
7
  6
CONTINUOUS
 10
470.8373956721
 20
-44.7566036362
  0
VERTEX
  8
0
 62
7
  6
CONTINUOUS
 10
471.3592169335
 20
-44.5641397079
  0
VERTEX
  8
0
 62
7
  6
CONTINUOUS
 10
471.8731967511
 20
-44.3524951606
  0
VERTEX
  8
0
 62
7
  6
CONTINUOUS
 10
472.3787218783
 20
-44.1219391643
  0
VERTEX
  8
0
 62
7
  6
CONTINUOUS
 10
472.8752412386
 20
-43.872724049
  0
VERTEX
  8
0
 62
7
  6
CONTINUOUS
 10
473.3620108723
 20
-43.6052201648
  0
VERTEX
  8
0
 62
7
  6
CONTINUOUS
 10
473.838358022
 20
-43.3197975016
  0
VERTEX
  8
0
 62
7
  6
CONTINUOUS
 10
474.3036021432
 20
-43.0168687455
  0
VERTEX
  8
0
 62
7
  6
CONTINUOUS
 10
474.7570689509
 20
-42.6968817844
  0
VERTEX
  8
0
 62
7
  6
CONTINUOUS
 10
475.1981711175
 20
-42.3602630779
  0
VERTEX
  8
0
 62
7
  6
CONTINUOUS
 10
475.6263117625
 20
-42.0074761337
  0
VERTEX
  8
0
 62
7
  6
CONTINUOUS
 10
476.0409401395
 20
-41.6389814991
  0
VERTEX
  8
0
 62
7
  6
CONTINUOUS
 10
476.4415125365
 20
-41.2552622625
  0
VERTEX
  8
0
 62
7
  6
CONTINUOUS
 10
476.8275023829
 20
-40.8568195376
  0
VERTEX
  8
0
 62
7
  6
CONTINUOUS
 10
477.1984041832
 20
-40.4441640986
  0
VERTEX
  8
0
 62
7
  6
CONTINUOUS
 10
477.5537076852
 20
-40.0178502602
  0
VERTEX
  8
0
 62
7
  6
CONTINUOUS
 10
477.8929398737
 20
-39.5784257719
  0
VERTEX
  8
0
 62
7
  6
CONTINUOUS
 10
478.2155975078
 20
-39.1265255634
  0
VERTEX
  8
0
 62
7
  6
CONTINUOUS
 10
478.5212126612
 20
-38.6627925492
  0
VERTEX
  8
0
 62
7
  6
CONTINUOUS
 10
478.8093587529
 20
-38.1878683388
  0
VERTEX
  8
0
 62
7
  6
CONTINUOUS
 10
479.0796081471
 20
-37.7024567205
  0
VERTEX
  8
0
 62
7
  6
CONTINUOUS
 10
479.331648725
 20
-37.2071124995
  0
VERTEX
  8
0
 62
7
  6
CONTINUOUS
 10
479.5651377956
 20
-36.7024820331
  0
VERTEX
  8
0
 62
7
  6
CONTINUOUS
 10
479.7798248112
 20
-36.189045132
  0
VERTEX
  8
0
 62
7
  6
CONTINUOUS
 10
479.9755123726
 20
-35.6671151054
  0
VERTEX
  8
0
 62
7
  6
CONTINUOUS
 10
480.1517051604
 20
-35.1378593408
  0
VERTEX
  8
0
 62
7
  6
CONTINUOUS
 10
480.3077304625
 20
-34.6034871049
  0
VERTEX
  8
0
 62
7
  6
CONTINUOUS
 10
480.4443077128
 20
-34.0613352412
  0
VERTEX
  8
0
 62
7
  6
CONTINUOUS
 10
480.5616622883
 20
-33.5087133715
  0
VERTEX
  8
0
 62
7
  6
CONTINUOUS
 10
480.6588068696
 20
-32.9475368465
  0
VERTEX
  8
0
 62
7
  6
CONTINUOUS
 10
480.7351734027
 20
-32.3779656195
  0
VERTEX
  8
0
 62
7
  6
CONTINUOUS
 10
480.7899346884
 20
-31.8028418392
  0
VERTEX
  8
0
 62
7
  6
CONTINUOUS
 10
480.8226041117
 20
-31.2251257499
  0
VERTEX
  8
0
 62
7
  6
CONTINUOUS
 10
480.8330455734
 20
-30.6449400054
  0
SEQEND
  0
POLYLINE
  8
0
 62
7
  6
CONTINUOUS
 66
1
 70
0
  0
VERTEX
  8
0
 62
7
  6
CONTINUOUS
 10
461.1316257606
 20
-34.6769640769
  0
VERTEX
  8
0
 62
7
  6
CONTINUOUS
 10
461.4886160427
 20
-34.6713307053
  0
VERTEX
  8
0
 62
7
  6
CONTINUOUS
 10
461.844294021
 20
-34.651839258
  0
VERTEX
  8
0
 62
7
  6
CONTINUOUS
 10
462.1989337368
 20
-34.6184521368
  0
VERTEX
  8
0
 62
7
  6
CONTINUOUS
 10
462.5517132009
 20
-34.5712824385
  0
VERTEX
  8
0
 62
7
  6
CONTINUOUS
 10
462.9020762994
 20
-34.5103849022
  0
VERTEX
  8
0
 62
7
  6
CONTINUOUS
 10
463.2494988829
 20
-34.4358973037
  0
VERTEX
  8
0
 62
7
  6
CONTINUOUS
 10
463.593441012
 20
-34.3479168469
  0
VERTEX
  8
0
 62
7
  6
CONTINUOUS
 10
463.9333933893
 20
-34.2466202676
  0
VERTEX
  8
0
 62
7
  6
CONTINUOUS
 10
464.2688303019
 20
-34.1321455512
  0
VERTEX
  8
0
 62
7
  6
CONTINUOUS
 10
464.5992605343
 20
-34.0047064061
  0
VERTEX
  8
0
 62
7
  6
CONTINUOUS
 10
464.9241750392
 20
-33.8644793356
  0
VERTEX
  8
0
 62
7
  6
CONTINUOUS
 10
465.2431011248
 20
-33.7117141604
  0
VERTEX
  8
0
 62
7
  6
CONTINUOUS
 10
465.5555466813
 20
-33.5466248255
  0
VERTEX
  8
0
 62
7
  6
CONTINUOUS
 10
465.8610605072
 20
-33.3694956419
  0
VERTEX
  8
0
 62
7
  6
CONTINUOUS
 10
466.1591694358
 20
-33.1805768174
  0
VERTEX
  8
0
 62
7
  6
CONTINUOUS
 10
466.4494469266
 20
-32.9801847412
  0
VERTEX
  8
0
 62
7
  6
CONTINUOUS
 10
466.731442024
 20
-32.7686037491
  0
VERTEX
  8
0
 62
7
  6
CONTINUOUS
 10
467.0047545718
 20
-32.5461802962
  0
VERTEX
  8
0
 62
7
  6
CONTINUOUS
 10
467.2689581649
 20
-32.3132307058
  0
VERTEX
  8
0
 62
7
  6
CONTINUOUS
 10
467.5236804625
 20
-32.0701297443
  0
VERTEX
  8
0
 62
7
  6
CONTINUOUS
 10
467.76852119
 20
-31.8172240025
  0
VERTEX
  8
0
 62
7
  6
CONTINUOUS
 10
468.0031377205
 20
-31.5549143134
  0
VERTEX
  8
0
 62
7
  6
CONTINUOUS
 10
468.2271579417
 20
-31.2835752573
  0
VERTEX
  8
0
 62
7
  6
CONTINUOUS
 10
468.4402701261
 20
-31.0036321121
  0
VERTEX
  8
0
 62
7
  6
CONTINUOUS
 10
468.6421317451
 20
-30.7154855634
  0
VERTEX
  8
0
 62
7
  6
CONTINUOUS
 10
468.8324632956
 20
-30.4195838458
  0
VERTEX
  8
0
 62
7
  6
CONTINUOUS
 10
469.0109529343
 20
-30.1163525755
  0
VERTEX
  8
0
 62
7
  6
CONTINUOUS
 10
469.1773554711
 20
-29.8062601192
  0
VERTEX
  8
0
 62
7
  6
CONTINUOUS
 10
469.3313915059
 20
-29.489755343
  0
VERTEX
  8
0
 62
7
  6
CONTINUOUS
 10
469.4728522489
 20
-29.1673221431
  0
VERTEX
  8
0
 62
7
  6
CONTINUOUS
 10
469.6014935519
 20
-28.8394274106
  0
VERTEX
  8
0
 62
7
  6
CONTINUOUS
 10
469.7171426101
 20
-28.5065707635
  0
VERTEX
  8
0
 62
7
  6
CONTINUOUS
 10
469.8195908035
 20
-28.1692349761
  0
VERTEX
  8
0
 62
7
  6
CONTINUOUS
 10
469.9087020353
 20
-27.8279371684
  0
VERTEX
  8
0
 62
7
  6
CONTINUOUS
 10
469.9843030033
 20
-27.4831782853
  0
VERTEX
  8
0
 62
7
  6
CONTINUOUS
 10
470.0462973854
 20
-27.1354892912
  0
VERTEX
  8
0
 62
7
  6
CONTINUOUS
 10
470.0945511889
 20
-26.7853456248
  0
VERTEX
  8
0
 62
7
  6
CONTINUOUS
 10
470.1290048658
 20
-26.4334144446
  0
VERTEX
  8
0
 62
7
  6
CONTINUOUS
 10
470.1495416234
 20
-26.0806243716
  0
VERTEX
  8
0
 62
7
  6
CONTINUOUS
 10
470.1562001151
 20
-25.7266660117
  0
SEQEND
  0
LINE
  8
0
 62
7
  6
CONTINUOUS
 10
471.0327043836
 20
-50.7875192869
 11
-98.9672956164
 21
-50.7875192869
  0
LINE
  8
0
 62
7
  6
CONTINUOUS
 10
471.0327043836
 20
-48.2875192869
 11
-98.9672956164
 21
-48.2875192869
  0
LINE
  8
0
 62
7
  6
CONTINUOUS
 10
-93.8247163349
 20
-48.078347222
 11
465.890125102
 21
-48.078347222
  0
LINE
  8
0
 62
7
  6
CONTINUOUS
 10
-93.8247163349
 20
-45.5878604767
 11
465.890125102
 21
-45.5878604767
  0
POLYLINE
  8
0
 62
7
  6
CONTINUOUS
 66
1
 70
0
  0
VERTEX
  8
0
 62
7
  6
CONTINUOUS
 10
460.7307850637
 20
-40.4285204384
  0
VERTEX
  8
0
 62
7
  6
CONTINUOUS
 10
439.5222551486
 20
-40.3085881061
  0
VERTEX
  8
0
 62
7
  6
CONTINUOUS
 10
418.3381630572
 20
-40.1983205933
  0
VERTEX
  8
0
 62
7
  6
CONTINUOUS
 10
397.1810439902
 20
-40.0977344146
  0
VERTEX
  8
0
 62
7
  6
CONTINUOUS
 10
376.0432923457
 20
-40.0067800264
  0
VERTEX
  8
0
 62
7
  6
CONTINUOUS
 10
354.9187234278
 20
-39.9254144885
  0
VERTEX
  8
0
 62
7
  6
CONTINUOUS
 10
333.8056097186
 20
-39.8536345051
  0
VERTEX
  8
0
 62
7
  6
CONTINUOUS
 10
312.7006826892
 20
-39.7914227362
  0
VERTEX
  8
0
 62
7
  6
CONTINUOUS
 10
291.6023806772
 20
-39.7387783749
  0
VERTEX
  8
0
 62
7
  6
CONTINUOUS
 10
270.5087318429
 20
-39.695694467
  0
VERTEX
  8
0
 62
7
  6
CONTINUOUS
 10
249.4176981888
 20
-39.6621721153
  0
VERTEX
  8
0
 62
7
  6
CONTINUOUS
 10
228.3272436109
 20
-39.6382083258
  0
VERTEX
  8
0
 62
7
  6
CONTINUOUS
 10
207.2353905889
 20
-39.6238084351
  0
VERTEX
  8
0
 62
7
  6
CONTINUOUS
 10
186.1401499675
 20
-39.6189736548
  0
VERTEX
  8
0
 62
7
  6
CONTINUOUS
 10
165.0395205472
 20
-39.6237133654
  0
VERTEX
  8
0
 62
7
  6
CONTINUOUS
 10
143.9315775375
 20
-39.638032693
  0
VERTEX
  8
0
 62
7
  6
CONTINUOUS
 10
122.8141025558
 20
-39.6619456116
  0
VERTEX
  8
0
 62
7
  6
CONTINUOUS
 10
101.6848534435
 20
-39.6954618887
  0
VERTEX
  8
0
 62
7
  6
CONTINUOUS
 10
80.5419767385
 20
-39.7385992696
  0
VERTEX
  8
0
 62
7
  6
CONTINUOUS
 10
59.385919573
 20
-39.7913617806
  0
VERTEX
  8
0
 62
7
  6
CONTINUOUS
 10
38.2075380053
 20
-39.8538003472
  0
VERTEX
  8
0
 62
7
  6
CONTINUOUS
 10
16.9948983506
 20
-39.9259694394
  0
VERTEX
  8
0
 62
7
  6
CONTINUOUS
 10
-4.2431830284
 20
-40.0078624505
  0
VERTEX
  8
0
 62
7
  6
CONTINUOUS
 10
-25.5475722188
 20
-40.0997551078
  0
VERTEX
  8
0
 62
7
  6
CONTINUOUS
 10
-46.781155555
 20
-40.2008548794
  0
VERTEX
  8
0
 62
7
  6
CONTINUOUS
 10
-67.8050049458
 20
-40.3103735646
  0
VERTEX
  8
0
 62
7
  6
CONTINUOUS
 10
-88.665429755
 20
-40.4285738969
  0
SEQEND
  0
LINE
  8
0
 62
7
  6
CONTINUOUS
 10
474.1435187048
 20
-25.6439089532
 11
473.7128617489
 21
-25.6605574328
  0
LINE
  8
0
 62
7
  6
CONTINUOUS
 10
473.7128617489
 20
-25.6605574328
 11
473.2416924735
 21
-25.6756940566
  0
LINE
  8
0
 62
7
  6
CONTINUOUS
 10
473.2416924735
 20
-25.6756940566
 11
472.7347947234
 21
-25.6891651415
  0
LINE
  8
0
 62
7
  6
CONTINUOUS
 10
472.7347947234
 20
-25.6891651415
 11
472.197314639
 21
-25.7008339262
  0
LINE
  8
0
 62
7
  6
CONTINUOUS
 10
472.197314639
 20
-25.7008339262
 11
471.345761077
 21
-25.7147039348
  0
POLYLINE
  8
0
 62
7
  6
CONTINUOUS
 66
1
 70
0
  0
VERTEX
  8
0
 62
7
  6
CONTINUOUS
 10
471.345761077
 20
-25.7147039348
  0
VERTEX
  8
0
 62
7
  6
CONTINUOUS
 10
470.4571674577
 20
-25.7239402678
  0
VERTEX
  8
0
 62
7
  6
CONTINUOUS
 10
470.1562276319
 20
-25.7259497592
  0
SEQEND
  0
LINE
  8
0
 62
7
  6
CONTINUOUS
 10
486.0327043836
 20
-35.7875192869
 11
483.5327043836
 21
-35.7875192869
  0
LINE
  8
0
 62
7
  6
CONTINUOUS
 10
-113.9672956164
 20
-35.7875192869
 11
-111.4672956164
 21
-35.7875192869
  0
LINE
  8
0
 62
7
  6
CONTINUOUS
 10
-108.7676368062
 20
-30.6449400054
 11
-111.2581235515
 21
-30.6449400054
  0
LINE
  8
0
 62
7
  6
CONTINUOUS
 10
480.8330455734
 20
-30.6449400054
 11
483.3235323186
 21
-30.6449400054
  0
POLYLINE
  8
0
 62
7
  6
CONTINUOUS
 66
1
 70
0
  0
VERTEX
  8
0
 62
7
  6
CONTINUOUS
 10
461.1316257606
 20
-34.6769640769
  0
VERTEX
  8
0
 62
7
  6
CONTINUOUS
 10
439.8924614096
 20
-34.5995790166
  0
VERTEX
  8
0
 62
7
  6
CONTINUOUS
 10
418.6771576473
 20
-34.5283970955
  0
VERTEX
  8
0
 62
7
  6
CONTINUOUS
 10
397.4891720384
 20
-34.4634245722
  0
VERTEX
  8
0
 62
7
  6
CONTINUOUS
 10
376.3205832948
 20
-34.4046404788
  0
VERTEX
  8
0
 62
7
  6
CONTINUOUS
 10
355.1651873992
 20
-34.3520239211
  0
VERTEX
  8
0
 62
7
  6
CONTINUOUS
 10
334.0212623054
 20
-34.3055811892
  0
VERTEX
  8
0
 62
7
  6
CONTINUOUS
 10
312.8855371758
 20
-34.2653095215
  0
VERTEX
  8
0
 62
7
  6
CONTINUOUS
 10
291.7564486638
 20
-34.2312154512
  0
VERTEX
  8
0
 62
7
  6
CONTINUOUS
 10
270.6320244703
 20
-34.2033029029
  0
VERTEX
  8
0
 62
7
  6
CONTINUOUS
 10
249.5102220344
 20
-34.1815772284
  0
VERTEX
  8
0
 62
7
  6
CONTINUOUS
 10
228.3890032798
 20
-34.1660434886
  0
VERTEX
  8
0
 62
7
  6
CONTINUOUS
 10
207.2663852755
 20
-34.1567067767
  0
VERTEX
  8
0
 62
7
  6
CONTINUOUS
 10
186.1403761632
 20
-34.15357247
  0
VERTEX
  8
0
 62
7
  6
CONTINUOUS
 10
165.0089689609
 20
-34.1566450789
  0
VERTEX
  8
0
 62
7
  6
CONTINUOUS
 10
143.8702360523
 20
-34.1659295217
  0
VERTEX
  8
0
 62
7
  6
CONTINUOUS
 10
122.7219531201
 20
-34.1814302565
  0
VERTEX
  8
0
 62
7
  6
CONTINUOUS
 10
101.5618750407
 20
-34.2031520049
  0
VERTEX
  8
0
 62
7
  6
CONTINUOUS
 10
80.3881439261
 20
-34.231099199
  0
VERTEX
  8
0
 62
7
  6
CONTINUOUS
 10
59.201210733
 20
-34.2652698128
  0
VERTEX
  8
0
 62
7
  6
CONTINUOUS
 10
37.9919122181
 20
-34.3056882441
  0
VERTEX
  8
0
 62
7
  6
CONTINUOUS
 10
16.7483024074
 20
-34.3523826141
  0
VERTEX
  8
0
 62
7
  6
CONTINUOUS
 10
-4.5207850945
 20
-34.4053399937
  0
VERTEX
  8
0
 62
7
  6
CONTINUOUS
 10
-25.8563783508
 20
-34.4647299067
  0
VERTEX
  8
0
 62
7
  6
CONTINUOUS
 10
-47.1208540032
 20
-34.5300334426
  0
VERTEX
  8
0
 62
7
  6
CONTINUOUS
 10
-68.1752580814
 20
-34.6007303327
  0
VERTEX
  8
0
 62
7
  6
CONTINUOUS
 10
-89.0653435481
 20
-34.6769948697
  0
SEQEND
  0
LINE
  8
0
 62
7
  6
CONTINUOUS
 10
-98.0908187506
 20
-25.7259498067
 11
-98.9872819072
 21
-25.7183102494
  0
LINE
  8
0
 62
7
  6
CONTINUOUS
 10
-98.9872819072
 20
-25.7183102494
 11
-99.8533923344
 21
-25.705954726
  0
LINE
  8
0
 62
7
  6
CONTINUOUS
 10
-99.8533923344
 20
-25.705954726
 11
-100.4041347788
 21
-25.6952327042
  0
LINE
  8
0
 62
7
  6
CONTINUOUS
 10
-100.4041347788
 20
-25.6952327042
 11
-100.9269875243
 21
-25.6826467872
  0
LINE
  8
0
 62
7
  6
CONTINUOUS
 10
-100.9269875243
 20
-25.6826467872
 11
-101.4166429716
 21
-25.668324739
  0
POLYLINE
  8
0
 62
7
  6
CONTINUOUS
 66
1
 70
0
  0
VERTEX
  8
0
 62
7
  6
CONTINUOUS
 10
-101.4166429716
 20
-25.668324739
  0
VERTEX
  8
0
 62
7
  6
CONTINUOUS
 10
-101.8681294081
 20
-25.6524119766
  0
VERTEX
  8
0
 62
7
  6
CONTINUOUS
 10
-102.0781104025
 20
-25.6439089762
  0
VERTEX
  8
0
 62
7
  6
CONTINUOUS
 10
-102.2768631013
 20
-25.6350700552
  0
VERTEX
  8
0
 62
7
  6
CONTINUOUS
 10
-102.4638826925
 20
-25.6259176639
  0
VERTEX
  8
0
 62
7
  6
CONTINUOUS
 10
-102.6386942179
 20
-25.6164750459
  0
VERTEX
  8
0
 62
7
  6
CONTINUOUS
 10
-102.8008537314
 20
-25.6067661807
  0
VERTEX
  8
0
 62
7
  6
CONTINUOUS
 10
-102.9499493108
 20
-25.5968157308
  0
VERTEX
  8
0
 62
7
  6
CONTINUOUS
 10
-103.0856022267
 20
-25.5866489729
  0
VERTEX
  8
0
 62
7
  6
CONTINUOUS
 10
-103.2074680219
 20
-25.5762917241
  0
VERTEX
  8
0
 62
7
  6
CONTINUOUS
 10
-103.3152372247
 20
-25.5657702855
  0
VERTEX
  8
0
 62
7
  6
CONTINUOUS
 10
-103.4086360833
 20
-25.5551113823
  0
VERTEX
  8
0
 62
7
  6
CONTINUOUS
 10
-103.487427387
 20
-25.544342085
  0
VERTEX
  8
0
 62
7
  6
CONTINUOUS
 10
-103.5514109734
 20
-25.5334897533
  0
VERTEX
  8
0
 62
7
  6
CONTINUOUS
 10
-103.60042433
 20
-25.5225819586
  0
VERTEX
  8
0
 62
7
  6
CONTINUOUS
 10
-103.6343430406
 20
-25.5116464017
  0
SEQEND
  0
LINE
  8
0
 62
7
  6
CONTINUOUS
 10
-103.6343414598
 20
-25.5116446589
 11
-108.7676368062
 21
-30.6449400054
  0
LINE
  8
0
 62
7
  6
CONTINUOUS
 10
-103.6343428762
 20
328.9366075014
 11
-108.7676368062
 21
334.0699014315
  0
LINE
  8
0
 62
7
  6
CONTINUOUS
 10
-88.665429755
 20
-40.4285738969
 11
-93.8247163349
 21
-45.5878604767
  0
LINE
  8
0
 62
7
  6
CONTINUOUS
 10
-88.6654203269
 20
343.8535258949
 11
-93.8247163349
 21
349.0128219029
  0
LINE
  8
0
 62
7
  6
CONTINUOUS
 10
166.0327043836
 20
151.7124807131
 11
-103.1894964139
 21
151.7124807131
  0
LINE
  8
0
 62
7
  6
CONTINUOUS
 10
206.0327043836
 20
151.7124807131
 11
475.2549051811
 21
151.7124807131
  0
LINE
  8
0
 62
7
  6
CONTINUOUS
 10
460.7307800708
 20
343.8534768717
 11
465.890125102
 21
349.0128219029
  0
LINE
  8
0
 62
7
  6
CONTINUOUS
 10
460.7307850637
 20
-40.4285204384
 11
465.890125102
 21
-45.5878604767
  0
LINE
  8
0
 62
7
  6
CONTINUOUS
 10
475.6997528195
 20
328.9366086777
 11
480.8330455734
 21
334.0699014315
  0
LINE
  8
0
 62
7
  6
CONTINUOUS
 10
475.6997520999
 20
-25.5116465318
 11
480.8330455734
 21
-30.6449400054
  0
LINE
  8
0
 62
7
  6
CONTINUOUS
 10
-102.2768625373
 20
329.0600314656
 11
-101.8681288226
 21
329.0773733823
  0
LINE
  8
0
 62
7
  6
CONTINUOUS
 10
-101.8681288226
 20
329.0773733823
 11
-101.4166423904
 21
329.09328614
  0
LINE
  8
0
 62
7
  6
CONTINUOUS
 10
-101.4166423904
 20
329.09328614
 11
-100.926986973
 21
329.1076081836
  0
LINE
  8
0
 62
7
  6
CONTINUOUS
 10
-100.926986973
 20
329.1076081836
 11
-100.4041342818
 21
329.1201940962
  0
LINE
  8
0
 62
7
  6
CONTINUOUS
 10
-100.4041342818
 20
329.1201940962
 11
-99.5693002691
 21
329.1355433664
  0
POLYLINE
  8
0
 62
7
  6
CONTINUOUS
 66
1
 70
0
  0
VERTEX
  8
0
 62
7
  6
CONTINUOUS
 10
-89.065488904
 20
338.1019511714
  0
VERTEX
  8
0
 62
7
  6
CONTINUOUS
 10
-89.4229342436
 20
338.0963017571
  0
VERTEX
  8
0
 62
7
  6
CONTINUOUS
 10
-89.7788852539
 20
338.0768006842
  0
VERTEX
  8
0
 62
7
  6
CONTINUOUS
 10
-90.1335704744
 20
338.0434119587
  0
VERTEX
  8
0
 62
7
  6
CONTINUOUS
 10
-90.4863044338
 20
337.9962438647
  0
VERTEX
  8
0
 62
7
  6
CONTINUOUS
 10
-90.8366675323
 20
337.9353463284
  0
VERTEX
  8
0
 62
7
  6
CONTINUOUS
 10
-91.1840901158
 20
337.8608587299
  0
VERTEX
  8
0
 62
7
  6
CONTINUOUS
 10
-91.5280322448
 20
337.7728782731
  0
VERTEX
  8
0
 62
7
  6
CONTINUOUS
 10
-91.8679846221
 20
337.6715816938
  0
VERTEX
  8
0
 62
7
  6
CONTINUOUS
 10
-92.2034215348
 20
337.5571069774
  0
VERTEX
  8
0
 62
7
  6
CONTINUOUS
 10
-92.5338517672
 20
337.4296678323
  0
VERTEX
  8
0
 62
7
  6
CONTINUOUS
 10
-92.8587662721
 20
337.2894407617
  0
VERTEX
  8
0
 62
7
  6
CONTINUOUS
 10
-93.1776923577
 20
337.1366755865
  0
VERTEX
  8
0
 62
7
  6
CONTINUOUS
 10
-93.4901379141
 20
336.9715862517
  0
VERTEX
  8
0
 62
7
  6
CONTINUOUS
 10
-93.7956517401
 20
336.7944570681
  0
VERTEX
  8
0
 62
7
  6
CONTINUOUS
 10
-94.0937606687
 20
336.6055382435
  0
VERTEX
  8
0
 62
7
  6
CONTINUOUS
 10
-94.3840381595
 20
336.4051461673
  0
VERTEX
  8
0
 62
7
  6
CONTINUOUS
 10
-94.6660332568
 20
336.1935651753
  0
VERTEX
  8
0
 62
7
  6
CONTINUOUS
 10
-94.9393458046
 20
335.9711417224
  0
VERTEX
  8
0
 62
7
  6
CONTINUOUS
 10
-95.2035493978
 20
335.7381921319
  0
VERTEX
  8
0
 62
7
  6
CONTINUOUS
 10
-95.4582716954
 20
335.4950911704
  0
VERTEX
  8
0
 62
7
  6
CONTINUOUS
 10
-95.7031124229
 20
335.2421854287
  0
VERTEX
  8
0
 62
7
  6
CONTINUOUS
 10
-95.9377289534
 20
334.9798757396
  0
VERTEX
  8
0
 62
7
  6
CONTINUOUS
 10
-96.1617491745
 20
334.7085366834
  0
VERTEX
  8
0
 62
7
  6
CONTINUOUS
 10
-96.3748613589
 20
334.4285935382
  0
VERTEX
  8
0
 62
7
  6
CONTINUOUS
 10
-96.5767229779
 20
334.1404469895
  0
VERTEX
  8
0
 62
7
  6
CONTINUOUS
 10
-96.7670545284
 20
333.8445452719
  0
VERTEX
  8
0
 62
7
  6
CONTINUOUS
 10
-96.9455441672
 20
333.5413140017
  0
VERTEX
  8
0
 62
7
  6
CONTINUOUS
 10
-97.1119467039
 20
333.2312215454
  0
VERTEX
  8
0
 62
7
  6
CONTINUOUS
 10
-97.2659827387
 20
332.9147167692
  0
VERTEX
  8
0
 62
7
  6
CONTINUOUS
 10
-97.4074434817
 20
332.5922835692
  0
VERTEX
  8
0
 62
7
  6
CONTINUOUS
 10
-97.5360847848
 20
332.2643888368
  0
VERTEX
  8
0
 62
7
  6
CONTINUOUS
 10
-97.651733843
 20
331.9315321897
  0
VERTEX
  8
0
 62
7
  6
CONTINUOUS
 10
-97.7541820364
 20
331.5941964022
  0
VERTEX
  8
0
 62
7
  6
CONTINUOUS
 10
-97.8432932681
 20
331.2528985946
  0
VERTEX
  8
0
 62
7
  6
CONTINUOUS
 10
-97.9188942362
 20
330.9081397115
  0
VERTEX
  8
0
 62
7
  6
CONTINUOUS
 10
-97.9808886183
 20
330.5604507174
  0
VERTEX
  8
0
 62
7
  6
CONTINUOUS
 10
-98.0291428735
 20
330.210295347
  0
VERTEX
  8
0
 62
7
  6
CONTINUOUS
 10
-98.0635960986
 20
329.8583758708
  0
VERTEX
  8
0
 62
7
  6
CONTINUOUS
 10
-98.0841301542
 20
329.505656017
  0
VERTEX
  8
0
 62
7
  6
CONTINUOUS
 10
-98.0907841543
 20
329.1518146835
  0
SEQEND
  0
LINE
  8
0
 62
7
  6
CONTINUOUS
 10
-99.5693002691
 20
329.1355433664
 11
-98.6908327864
 21
329.1463530188
  0
LINE
  8
0
 62
7
  6
CONTINUOUS
 10
-98.6908327864
 20
329.1463530188
 11
-98.0908188648
 21
329.1509111854
  0
LINE
  8
0
 62
7
  6
CONTINUOUS
 10
-108.7676368062
 20
334.0699014315
 11
-111.2581235515
 21
334.0699014315
  0
LINE
  8
0
 62
7
  6
CONTINUOUS
 10
480.8330455734
 20
334.0699014315
 11
483.3235323186
 21
334.0699014315
  0
LINE
  8
0
 62
7
  6
CONTINUOUS
 10
486.0327043836
 20
339.2124807131
 11
483.5327043836
 21
339.2124807131
  0
LINE
  8
0
 62
7
  6
CONTINUOUS
 10
-113.9672956164
 20
339.2124807131
 11
-111.4672956164
 21
339.2124807131
  0
POLYLINE
  8
0
 62
7
  6
CONTINUOUS
 66
1
 70
0
  0
VERTEX
  8
0
 62
7
  6
CONTINUOUS
 10
-89.065488904
 20
338.1019511714
  0
VERTEX
  8
0
 62
7
  6
CONTINUOUS
 10
-69.3709410136
 20
338.029969463
  0
VERTEX
  8
0
 62
7
  6
CONTINUOUS
 10
-49.6959147114
 20
337.9633259857
  0
VERTEX
  8
0
 62
7
  6
CONTINUOUS
 10
-30.0433263676
 20
337.9020276443
  0
VERTEX
  8
0
 62
7
  6
CONTINUOUS
 10
-10.4063774901
 20
337.8460519541
  0
VERTEX
  8
0
 62
7
  6
CONTINUOUS
 10
9.2207919004
 20
337.7953754006
  0
VERTEX
  8
0
 62
7
  6
CONTINUOUS
 10
28.8381028736
 20
337.7500081635
  0
VERTEX
  8
0
 62
7
  6
CONTINUOUS
 10
48.4468255142
 20
337.7099515775
  0
VERTEX
  8
0
 62
7
  6
CONTINUOUS
 10
68.0487722213
 20
337.675208867
  0
VERTEX
  8
0
 62
7
  6
CONTINUOUS
 10
87.645639649
 20
337.6457823542
  0
VERTEX
  8
0
 62
7
  6
CONTINUOUS
 10
107.2390448944
 20
337.6216762917
  0
VERTEX
  8
0
 62
7
  6
CONTINUOUS
 10
126.8306503495
 20
337.6028943866
  0
VERTEX
  8
0
 62
7
  6
CONTINUOUS
 10
146.4220151905
 20
337.5894408139
  0
VERTEX
  8
0
 62
7
  6
CONTINUOUS
 10
166.0147185572
 20
337.5813198128
  0
VERTEX
  8
0
 62
7
  6
CONTINUOUS
 10
185.6103602113
 20
337.5785351208
  0
VERTEX
  8
0
 62
7
  6
CONTINUOUS
 10
205.2105055952
 20
337.5810908124
  0
VERTEX
  8
0
 62
7
  6
CONTINUOUS
 10
224.8168331678
 20
337.5889903411
  0
VERTEX
  8
0
 62
7
  6
CONTINUOUS
 10
244.4310078296
 20
337.6022374723
  0
VERTEX
  8
0
 62
7
  6
CONTINUOUS
 10
264.0546310811
 20
337.620835571
  0
VERTEX
  8
0
 62
7
  6
CONTINUOUS
 10
283.6891765139
 20
337.6447877867
  0
VERTEX
  8
0
 62
7
  6
CONTINUOUS
 10
303.3366871653
 20
337.6740987578
  0
VERTEX
  8
0
 62
7
  6
CONTINUOUS
 10
322.9975969082
 20
337.708768164
  0
VERTEX
  8
0
 62
7
  6
CONTINUOUS
 10
342.6781991647
 20
337.7488142513
  0
VERTEX
  8
0
 62
7
  6
CONTINUOUS
 10
362.3859804256
 20
337.7942550709
  0
VERTEX
  8
0
 62
7
  6
CONTINUOUS
 10
382.1177711172
 20
337.8450910867
  0
VERTEX
  8
0
 62
7
  6
CONTINUOUS
 10
401.8820229516
 20
337.9013624406
  0
VERTEX
  8
0
 62
7
  6
CONTINUOUS
 10
421.6513568357
 20
337.962968377
  0
VERTEX
  8
0
 62
7
  6
CONTINUOUS
 10
441.3984231902
 20
338.0298104749
  0
VERTEX
  8
0
 62
7
  6
CONTINUOUS
 10
461.1317205195
 20
338.1019221624
  0
SEQEND
  0
POLYLINE
  8
0
 62
7
  6
CONTINUOUS
 66
1
 70
0
  0
VERTEX
  8
0
 62
7
  6
CONTINUOUS
 10
-88.6654203269
 20
343.8535258949
  0
VERTEX
  8
0
 62
7
  6
CONTINUOUS
 10
-68.9988179012
 20
343.7419621291
  0
VERTEX
  8
0
 62
7
  6
CONTINUOUS
 10
-49.3523914231
 20
343.6387179622
  0
VERTEX
  8
0
 62
7
  6
CONTINUOUS
 10
-29.7283712496
 20
343.5438097058
  0
VERTEX
  8
0
 62
7
  6
CONTINUOUS
 10
-10.1200663099
 20
343.457188425
  0
VERTEX
  8
0
 62
7
  6
CONTINUOUS
 10
9.4785114566
 20
343.3788087731
  0
VERTEX
  8
0
 62
7
  6
CONTINUOUS
 10
29.0672407241
 20
343.3086762975
  0
VERTEX
  8
0
 62
7
  6
CONTINUOUS
 10
48.647392594
 20
343.2467828693
  0
VERTEX
  8
0
 62
7
  6
CONTINUOUS
 10
68.2207778454
 20
343.1931241701
  0
VERTEX
  8
0
 62
7
  6
CONTINUOUS
 10
87.7890929227
 20
343.1476932672
  0
VERTEX
  8
0
 62
7
  6
CONTINUOUS
 10
107.3539519313
 20
343.1104898734
  0
VERTEX
  8
0
 62
7
  6
CONTINUOUS
 10
126.9170159907
 20
343.0815104584
  0
VERTEX
  8
0
 62
7
  6
CONTINUOUS
 10
146.4798405024
 20
343.0607578183
  0
VERTEX
  8
0
 62
7
  6
CONTINUOUS
 10
166.0440027465
 20
343.0482316684
  0
VERTEX
  8
0
 62
7
  6
CONTINUOUS
 10
185.6110982076
 20
343.0439377202
  0
VERTEX
  8
0
 62
7
  6
CONTINUOUS
 10
205.1826901235
 20
343.0478786299
  0
VERTEX
  8
0
 62
7
  6
CONTINUOUS
 10
224.7604525149
 20
343.0600632786
  0
VERTEX
  8
0
 62
7
  6
CONTINUOUS
 10
244.3460479692
 20
343.0804974333
  0
VERTEX
  8
0
 62
7
  6
CONTINUOUS
 10
263.9410740243
 20
343.1091930937
  0
VERTEX
  8
0
 62
7
  6
CONTINUOUS
 10
283.547002736
 20
343.1461586883
  0
VERTEX
  8
0
 62
7
  6
CONTINUOUS
 10
303.1658731376
 20
343.1914106979
  0
VERTEX
  8
0
 62
7
  6
CONTINUOUS
 10
322.7981212956
 20
343.2449554492
  0
VERTEX
  8
0
 62
7
  6
CONTINUOUS
 10
342.4500281674
 20
343.3068318326
  0
VERTEX
  8
0
 62
7
  6
CONTINUOUS
 10
362.1290743734
 20
343.3770771102
  0
VERTEX
  8
0
 62
7
  6
CONTINUOUS
 10
381.8320969909
 20
343.455702493
  0
VERTEX
  8
0
 62
7
  6
CONTINUOUS
 10
401.5675396558
 20
343.5427808721
  0
VERTEX
  8
0
 62
7
  6
CONTINUOUS
 10
421.3080633125
 20
343.638164469
  0
VERTEX
  8
0
 62
7
  6
CONTINUOUS
 10
441.0260778871
 20
343.741714367
  0
VERTEX
  8
0
 62
7
  6
CONTINUOUS
 10
460.7307800708
 20
343.8534768717
  0
SEQEND
  0
LINE
  8
0
 62
7
  6
CONTINUOUS
 10
470.1562275853
 20
329.1509112048
 11
471.0526905456
 21
329.1432716497
  0
LINE
  8
0
 62
7
  6
CONTINUOUS
 10
471.0526905456
 20
329.1432716497
 11
471.9188009235
 21
329.1309161284
  0
LINE
  8
0
 62
7
  6
CONTINUOUS
 10
471.9188009235
 20
329.1309161284
 11
472.4695433373
 21
329.1201941083
  0
LINE
  8
0
 62
7
  6
CONTINUOUS
 10
472.4695433373
 20
329.1201941083
 11
472.9923960592
 21
329.1076081932
  0
LINE
  8
0
 62
7
  6
CONTINUOUS
 10
472.9923960592
 20
329.1076081932
 11
473.4820514912
 21
329.0932861471
  0
LINE
  8
0
 62
7
  6
CONTINUOUS
 10
473.4820514912
 20
329.0932861471
 11
473.9335379215
 21
329.077373387
  0
POLYLINE
  8
0
 62
7
  6
CONTINUOUS
 66
1
 70
0
  0
VERTEX
  8
0
 62
7
  6
CONTINUOUS
 10
473.9335379215
 20
329.077373387
  0
VERTEX
  8
0
 62
7
  6
CONTINUOUS
 10
474.3422716184
 20
329.0600314681
  0
VERTEX
  8
0
 62
7
  6
CONTINUOUS
 10
474.5292912153
 20
329.050879078
  0
VERTEX
  8
0
 62
7
  6
CONTINUOUS
 10
474.7041027491
 20
329.0414364612
  0
VERTEX
  8
0
 62
7
  6
CONTINUOUS
 10
474.8662622737
 20
329.0317275973
  0
VERTEX
  8
0
 62
7
  6
CONTINUOUS
 10
475.0153578671
 20
329.0217771485
  0
VERTEX
  8
0
 62
7
  6
CONTINUOUS
 10
475.1510107997
 20
329.0116103918
  0
VERTEX
  8
0
 62
7
  6
CONTINUOUS
 10
475.2728766144
 20
329.0012531442
  0
VERTEX
  8
0
 62
7
  6
CONTINUOUS
 10
475.3806458394
 20
328.9907317067
  0
VERTEX
  8
0
 62
7
  6
CONTINUOUS
 10
475.4740447232
 20
328.9800728046
  0
VERTEX
  8
0
 62
7
  6
CONTINUOUS
 10
475.5528360432
 20
328.9693035101
  0
VERTEX
  8
0
 62
7
  6
CONTINUOUS
 10
475.6168196716
 20
328.9584511776
  0
VERTEX
  8
0
 62
7
  6
CONTINUOUS
 10
475.6658331014
 20
328.9475433733
  0
VERTEX
  8
0
 62
7
  6
CONTINUOUS
 10
475.6997518755
 20
328.9366077997
  0
SEQEND
  0
POLYLINE
  8
0
 62
7
  6
CONTINUOUS
 66
1
 70
0
  0
VERTEX
  8
0
 62
7
  6
CONTINUOUS
 10
-93.8247163349
 20
351.5033086481
  0
VERTEX
  8
0
 62
7
  6
CONTINUOUS
 10
-94.4889902404
 20
351.4904338756
  0
VERTEX
  8
0
 62
7
  6
CONTINUOUS
 10
-95.1460375348
 20
351.4535140051
  0
VERTEX
  8
0
 62
7
  6
CONTINUOUS
 10
-95.7948608651
 20
351.3925301431
  0
VERTEX
  8
0
 62
7
  6
CONTINUOUS
 10
-96.4384522901
 20
351.3075389705
  0
VERTEX
  8
0
 62
7
  6
CONTINUOUS
 10
-97.0804693936
 20
351.198476431
  0
VERTEX
  8
0
 62
7
  6
CONTINUOUS
 10
-97.7179182462
 20
351.0656858429
  0
VERTEX
  8
0
 62
7
  6
CONTINUOUS
 10
-98.3492544673
 20
350.9093839821
  0
VERTEX
  8
0
 62
7
  6
CONTINUOUS
 10
-98.973786993
 20
350.7298864182
  0
VERTEX
  8
0
 62
7
  6
CONTINUOUS
 10
-99.5905108427
 20
350.5274861262
  0
VERTEX
  8
0
 62
7
  6
CONTINUOUS
 10
-100.1988233856
 20
350.3024676651
  0
VERTEX
  8
0
 62
7
  6
CONTINUOUS
 10
-100.7980217899
 20
350.0551016708
  0
VERTEX
  8
0
 62
7
  6
CONTINUOUS
 10
-101.3874016785
 20
349.7857228883
  0
VERTEX
  8
0
 62
7
  6
CONTINUOUS
 10
-101.9663065408
 20
349.4945987171
  0
VERTEX
  8
0
 62
7
  6
CONTINUOUS
 10
-102.5338899461
 20
349.1822018302
  0
VERTEX
  8
0
 62
7
  6
CONTINUOUS
 10
-103.0893415407
 20
348.8489177569
  0
VERTEX
  8
0
 62
7
  6
CONTINUOUS
 10
-103.631896583
 20
348.4952753285
  0
VERTEX
  8
0
 62
7
  6
CONTINUOUS
 10
-104.1607391175
 20
348.1217530237
  0
VERTEX
  8
0
 62
7
  6
CONTINUOUS
 10
-104.675212433
 20
347.7288874295
  0
VERTEX
  8
0
 62
7
  6
CONTINUOUS
 10
-105.1745930214
 20
347.3171848231
  0
VERTEX
  8
0
 62
7
  6
CONTINUOUS
 10
-105.658265318
 20
346.8872146137
  0
VERTEX
  8
0
 62
7
  6
CONTINUOUS
 10
-106.1255681062
 20
346.4395102392
  0
VERTEX
  8
0
 62
7
  6
CONTINUOUS
 10
-106.5759148344
 20
345.974685891
  0
VERTEX
  8
0
 62
7
  6
CONTINUOUS
 10
-107.0086863642
 20
345.4933080014
  0
VERTEX
  8
0
 62
7
  6
CONTINUOUS
 10
-107.4233192389
 20
344.9960532858
  0
VERTEX
  8
0
 62
7
  6
CONTINUOUS
 10
-107.8192255419
 20
344.4835293195
  0
VERTEX
  8
0
 62
7
  6
CONTINUOUS
 10
-108.195859515
 20
343.9565099559
  0
VERTEX
  8
0
 62
7
  6
CONTINUOUS
 10
-108.5526306222
 20
343.4157121542
  0
VERTEX
  8
0
 62
7
  6
CONTINUOUS
 10
-108.8890852795
 20
342.8619141724
  0
VERTEX
  8
0
 62
7
  6
CONTINUOUS
 10
-109.2046846402
 20
342.2959115482
  0
VERTEX
  8
0
 62
7
  6
CONTINUOUS
 10
-109.4990939558
 20
341.7183694021
  0
VERTEX
  8
0
 62
7
  6
CONTINUOUS
 10
-109.7718938436
 20
341.1300287577
  0
VERTEX
  8
0
 62
7
  6
CONTINUOUS
 10
-110.0227993592
 20
340.5314574431
  0
VERTEX
  8
0
 62
7
  6
CONTINUOUS
 10
-110.2515505527
 20
339.9230052871
  0
VERTEX
  8
0
 62
7
  6
CONTINUOUS
 10
-110.4576530585
 20
339.3060673107
  0
VERTEX
  8
0
 62
7
  6
CONTINUOUS
 10
-110.6403666155
 20
338.683213447
  0
VERTEX
  8
0
 62
7
  6
CONTINUOUS
 10
-110.8001689597
 20
338.0512687885
  0
VERTEX
  8
0
 62
7
  6
CONTINUOUS
 10
-110.9377041711
 20
337.4071603511
  0
VERTEX
  8
0
 62
7
  6
CONTINUOUS
 10
-111.0517329555
 20
336.7531522971
  0
VERTEX
  8
0
 62
7
  6
CONTINUOUS
 10
-111.1414425651
 20
336.089350752
  0
VERTEX
  8
0
 62
7
  6
CONTINUOUS
 10
-111.2061974393
 20
335.4191568419
  0
VERTEX
  8
0
 62
7
  6
CONTINUOUS
 10
-111.2449777918
 20
334.7464366311
  0
VERTEX
  8
0
 62
7
  6
CONTINUOUS
 10
-111.2581235515
 20
334.0699014315
  0
SEQEND
  0
POLYLINE
  8
0
 62
7
  6
CONTINUOUS
 66
1
 70
0
  0
VERTEX
  8
0
 62
7
  6
CONTINUOUS
 10
-88.6653788735
 20
343.8534844415
  0
VERTEX
  8
0
 62
7
  6
CONTINUOUS
 10
-89.2559704092
 20
343.8422379201
  0
VERTEX
  8
0
 62
7
  6
CONTINUOUS
 10
-89.8453059153
 20
343.8078880103
  0
VERTEX
  8
0
 62
7
  6
CONTINUOUS
 10
-90.4324896829
 20
343.7505200214
  0
VERTEX
  8
0
 62
7
  6
CONTINUOUS
 10
-91.0166236136
 20
343.6702417405
  0
VERTEX
  8
0
 62
7
  6
CONTINUOUS
 10
-91.5968186676
 20
343.5671977914
  0
VERTEX
  8
0
 62
7
  6
CONTINUOUS
 10
-92.172186823
 20
343.4415689449
  0
VERTEX
  8
0
 62
7
  6
CONTINUOUS
 10
-92.7418474263
 20
343.2935701744
  0
VERTEX
  8
0
 62
7
  6
CONTINUOUS
 10
-93.3049406639
 20
343.1234486714
  0
VERTEX
  8
0
 62
7
  6
CONTINUOUS
 10
-93.8606128188
 20
342.9314848144
  0
VERTEX
  8
0
 62
7
  6
CONTINUOUS
 10
-94.4080305977
 20
342.7179894163
  0
VERTEX
  8
0
 62
7
  6
CONTINUOUS
 10
-94.9463710071
 20
342.4833044831
  0
VERTEX
  8
0
 62
7
  6
CONTINUOUS
 10
-95.4748281467
 20
342.2278027648
  0
VERTEX
  8
0
 62
7
  6
CONTINUOUS
 10
-95.992610154
 20
341.9518864766
  0
VERTEX
  8
0
 62
7
  6
CONTINUOUS
 10
-96.4989435581
 20
341.6559875197
  0
VERTEX
  8
0
 62
7
  6
CONTINUOUS
 10
-96.9930707676
 20
341.3405661501
  0
VERTEX
  8
0
 62
7
  6
CONTINUOUS
 10
-97.4742562872
 20
341.0061097135
  0
VERTEX
  8
0
 62
7
  6
CONTINUOUS
 10
-97.9417819193
 20
340.6531326278
  0
VERTEX
  8
0
 62
7
  6
CONTINUOUS
 10
-98.394953273
 20
340.2821745188
  0
VERTEX
  8
0
 62
7
  6
CONTINUOUS
 10
-98.8330952131
 20
339.8938002894
  0
VERTEX
  8
0
 62
7
  6
CONTINUOUS
 10
-99.2555569945
 20
339.4885989582
  0
VERTEX
  8
0
 62
7
  6
CONTINUOUS
 10
-99.6617090158
 20
339.0671830118
  0
VERTEX
  8
0
 62
7
  6
CONTINUOUS
 10
-100.0509475211
 20
338.6301872024
  0
VERTEX
  8
0
 62
7
  6
CONTINUOUS
 10
-100.4226916456
 20
338.1782677213
  0
VERTEX
  8
0
 62
7
  6
CONTINUOUS
 10
-100.7763866835
 20
337.7121023687
  0
VERTEX
  8
0
 62
7
  6
CONTINUOUS
 10
-101.1115028357
 20
337.232387911
  0
VERTEX
  8
0
 62
7
  6
CONTINUOUS
 10
-101.4275366245
 20
336.7398427039
  0
VERTEX
  8
0
 62
7
  6
CONTINUOUS
 10
-101.7240111121
 20
336.2352020791
  0
VERTEX
  8
0
 62
7
  6
CONTINUOUS
 10
-102.0004776848
 20
335.7192204035
  0
VERTEX
  8
0
 62
7
  6
CONTINUOUS
 10
-102.2565148063
 20
335.1926685139
  0
VERTEX
  8
0
 62
7
  6
CONTINUOUS
 10
-102.4917328175
 20
334.6563294578
  0
VERTEX
  8
0
 62
7
  6
CONTINUOUS
 10
-102.7057697477
 20
334.1110006516
  0
VERTEX
  8
0
 62
7
  6
CONTINUOUS
 10
-102.8982941608
 20
333.557494088
  0
VERTEX
  8
0
 62
7
  6
CONTINUOUS
 10
-103.0690046338
 20
332.9966304048
  0
VERTEX
  8
0
 62
7
  6
CONTINUOUS
 10
-103.2176282142
 20
332.4292532943
  0
VERTEX
  8
0
 62
7
  6
CONTINUOUS
 10
-103.3439243758
 20
331.8562104082
  0
VERTEX
  8
0
 62
7
  6
CONTINUOUS
 10
-103.4476836198
 20
331.2783713627
  0
VERTEX
  8
0
 62
7
  6
CONTINUOUS
 10
-103.5287295689
 20
330.6966122111
  0
VERTEX
  8
0
 62
7
  6
CONTINUOUS
 10
-103.5869214254
 20
330.1118090891
  0
VERTEX
  8
0
 62
7
  6
CONTINUOUS
 10
-103.6221531249
 20
329.5248430956
  0
VERTEX
  8
0
 62
7
  6
CONTINUOUS
 10
-103.634343155
 20
328.9366077803
  0
SEQEND
  0
POLYLINE
  8
0
 62
7
  6
CONTINUOUS
 66
1
 70
0
  0
VERTEX
  8
0
 62
7
  6
CONTINUOUS
 10
-93.8247163349
 20
349.0128219029
  0
VERTEX
  8
0
 62
7
  6
CONTINUOUS
 10
-94.3944209573
 20
349.0027655916
  0
VERTEX
  8
0
 62
7
  6
CONTINUOUS
 10
-94.9586467707
 20
348.9715102031
  0
VERTEX
  8
0
 62
7
  6
CONTINUOUS
 10
-95.5154061423
 20
348.9197450886
  0
VERTEX
  8
0
 62
7
  6
CONTINUOUS
 10
-96.0676655396
 20
348.8476234157
  0
VERTEX
  8
0
 62
7
  6
CONTINUOUS
 10
-96.6185456625
 20
348.7547470014
  0
VERTEX
  8
0
 62
7
  6
CONTINUOUS
 10
-97.1654681331
 20
348.6414382319
  0
VERTEX
  8
0
 62
7
  6
CONTINUOUS
 10
-97.7071295624
 20
348.5079892758
  0
VERTEX
  8
0
 62
7
  6
CONTINUOUS
 10
-98.2429179545
 20
348.3546010464
  0
VERTEX
  8
0
 62
7
  6
CONTINUOUS
 10
-98.7719869049
 20
348.1815650624
  0
VERTEX
  8
0
 62
7
  6
CONTINUOUS
 10
-99.2938081663
 20
347.9891011341
  0
VERTEX
  8
0
 62
7
  6
CONTINUOUS
 10
-99.807787984
 20
347.7774565867
  0
VERTEX
  8
0
 62
7
  6
CONTINUOUS
 10
-100.3133131111
 20
347.5469005904
  0
VERTEX
  8
0
 62
7
  6
CONTINUOUS
 10
-100.8098324714
 20
347.2976854751
  0
VERTEX
  8
0
 62
7
  6
CONTINUOUS
 10
-101.2966021052
 20
347.030181591
  0
VERTEX
  8
0
 62
7
  6
CONTINUOUS
 10
-101.7729492549
 20
346.7447589278
  0
VERTEX
  8
0
 62
7
  6
CONTINUOUS
 10
-102.238193376
 20
346.4418301717
  0
VERTEX
  8
0
 62
7
  6
CONTINUOUS
 10
-102.6916601837
 20
346.1218432105
  0
VERTEX
  8
0
 62
7
  6
CONTINUOUS
 10
-103.1327623503
 20
345.785224504
  0
VERTEX
  8
0
 62
7
  6
CONTINUOUS
 10
-103.5609029953
 20
345.4324375599
  0
VERTEX
  8
0
 62
7
  6
CONTINUOUS
 10
-103.9755313724
 20
345.0639429253
  0
VERTEX
  8
0
 62
7
  6
CONTINUOUS
 10
-104.3761037694
 20
344.6802236887
  0
VERTEX
  8
0
 62
7
  6
CONTINUOUS
 10
-104.7620936157
 20
344.2817809638
  0
VERTEX
  8
0
 62
7
  6
CONTINUOUS
 10
-105.132995416
 20
343.8691255247
  0
VERTEX
  8
0
 62
7
  6
CONTINUOUS
 10
-105.488298918
 20
343.4428116863
  0
VERTEX
  8
0
 62
7
  6
CONTINUOUS
 10
-105.8275311065
 20
343.0033871981
  0
VERTEX
  8
0
 62
7
  6
CONTINUOUS
 10
-106.1501887406
 20
342.5514869895
  0
VERTEX
  8
0
 62
7
  6
CONTINUOUS
 10
-106.455803894
 20
342.0877539754
  0
VERTEX
  8
0
 62
7
  6
CONTINUOUS
 10
-106.7439499857
 20
341.6128297649
  0
VERTEX
  8
0
 62
7
  6
CONTINUOUS
 10
-107.0141993799
 20
341.1274181466
  0
VERTEX
  8
0
 62
7
  6
CONTINUOUS
 10
-107.2662399578
 20
340.6320739257
  0
VERTEX
  8
0
 62
7
  6
CONTINUOUS
 10
-107.4997290285
 20
340.1274434592
  0
VERTEX
  8
0
 62
7
  6
CONTINUOUS
 10
-107.7144160441
 20
339.6140065582
  0
VERTEX
  8
0
 62
7
  6
CONTINUOUS
 10
-107.9101036055
 20
339.0920765316
  0
VERTEX
  8
0
 62
7
  6
CONTINUOUS
 10
-108.0862963933
 20
338.562820767
  0
VERTEX
  8
0
 62
7
  6
CONTINUOUS
 10
-108.2423216954
 20
338.028448531
  0
VERTEX
  8
0
 62
7
  6
CONTINUOUS
 10
-108.3788989457
 20
337.4862966673
  0
VERTEX
  8
0
 62
7
  6
CONTINUOUS
 10
-108.4962535212
 20
336.9336747976
  0
VERTEX
  8
0
 62
7
  6
CONTINUOUS
 10
-108.5933981025
 20
336.3724982727
  0
VERTEX
  8
0
 62
7
  6
CONTINUOUS
 10
-108.6697646355
 20
335.8029270456
  0
VERTEX
  8
0
 62
7
  6
CONTINUOUS
 10
-108.7245259213
 20
335.2278032654
  0
VERTEX
  8
0
 62
7
  6
CONTINUOUS
 10
-108.7571953446
 20
334.6500871761
  0
VERTEX
  8
0
 62
7
  6
CONTINUOUS
 10
-108.7676368062
 20
334.0699014315
  0
SEQEND
  0
LINE
  8
0
 62
7
  6
CONTINUOUS
 10
465.890125102
 20
349.0128219029
 11
-93.8247163349
 21
349.0128219029
  0
LINE
  8
0
 62
7
  6
CONTINUOUS
 10
465.890125102
 20
351.5033086481
 11
-93.8247163349
 21
351.5033086481
  0
LINE
  8
0
 62
7
  6
CONTINUOUS
 10
-98.9672956164
 20
351.7124807131
 11
471.0327043836
 21
351.7124807131
  0
LINE
  8
0
 62
7
  6
CONTINUOUS
 10
-98.9672956164
 20
354.2124807131
 11
471.0327043836
 21
354.2124807131
  0
POLYLINE
  8
0
 62
7
  6
CONTINUOUS
 66
1
 70
0
  0
VERTEX
  8
0
 62
7
  6
CONTINUOUS
 10
475.6997519222
 20
-25.5116463541
  0
VERTEX
  8
0
 62
7
  6
CONTINUOUS
 10
475.6658331031
 20
-25.5225819396
  0
VERTEX
  8
0
 62
7
  6
CONTINUOUS
 10
475.616819621
 20
-25.5334897508
  0
VERTEX
  8
0
 62
7
  6
CONTINUOUS
 10
475.5528359611
 20
-25.544342084
  0
VERTEX
  8
0
 62
7
  6
CONTINUOUS
 10
475.4740446269
 20
-25.5551113768
  0
VERTEX
  8
0
 62
7
  6
CONTINUOUS
 10
475.3806457226
 20
-25.5657702784
  0
VERTEX
  8
0
 62
7
  6
CONTINUOUS
 10
475.2728764787
 20
-25.5762917152
  0
VERTEX
  8
0
 62
7
  6
CONTINUOUS
 10
475.1510106469
 20
-25.5866489622
  0
VERTEX
  8
0
 62
7
  6
CONTINUOUS
 10
475.0153576992
 20
-25.5968157181
  0
VERTEX
  8
0
 62
7
  6
CONTINUOUS
 10
474.8662620927
 20
-25.6067661661
  0
VERTEX
  8
0
 62
7
  6
CONTINUOUS
 10
474.7041025572
 20
-25.6164750292
  0
VERTEX
  8
0
 62
7
  6
CONTINUOUS
 10
474.5292910145
 20
-25.6259176452
  0
VERTEX
  8
0
 62
7
  6
CONTINUOUS
 10
474.3422714111
 20
-25.6350700344
  0
VERTEX
  8
0
 62
7
  6
CONTINUOUS
 10
474.1435187048
 20
-25.6439089532
  0
SEQEND
  0
LINE
  8
0
 62
7
  6
CONTINUOUS
 10
461.0511200559
 20
341.1032040692
 11
461.0733136586
 21
340.6013199627
  0
LINE
  8
0
 62
7
  6
CONTINUOUS
 10
461.0733136586
 20
340.6013199627
 11
461.0923261421
 21
340.0741279829
  0
LINE
  8
0
 62
7
  6
CONTINUOUS
 10
461.0923261421
 20
340.0741279829
 11
461.1079809296
 21
339.5265243359
  0
LINE
  8
0
 62
7
  6
CONTINUOUS
 10
461.1079809296
 20
339.5265243359
 11
461.1201326275
 21
338.9635948998
  0
POLYLINE
  8
0
 62
7
  6
CONTINUOUS
 66
1
 70
0
  0
VERTEX
  8
0
 62
7
  6
CONTINUOUS
 10
470.156234064
 20
329.1507437596
  0
VERTEX
  8
0
 62
7
  6
CONTINUOUS
 10
470.1495543259
 20
329.5052545117
  0
VERTEX
  8
0
 62
7
  6
CONTINUOUS
 10
470.1290049085
 20
329.8583753232
  0
VERTEX
  8
0
 62
7
  6
CONTINUOUS
 10
470.0945493355
 20
330.2103601251
  0
VERTEX
  8
0
 62
7
  6
CONTINUOUS
 10
470.0462980354
 20
330.5604466038
  0
VERTEX
  8
0
 62
7
  6
CONTINUOUS
 10
469.98430419
 20
330.9081338119
  0
VERTEX
  8
0
 62
7
  6
CONTINUOUS
 10
469.9087038067
 20
331.2528912162
  0
VERTEX
  8
0
 62
7
  6
CONTINUOUS
 10
469.8195931144
 20
331.5941882131
  0
VERTEX
  8
0
 62
7
  6
CONTINUOUS
 10
469.717145372
 20
331.9315237028
  0
VERTEX
  8
0
 62
7
  6
CONTINUOUS
 10
469.6014965726
 20
332.2643806308
  0
VERTEX
  8
0
 62
7
  6
CONTINUOUS
 10
469.4728554252
 20
332.5922759216
  0
VERTEX
  8
0
 62
7
  6
CONTINUOUS
 10
469.3313947501
 20
332.9147097275
  0
VERTEX
  8
0
 62
7
  6
CONTINUOUS
 10
469.1773588135
 20
333.2312150095
  0
VERTEX
  8
0
 62
7
  6
CONTINUOUS
 10
469.0109565712
 20
333.5413075517
  0
VERTEX
  8
0
 62
7
  6
CONTINUOUS
 10
468.8324672958
 20
333.8445387737
  0
VERTEX
  8
0
 62
7
  6
CONTINUOUS
 10
468.6421361127
 20
334.1404404907
  0
VERTEX
  8
0
 62
7
  6
CONTINUOUS
 10
468.4402748448
 20
334.4285870784
  0
VERTEX
  8
0
 62
7
  6
CONTINUOUS
 10
468.2271629476
 20
334.708530369
  0
VERTEX
  8
0
 62
7
  6
CONTINUOUS
 10
468.0031429676
 20
334.9798696343
  0
VERTEX
  8
0
 62
7
  6
CONTINUOUS
 10
467.7685266056
 20
335.2421796022
  0
VERTEX
  8
0
 62
7
  6
CONTINUOUS
 10
467.5236860593
 20
335.4950856135
  0
VERTEX
  8
0
 62
7
  6
CONTINUOUS
 10
467.2689640724
 20
335.7381867193
  0
VERTEX
  8
0
 62
7
  6
CONTINUOUS
 10
467.0047607996
 20
335.9711364463
  0
VERTEX
  8
0
 62
7
  6
CONTINUOUS
 10
466.7314484966
 20
336.1935601171
  0
VERTEX
  8
0
 62
7
  6
CONTINUOUS
 10
466.4494535815
 20
336.4051413765
  0
VERTEX
  8
0
 62
7
  6
CONTINUOUS
 10
466.1591761708
 20
336.6055337833
  0
VERTEX
  8
0
 62
7
  6
CONTINUOUS
 10
465.8610672933
 20
336.7944529528
  0
VERTEX
  8
0
 62
7
  6
CONTINUOUS
 10
465.5555534967
 20
336.9715824687
  0
VERTEX
  8
0
 62
7
  6
CONTINUOUS
 10
465.2431081064
 20
337.1366720717
  0
VERTEX
  8
0
 62
7
  6
CONTINUOUS
 10
464.9241825938
 20
337.2894373367
  0
VERTEX
  8
0
 62
7
  6
CONTINUOUS
 10
464.599268742
 20
337.4296644799
  0
VERTEX
  8
0
 62
7
  6
CONTINUOUS
 10
464.2688390698
 20
337.5571038035
  0
VERTEX
  8
0
 62
7
  6
CONTINUOUS
 10
463.9334024335
 20
337.6715788043
  0
VERTEX
  8
0
 62
7
  6
CONTINUOUS
 10
463.5934497799
 20
337.7728758469
  0
VERTEX
  8
0
 62
7
  6
CONTINUOUS
 10
463.2495068823
 20
337.86085685
  0
VERTEX
  8
0
 62
7
  6
CONTINUOUS
 10
462.9020829102
 20
337.9353450339
  0
VERTEX
  8
0
 62
7
  6
CONTINUOUS
 10
462.5517180996
 20
337.9962431118
  0
VERTEX
  8
0
 62
7
  6
CONTINUOUS
 10
462.1989307822
 20
338.0434134127
  0
VERTEX
  8
0
 62
7
  6
CONTINUOUS
 10
461.8442952872
 20
338.0768005899
  0
VERTEX
  8
0
 62
7
  6
CONTINUOUS
 10
461.4886519143
 20
338.0962909021
  0
VERTEX
  8
0
 62
7
  6
CONTINUOUS
 10
461.1317205195
 20
338.1019221624
  0
SEQEND
  0
POLYLINE
  8
0
 62
7
  6
CONTINUOUS
 66
1
 70
0
  0
VERTEX
  8
0
 62
7
  6
CONTINUOUS
 10
461.1201326275
 20
338.9635948998
  0
VERTEX
  8
0
 62
7
  6
CONTINUOUS
 10
461.1286683836
 20
338.3905675988
  0
VERTEX
  8
0
 62
7
  6
CONTINUOUS
 10
461.131554176
 20
338.1019280267
  0
SEQEND
  0
LINE
  8
0
 62
7
  6
CONTINUOUS
 10
475.6367839091
 20
-6.2072192805
 11
475.6529755745
 21
-11.064964264
  0
LINE
  8
0
 62
7
  6
CONTINUOUS
 10
475.4337959166
 20
53.7513086908
 11
475.6367839091
 21
-6.2072192805
  0
POLYLINE
  8
0
 62
7
  6
CONTINUOUS
 66
1
 70
0
  0
VERTEX
  8
0
 62
7
  6
CONTINUOUS
 10
475.6529755745
 20
-11.064964264
  0
VERTEX
  8
0
 62
7
  6
CONTINUOUS
 10
475.6845544246
 20
-20.7413143014
  0
VERTEX
  8
0
 62
7
  6
CONTINUOUS
 10
475.6997520999
 20
-25.5116465318
  0
SEQEND
  0
LINE
  8
0
 62
7
  6
CONTINUOUS
 10
475.4053761525
 20
62.8983264672
 11
475.4337959166
 21
53.7513086908
  0
LINE
  8
0
 62
7
  6
CONTINUOUS
 10
475.3785811531
 20
72.0357663982
 11
475.4053761525
 21
62.8983264672
  0
LINE
  8
0
 62
7
  6
CONTINUOUS
 10
475.342049201
 20
85.7521767512
 11
475.3785811531
 21
72.0357663982
  0
LINE
  8
0
 62
7
  6
CONTINUOUS
 10
475.3017139034
 20
104.0819899474
 11
475.342049201
 21
85.7521767512
  0
LINE
  8
0
 62
7
  6
CONTINUOUS
 10
475.278956764
 20
117.8490511894
 11
475.3017139034
 21
104.0819899474
  0
LINE
  8
0
 62
7
  6
CONTINUOUS
 10
475.2632859153
 20
131.8387375418
 11
475.278956764
 21
117.8490511894
  0
LINE
  8
0
 62
7
  6
CONTINUOUS
 10
475.2571456625
 20
141.4622195696
 11
475.2632859153
 21
131.8387375418
  0
LINE
  8
0
 62
7
  6
CONTINUOUS
 10
470.0711617457
 20
90.1750126412
 11
470.1562001151
 21
-25.7266660117
  0
LINE
  8
0
 62
7
  6
CONTINUOUS
 10
465.890125102
 20
-45.5878604767
 11
465.890125102
 21
-48.078347222
  0
LINE
  8
0
 62
7
  6
CONTINUOUS
 10
465.890125102
 20
349.0128219029
 11
465.890125102
 21
351.5033086481
  0
LINE
  8
0
 62
7
  6
CONTINUOUS
 10
470.0574626234
 20
146.4939916111
 11
470.0711617457
 21
90.1750126412
  0
LINE
  8
0
 62
7
  6
CONTINUOUS
 10
471.0327043836
 20
354.2124807131
 11
471.0327043836
 21
351.7124807131
  0
LINE
  8
0
 62
7
  6
CONTINUOUS
 10
471.0327043836
 20
-50.7875192869
 11
471.0327043836
 21
-48.2875192869
  0
LINE
  8
0
 62
7
  6
CONTINUOUS
 10
475.2549051811
 20
151.7124807131
 11
475.2571456625
 21
141.4622195696
  0
LINE
  8
0
 62
7
  6
CONTINUOUS
 10
470.0579953468
 20
164.3470030958
 11
470.0574626234
 21
146.4939916111
  0
LINE
  8
0
 62
7
  6
CONTINUOUS
 10
470.0616991412
 20
186.1194195774
 11
470.0579953468
 21
164.3470030958
  0
LINE
  8
0
 62
7
  6
CONTINUOUS
 10
475.2582863691
 20
164.3110229784
 11
475.2549051811
 21
151.7124807131
  0
LINE
  8
0
 62
7
  6
CONTINUOUS
 10
470.069893238
 20
210.3371011218
 11
470.0616991412
 21
186.1194195774
  0
LINE
  8
0
 62
7
  6
CONTINUOUS
 10
470.0846558652
 20
238.7975132207
 11
470.069893238
 21
210.3371011218
  0
LINE
  8
0
 62
7
  6
CONTINUOUS
 10
470.156234064
 20
329.1507437596
 11
470.1189470904
 21
286.1404867463
  0
LINE
  8
0
 62
7
  6
CONTINUOUS
 10
470.1189470904
 20
286.1404867463
 11
470.0846558652
 21
238.7975132207
  0
LINE
  8
0
 62
7
  6
CONTINUOUS
 10
475.2670192363
 20
175.6395379972
 11
475.2582863691
 21
164.3110229784
  0
LINE
  8
0
 62
7
  6
CONTINUOUS
 10
475.2870428454
 20
190.977908099
 11
475.2670192363
 21
175.6395379972
  0
LINE
  8
0
 62
7
  6
CONTINUOUS
 10
475.3139221633
 20
205.4332707906
 11
475.2870428454
 21
190.977908099
  0
LINE
  8
0
 62
7
  6
CONTINUOUS
 10
475.359328211
 20
224.3875184336
 11
475.3139221633
 21
205.4332707906
  0
LINE
  8
0
 62
7
  6
CONTINUOUS
 10
475.4139251673
 20
243.3279848042
 11
475.359328211
 21
224.3875184336
  0
LINE
  8
0
 62
7
  6
CONTINUOUS
 10
475.4437610612
 20
252.7827003765
 11
475.4139251673
 21
243.3279848042
  0
LINE
  8
0
 62
7
  6
CONTINUOUS
 10
475.5068332015
 20
271.7089617678
 11
475.4437610612
 21
252.7827003765
  0
POLYLINE
  8
0
 62
7
  6
CONTINUOUS
 66
1
 70
0
  0
VERTEX
  8
0
 62
7
  6
CONTINUOUS
 10
475.6997528195
 20
328.9366086777
  0
VERTEX
  8
0
 62
7
  6
CONTINUOUS
 10
475.6204880557
 20
304.8001704686
  0
VERTEX
  8
0
 62
7
  6
CONTINUOUS
 10
475.5068332015
 20
271.7089617678
  0
SEQEND
  0
LINE
  8
0
 62
7
  6
CONTINUOUS
 10
461.1315540893
 20
-34.6769667132
 11
461.1248581678
 21
-35.2530508884
  0
LINE
  8
0
 62
7
  6
CONTINUOUS
 10
461.1248581678
 20
-35.2530508884
 11
461.1145024156
 21
-35.8216896823
  0
LINE
  8
0
 62
7
  6
CONTINUOUS
 10
461.1145024156
 20
-35.8216896823
 11
461.1005830118
 21
-36.3776018001
  0
LINE
  8
0
 62
7
  6
CONTINUOUS
 10
461.1005830118
 20
-36.3776018001
 11
461.0832292216
 21
-36.9156245919
  0
POLYLINE
  8
0
 62
7
  6
CONTINUOUS
 66
1
 70
0
  0
VERTEX
  8
0
 62
7
  6
CONTINUOUS
 10
461.0832292216
 20
-36.9156245919
  0
VERTEX
  8
0
 62
7
  6
CONTINUOUS
 10
461.0626022292
 20
-37.4307608578
  0
VERTEX
  8
0
 62
7
  6
CONTINUOUS
 10
461.0511200014
 20
-37.6782420946
  0
VERTEX
  8
0
 62
7
  6
CONTINUOUS
 10
461.0388935893
 20
-37.9182267713
  0
VERTEX
  8
0
 62
7
  6
CONTINUOUS
 10
461.0259513978
 20
-38.1501573479
  0
VERTEX
  8
0
 62
7
  6
CONTINUOUS
 10
461.0123234932
 20
-38.3734950168
  0
VERTEX
  8
0
 62
7
  6
CONTINUOUS
 10
460.9980415356
 20
-38.5877209276
  0
VERTEX
  8
0
 62
7
  6
CONTINUOUS
 10
460.983138704
 20
-38.7923373995
  0
VERTEX
  8
0
 62
7
  6
CONTINUOUS
 10
460.9676496203
 20
-38.9868690751
  0
VERTEX
  8
0
 62
7
  6
CONTINUOUS
 10
460.9516102678
 20
-39.1708640271
  0
VERTEX
  8
0
 62
7
  6
CONTINUOUS
 10
460.9350579089
 20
-39.3438948031
  0
VERTEX
  8
0
 62
7
  6
CONTINUOUS
 10
460.9180309962
 20
-39.5055594337
  0
VERTEX
  8
0
 62
7
  6
CONTINUOUS
 10
460.9005690838
 20
-39.6554823635
  0
VERTEX
  8
0
 62
7
  6
CONTINUOUS
 10
460.8827127424
 20
-39.7933152587
  0
VERTEX
  8
0
 62
7
  6
CONTINUOUS
 10
460.864503461
 20
-39.9187378761
  0
VERTEX
  8
0
 62
7
  6
CONTINUOUS
 10
460.8459835367
 20
-40.0314588895
  0
VERTEX
  8
0
 62
7
  6
CONTINUOUS
 10
460.8271959881
 20
-40.1312164607
  0
VERTEX
  8
0
 62
7
  6
CONTINUOUS
 10
460.808184466
 20
-40.2177788065
  0
VERTEX
  8
0
 62
7
  6
CONTINUOUS
 10
460.7889931453
 20
-40.2909447975
  0
VERTEX
  8
0
 62
7
  6
CONTINUOUS
 10
460.7696665933
 20
-40.3505445201
  0
VERTEX
  8
0
 62
7
  6
CONTINUOUS
 10
460.7502496916
 20
-40.3964395254
  0
VERTEX
  8
0
 62
7
  6
CONTINUOUS
 10
460.7307875544
 20
-40.4285231268
  0
SEQEND
  0
POLYLINE
  8
0
 62
7
  6
CONTINUOUS
 66
1
 70
0
  0
VERTEX
  8
0
 62
7
  6
CONTINUOUS
 10
475.6997519222
 20
328.9366077803
  0
VERTEX
  8
0
 62
7
  6
CONTINUOUS
 10
475.6875618841
 20
329.5248432761
  0
VERTEX
  8
0
 62
7
  6
CONTINUOUS
 10
475.6523302651
 20
330.1118081793
  0
VERTEX
  8
0
 62
7
  6
CONTINUOUS
 10
475.5941387653
 20
330.696608618
  0
VERTEX
  8
0
 62
7
  6
CONTINUOUS
 10
475.5130934764
 20
331.2783645267
  0
VERTEX
  8
0
 62
7
  6
CONTINUOUS
 10
475.4093351046
 20
331.8562005967
  0
VERTEX
  8
0
 62
7
  6
CONTINUOUS
 10
475.2830399381
 20
332.4292410294
  0
VERTEX
  8
0
 62
7
  6
CONTINUOUS
 10
475.1344172551
 20
332.9966167877
  0
VERTEX
  8
0
 62
7
  6
CONTINUOUS
 10
474.9637075278
 20
333.5574799764
  0
VERTEX
  8
0
 62
7
  6
CONTINUOUS
 10
474.7711835618
 20
334.1109870105
  0
VERTEX
  8
0
 62
7
  6
CONTINUOUS
 10
474.5571468678
 20
334.6563167377
  0
VERTEX
  8
0
 62
7
  6
CONTINUOUS
 10
474.3219289835
 20
335.1926568082
  0
VERTEX
  8
0
 62
7
  6
CONTINUOUS
 10
474.0658920065
 20
335.719209529
  0
VERTEX
  8
0
 62
7
  6
CONTINUOUS
 10
473.7894259081
 20
336.2351913397
  0
VERTEX
  8
0
 62
7
  6
CONTINUOUS
 10
473.492952035
 20
336.7398318884
  0
VERTEX
  8
0
 62
7
  6
CONTINUOUS
 10
473.1769188504
 20
337.2323770896
  0
VERTEX
  8
0
 62
7
  6
CONTINUOUS
 10
472.8418032832
 20
337.7120916129
  0
VERTEX
  8
0
 62
7
  6
CONTINUOUS
 10
472.4881087216
 20
338.178257206
  0
VERTEX
  8
0
 62
7
  6
CONTINUOUS
 10
472.1163649943
 20
338.6301770327
  0
VERTEX
  8
0
 62
7
  6
CONTINUOUS
 10
471.7271267727
 20
339.0671733096
  0
VERTEX
  8
0
 62
7
  6
CONTINUOUS
 10
471.320975045
 20
339.4885896972
  0
VERTEX
  8
0
 62
7
  6
CONTINUOUS
 10
470.8985137717
 20
339.8937912606
  0
VERTEX
  8
0
 62
7
  6
CONTINUOUS
 10
470.4603723672
 20
340.2821657209
  0
VERTEX
  8
0
 62
7
  6
CONTINUOUS
 10
470.0072014178
 20
340.6531241898
  0
VERTEX
  8
0
 62
7
  6
CONTINUOUS
 10
469.5396760868
 20
341.0061017193
  0
VERTEX
  8
0
 62
7
  6
CONTINUOUS
 10
469.0584907018
 20
341.340558709
  0
VERTEX
  8
0
 62
7
  6
CONTINUOUS
 10
468.5643635727
 20
341.655980647
  0
VERTEX
  8
0
 62
7
  6
CONTINUOUS
 10
468.0580302213
 20
341.9518801669
  0
VERTEX
  8
0
 62
7
  6
CONTINUOUS
 10
467.5402484829
 20
342.2277968884
  0
VERTEX
  8
0
 62
7
  6
CONTINUOUS
 10
467.0117922831
 20
342.4832987356
  0
VERTEX
  8
0
 62
7
  6
CONTINUOUS
 10
466.4734529631
 20
342.7179838031
  0
VERTEX
  8
0
 62
7
  6
CONTINUOUS
 10
465.9260361063
 20
342.9314794773
  0
VERTEX
  8
0
 62
7
  6
CONTINUOUS
 10
465.3703644125
 20
343.1234438225
  0
VERTEX
  8
0
 62
7
  6
CONTINUOUS
 10
464.8072707184
 20
343.2935660951
  0
VERTEX
  8
0
 62
7
  6
CONTINUOUS
 10
464.2376088387
 20
343.4415657788
  0
VERTEX
  8
0
 62
7
  6
CONTINUOUS
 10
463.662238388
 20
343.5671956237
  0
VERTEX
  8
0
 62
7
  6
CONTINUOUS
 10
463.0820404924
 20
343.6702404633
  0
VERTEX
  8
0
 62
7
  6
CONTINUOUS
 10
462.4979033667
 20
343.7505194434
  0
VERTEX
  8
0
 62
7
  6
CONTINUOUS
 10
461.9107167788
 20
343.8078878468
  0
VERTEX
  8
0
 62
7
  6
CONTINUOUS
 10
461.3213797265
 20
343.8422378992
  0
VERTEX
  8
0
 62
7
  6
CONTINUOUS
 10
460.7307876406
 20
343.8534844415
  0
SEQEND
  0
POLYLINE
  8
0
 62
7
  6
CONTINUOUS
 66
1
 70
0
  0
VERTEX
  8
0
 62
7
  6
CONTINUOUS
 10
483.3235323186
 20
334.0699014315
  0
VERTEX
  8
0
 62
7
  6
CONTINUOUS
 10
483.3106575461
 20
334.734175337
  0
VERTEX
  8
0
 62
7
  6
CONTINUOUS
 10
483.2737376756
 20
335.3912226314
  0
VERTEX
  8
0
 62
7
  6
CONTINUOUS
 10
483.2127538136
 20
336.0400459618
  0
VERTEX
  8
0
 62
7
  6
CONTINUOUS
 10
483.127762641
 20
336.6836373867
  0
VERTEX
  8
0
 62
7
  6
CONTINUOUS
 10
483.0187001015
 20
337.3256544903
  0
VERTEX
  8
0
 62
7
  6
CONTINUOUS
 10
482.8859095134
 20
337.9631033428
  0
VERTEX
  8
0
 62
7
  6
CONTINUOUS
 10
482.7296076526
 20
338.594439564
  0
VERTEX
  8
0
 62
7
  6
CONTINUOUS
 10
482.5501100887
 20
339.2189720897
  0
VERTEX
  8
0
 62
7
  6
CONTINUOUS
 10
482.3477097966
 20
339.8356959394
  0
VERTEX
  8
0
 62
7
  6
CONTINUOUS
 10
482.1226913356
 20
340.4440084823
  0
VERTEX
  8
0
 62
7
  6
CONTINUOUS
 10
481.8753253413
 20
341.0432068865
  0
VERTEX
  8
0
 62
7
  6
CONTINUOUS
 10
481.6059465588
 20
341.6325867751
  0
VERTEX
  8
0
 62
7
  6
CONTINUOUS
 10
481.3148223875
 20
342.2114916375
  0
VERTEX
  8
0
 62
7
  6
CONTINUOUS
 10
481.0024255007
 20
342.7790750428
  0
VERTEX
  8
0
 62
7
  6
CONTINUOUS
 10
480.6691414274
 20
343.3345266373
  0
VERTEX
  8
0
 62
7
  6
CONTINUOUS
 10
480.315498999
 20
343.8770816797
  0
VERTEX
  8
0
 62
7
  6
CONTINUOUS
 10
479.9419766942
 20
344.4059242142
  0
VERTEX
  8
0
 62
7
  6
CONTINUOUS
 10
479.5491111
 20
344.9203975297
  0
VERTEX
  8
0
 62
7
  6
CONTINUOUS
 10
479.1374084936
 20
345.419778118
  0
VERTEX
  8
0
 62
7
  6
CONTINUOUS
 10
478.7074382842
 20
345.9034504147
  0
VERTEX
  8
0
 62
7
  6
CONTINUOUS
 10
478.2597339097
 20
346.3707532029
  0
VERTEX
  8
0
 62
7
  6
CONTINUOUS
 10
477.7949095615
 20
346.8210999311
  0
VERTEX
  8
0
 62
7
  6
CONTINUOUS
 10
477.3135316719
 20
347.2538714608
  0
VERTEX
  8
0
 62
7
  6
CONTINUOUS
 10
476.8162769563
 20
347.6685043356
  0
VERTEX
  8
0
 62
7
  6
CONTINUOUS
 10
476.30375299
 20
348.0644106386
  0
VERTEX
  8
0
 62
7
  6
CONTINUOUS
 10
475.7767336264
 20
348.4410446116
  0
VERTEX
  8
0
 62
7
  6
CONTINUOUS
 10
475.2359358246
 20
348.7978157189
  0
VERTEX
  8
0
 62
7
  6
CONTINUOUS
 10
474.6821378429
 20
349.1342703761
  0
VERTEX
  8
0
 62
7
  6
CONTINUOUS
 10
474.1161352187
 20
349.4498697368
  0
VERTEX
  8
0
 62
7
  6
CONTINUOUS
 10
473.5385930726
 20
349.7442790525
  0
VERTEX
  8
0
 62
7
  6
CONTINUOUS
 10
472.9502524282
 20
350.0170789402
  0
VERTEX
  8
0
 62
7
  6
CONTINUOUS
 10
472.3516811136
 20
350.2679844559
  0
VERTEX
  8
0
 62
7
  6
CONTINUOUS
 10
471.7432289576
 20
350.4967356494
  0
VERTEX
  8
0
 62
7
  6
CONTINUOUS
 10
471.1262909812
 20
350.7028381552
  0
VERTEX
  8
0
 62
7
  6
CONTINUOUS
 10
470.5034371175
 20
350.8855517122
  0
VERTEX
  8
0
 62
7
  6
CONTINUOUS
 10
469.871492459
 20
351.0453540563
  0
VERTEX
  8
0
 62
7
  6
CONTINUOUS
 10
469.2273840216
 20
351.1828892678
  0
VERTEX
  8
0
 62
7
  6
CONTINUOUS
 10
468.5733759676
 20
351.2969180521
  0
VERTEX
  8
0
 62
7
  6
CONTINUOUS
 10
467.9095744224
 20
351.3866276617
  0
VERTEX
  8
0
 62
7
  6
CONTINUOUS
 10
467.2393805124
 20
351.4513825359
  0
VERTEX
  8
0
 62
7
  6
CONTINUOUS
 10
466.5666603016
 20
351.4901628885
  0
VERTEX
  8
0
 62
7
  6
CONTINUOUS
 10
465.890125102
 20
351.5033086481
  0
SEQEND
  0
POLYLINE
  8
0
 62
7
  6
CONTINUOUS
 66
1
 70
0
  0
VERTEX
  8
0
 62
7
  6
CONTINUOUS
 10
480.8330455734
 20
334.0699014315
  0
VERTEX
  8
0
 62
7
  6
CONTINUOUS
 10
480.8229892621
 20
334.639606054
  0
VERTEX
  8
0
 62
7
  6
CONTINUOUS
 10
480.7917338736
 20
335.2038318673
  0
VERTEX
  8
0
 62
7
  6
CONTINUOUS
 10
480.7399687591
 20
335.7605912389
  0
VERTEX
  8
0
 62
7
  6
CONTINUOUS
 10
480.6678470862
 20
336.3128506362
  0
VERTEX
  8
0
 62
7
  6
CONTINUOUS
 10
480.5749706718
 20
336.8637307591
  0
VERTEX
  8
0
 62
7
  6
CONTINUOUS
 10
480.4616619024
 20
337.4106532298
  0
VERTEX
  8
0
 62
7
  6
CONTINUOUS
 10
480.3282129462
 20
337.952314659
  0
VERTEX
  8
0
 62
7
  6
CONTINUOUS
 10
480.1748247169
 20
338.4881030511
  0
VERTEX
  8
0
 62
7
  6
CONTINUOUS
 10
480.0017887329
 20
339.0171720016
  0
VERTEX
  8
0
 62
7
  6
CONTINUOUS
 10
479.8093248045
 20
339.538993263
  0
VERTEX
  8
0
 62
7
  6
CONTINUOUS
 10
479.5976802572
 20
340.0529730806
  0
VERTEX
  8
0
 62
7
  6
CONTINUOUS
 10
479.3671242609
 20
340.5584982078
  0
VERTEX
  8
0
 62
7
  6
CONTINUOUS
 10
479.1179091456
 20
341.0550175681
  0
VERTEX
  8
0
 62
7
  6
CONTINUOUS
 10
478.8504052615
 20
341.5417872018
  0
VERTEX
  8
0
 62
7
  6
CONTINUOUS
 10
478.5649825983
 20
342.0181343516
  0
VERTEX
  8
0
 62
7
  6
CONTINUOUS
 10
478.2620538421
 20
342.4833784727
  0
VERTEX
  8
0
 62
7
  6
CONTINUOUS
 10
477.942066881
 20
342.9368452804
  0
VERTEX
  8
0
 62
7
  6
CONTINUOUS
 10
477.6054481745
 20
343.377947447
  0
VERTEX
  8
0
 62
7
  6
CONTINUOUS
 10
477.2526612304
 20
343.806088092
  0
VERTEX
  8
0
 62
7
  6
CONTINUOUS
 10
476.8841665958
 20
344.220716469
  0
VERTEX
  8
0
 62
7
  6
CONTINUOUS
 10
476.5004473592
 20
344.6212888661
  0
VERTEX
  8
0
 62
7
  6
CONTINUOUS
 10
476.1020046342
 20
345.0072787124
  0
VERTEX
  8
0
 62
7
  6
CONTINUOUS
 10
475.6893491952
 20
345.3781805127
  0
VERTEX
  8
0
 62
7
  6
CONTINUOUS
 10
475.2630353568
 20
345.7334840147
  0
VERTEX
  8
0
 62
7
  6
CONTINUOUS
 10
474.8236108686
 20
346.0727162032
  0
VERTEX
  8
0
 62
7
  6
CONTINUOUS
 10
474.37171066
 20
346.3953738373
  0
VERTEX
  8
0
 62
7
  6
CONTINUOUS
 10
473.9079776458
 20
346.7009889907
  0
VERTEX
  8
0
 62
7
  6
CONTINUOUS
 10
473.4330534354
 20
346.9891350824
  0
VERTEX
  8
0
 62
7
  6
CONTINUOUS
 10
472.9476418171
 20
347.2593844766
  0
VERTEX
  8
0
 62
7
  6
CONTINUOUS
 10
472.4522975962
 20
347.5114250545
  0
VERTEX
  8
0
 62
7
  6
CONTINUOUS
 10
471.9476671297
 20
347.7449141252
  0
VERTEX
  8
0
 62
7
  6
CONTINUOUS
 10
471.4342302287
 20
347.9596011408
  0
VERTEX
  8
0
 62
7
  6
CONTINUOUS
 10
470.9123002021
 20
348.1552887021
  0
VERTEX
  8
0
 62
7
  6
CONTINUOUS
 10
470.3830444375
 20
348.3314814899
  0
VERTEX
  8
0
 62
7
  6
CONTINUOUS
 10
469.8486722015
 20
348.487506792
  0
VERTEX
  8
0
 62
7
  6
CONTINUOUS
 10
469.3065203378
 20
348.6240840423
  0
VERTEX
  8
0
 62
7
  6
CONTINUOUS
 10
468.7538984681
 20
348.7414386178
  0
VERTEX
  8
0
 62
7
  6
CONTINUOUS
 10
468.1927219432
 20
348.8385831991
  0
VERTEX
  8
0
 62
7
  6
CONTINUOUS
 10
467.6231507161
 20
348.9149497322
  0
VERTEX
  8
0
 62
7
  6
CONTINUOUS
 10
467.0480269358
 20
348.969711018
  0
VERTEX
  8
0
 62
7
  6
CONTINUOUS
 10
466.4703108466
 20
349.0023804412
  0
VERTEX
  8
0
 62
7
  6
CONTINUOUS
 10
465.890125102
 20
349.0128219029
  0
SEQEND
  0
LINE
  8
0
 62
7
  6
CONTINUOUS
 10
480.8330455734
 20
-30.6449400054
 11
480.8330455734
 21
334.0699014315
  0
LINE
  8
0
 62
7
  6
CONTINUOUS
 10
483.3235323186
 20
-30.6449400054
 11
483.3235323186
 21
334.0699014315
  0
LINE
  8
0
 62
7
  6
CONTINUOUS
 10
483.5327043836
 20
339.2124807131
 11
483.5327043836
 21
-35.7875192869
  0
LINE
  8
0
 62
7
  6
CONTINUOUS
 10
486.0327043836
 20
339.2124807131
 11
486.0327043836
 21
-35.7875192869
  0
POLYLINE
  8
0
 62
7
  6
CONTINUOUS
 66
1
 70
0
  0
VERTEX
  8
0
 62
7
  6
CONTINUOUS
 10
460.7307876406
 20
343.8534844415
  0
VERTEX
  8
0
 62
7
  6
CONTINUOUS
 10
460.7502497241
 20
343.821400948
  0
VERTEX
  8
0
 62
7
  6
CONTINUOUS
 10
460.7696665941
 20
343.7755060675
  0
VERTEX
  8
0
 62
7
  6
CONTINUOUS
 10
460.7889931418
 20
343.7159064218
  0
VERTEX
  8
0
 62
7
  6
CONTINUOUS
 10
460.8081844692
 20
343.6427404687
  0
VERTEX
  8
0
 62
7
  6
CONTINUOUS
 10
460.8271959931
 20
343.5561781766
  0
VERTEX
  8
0
 62
7
  6
CONTINUOUS
 10
460.8459835437
 20
343.4564206559
  0
VERTEX
  8
0
 62
7
  6
CONTINUOUS
 10
460.8645034705
 20
343.3436996892
  0
VERTEX
  8
0
 62
7
  6
CONTINUOUS
 10
460.8827127546
 20
343.2182771145
  0
VERTEX
  8
0
 62
7
  6
CONTINUOUS
 10
460.900569099
 20
343.0804442575
  0
VERTEX
  8
0
 62
7
  6
CONTINUOUS
 10
460.9180310148
 20
342.9305213612
  0
VERTEX
  8
0
 62
7
  6
CONTINUOUS
 10
460.935057931
 20
342.7688567587
  0
VERTEX
  8
0
 62
7
  6
CONTINUOUS
 10
460.9516102937
 20
342.5958260055
  0
VERTEX
  8
0
 62
7
  6
CONTINUOUS
 10
460.96764965
 20
342.4118310707
  0
VERTEX
  8
0
 62
7
  6
CONTINUOUS
 10
460.9831387378
 20
342.2172994064
  0
VERTEX
  8
0
 62
7
  6
CONTINUOUS
 10
460.9980415735
 20
342.0126829399
  0
VERTEX
  8
0
 62
7
  6
CONTINUOUS
 10
461.0123235353
 20
341.7984570285
  0
VERTEX
  8
0
 62
7
  6
CONTINUOUS
 10
461.025951444
 20
341.5751193531
  0
VERTEX
  8
0
 62
7
  6
CONTINUOUS
 10
461.0388936397
 20
341.3431887641
  0
VERTEX
  8
0
 62
7
  6
CONTINUOUS
 10
461.0511200559
 20
341.1032040692
  0
SEQEND
  0
CIRCLE
  8
0
 62
7
  6
CONTINUOUS
 10
186.0327043836
 20
151.7124807131
 40
20.0
  0
ARC
  8
0
 62
7
  6
CONTINUOUS
 10
-98.9672956164
 20
339.2124807131
 40
15.0
 50
90.0
 51
180.0
  0
ARC
  8
0
 62
7
  6
CONTINUOUS
 10
471.0327043836
 20
339.2124807131
 40
15.0
 50
0.0
 51
90.0
  0
ARC
  8
0
 62
7
  6
CONTINUOUS
 10
471.0327043836
 20
-35.7875192869
 40
15.0
 50
270.0
 51
360.0
  0
ARC
  8
0
 62
7
  6
CONTINUOUS
 10
-98.9672956164
 20
-35.7875192869
 40
15.0
 50
180.0
 51
270.0
  0
ARC
  8
0
 62
7
  6
CONTINUOUS
 10
471.0327043836
 20
339.2124807131
 40
12.5
 50
0.0
 51
90.0
  0
ARC
  8
0
 62
7
  6
CONTINUOUS
 10
471.0327043836
 20
-35.7875192869
 40
12.5
 50
270.0
 51
360.0
  0
ARC
  8
0
 62
7
  6
CONTINUOUS
 10
-98.9672956164
 20
-35.7875192869
 40
12.5
 50
180.0
 51
270.0
  0
ARC
  8
0
 62
7
  6
CONTINUOUS
 10
-98.9672956164
 20
339.2124807131
 40
12.5
 50
90.0
 51
180.0
  0
ENDSEC
  0
EOF
