999
DXF file: K:\Client\125_Heirloom\001\00\Final_Data\Drawings\SINGLE BAR TOWEL WARMERS\wgs460_3.dxf
999
Pro/ENGINEER 2017110 by Parametric Technology Corporation
  0
SECTION
  2
HEADER
  9
$EXTMAX
 10
420.0
 20
297.0
 30
0.0
  9
$EXTMIN
 10
0.0
 20
0.0
 30
0.0
  9
$LIMMIN
 10
0.0
 20
0.0
  9
$LIMMAX
 10
420.0
 20
297.0
  9
$VIEWCTR
 10
210.0
 20
148.5
  9
$VIEWSIZE
 40
297.0
  9
$CLAYER
  8
0
  9
$LTSCALE
 40
23.1
  9
$CELTYPE
  6
BYLAYER
  9
$DIMSCALE
 40
1.0
  9
$DIMASZ
 40
3.0
  9
$DIMEXO
 40
1.0
  9
$DIMDLI
 40
15.96
  9
$DIMEXE
 40
1.0
  9
$DIMCEN
 40
3.78
  9
$DIMLFAC
 40
1.0
  9
$DIMBLK
  1
_FILLED
  9
$DIMALT
 70
0
  9
$DIMALTF
 40
0.0393700787
  9
$DIMTXT
 40
3.0
  9
$AUNITS
 70
0
  9
$PDMODE
 70
3
  9
$PDSIZE
 40
5.0
  9
$TILEMODE
 70
1
  0
ENDSEC
  0
SECTION
  2
TABLES
  0
TABLE
  2
LTYPE
 70
6
  0
LTYPE
  2
BYBLOCK
 70
0
  3

 72
65
 73
0
 40
0.0
  0
LTYPE
  2
BYLAYER
 70
0
  3

 72
65
 73
0
 40
0.0
  0
LTYPE
  2
CONTINUOUS
 70
64
  3
Solid line
 72
65
 73
0
 40
0.0
  0
LTYPE
  2
CENTER
 70
64
  3
____ _ ____ _ ____ _ ____ _ ____ _ ____ _ ____
 72
65
 73
4
 40
0.6
 49
0.375
 49
-0.075
 49
0.075
 49
-0.075
  0
LTYPE
  2
HIDDEN
 70
64
  3
- - - - - - - - - - - - - - - - - - - -
 72
65
 73
2
 40
0.2
 49
0.1
 49
-0.1
  0
LTYPE
  2
PHANTOM
 70
64
  3
_____ _ _ _____ _ _ _____ _ _ _____
 72
65
 73
6
 40
0.8
 49
0.45
 49
-0.05
 49
0.1
 49
-0.05
 49
0.1
 49
-0.05
  0
LTYPE
  2
DOT
 70
64
  3
. . . . . . . . . . . . . . . . . . . .
 72
65
 73
2
 40
0.2
 49
0.1
 49
-0.1
  0
LTYPE
  2
DASHED
 70
64
  3
- - - - - - - - - - - - - - - - - - - -
 72
65
 73
2
 40
0.2
 49
0.1
 49
-0.1
  0
ENDTAB
  0
TABLE
  2
LAYER
 70
36
  0
LAYER
  2
0
 70
0
 62
7
  6
CONTINUOUS
  0
LAYER
  2
DEFAULT_1
 70
0
 62
7
  6
CENTER
  0
LAYER
  2
DEFAULT_2
 70
0
 62
8
  6
HIDDEN
  0
LAYER
  2
DEFAULT_3
 70
0
 62
7
  6
PHANTOM
  0
LAYER
  2
0000_BOM
 70
0
 62
7
  6
CONTINUOUS
  0
LAYER
  2
0000_REV_TABLE
 70
0
 62
7
  6
CONTINUOUS
  0
LAYER
  2
0000_STEVENS_NOTE
 70
0
 62
7
  6
CONTINUOUS
  0
LAYER
  2
01_DATUM_PLANES
 70
0
 62
7
  6
CONTINUOUS
  0
LAYER
  2
01_DEF_PLANES
 70
0
 62
7
  6
CONTINUOUS
  0
LAYER
  2
02_DATUM_COS
 70
0
 62
7
  6
CONTINUOUS
  0
LAYER
  2
99_SOLID
 70
0
 62
7
  6
CONTINUOUS
  0
LAYER
  2
CAD-MASTER_ZINC-PL
 70
0
 62
7
  6
CONTINUOUS
  0
LAYER
  2
CURVE
 70
0
 62
7
  6
CONTINUOUS
  0
LAYER
  2
SKEL
 70
0
 62
7
  6
CONTINUOUS
  0
LAYER
  2
SKETCH
 70
0
 62
7
  6
CONTINUOUS
  0
LAYER
  2
SURFACE
 70
0
 62
7
  6
CONTINUOUS
  0
ENDTAB
  0
TABLE
  2
STYLE
 70
1
  0
STYLE
  2
STANDARD
 70
0
 40
0.0
 41
0.75
 50
0.0
 71
0
 42
0.2
  3
txt
  4

  0
STYLE
  2
TEXTSTYLE_1
 70
0
 40
0.0
 41
0.8
 50
0.0
 71
0
 42
0.2
  3
gdt
  4

  0
ENDTAB
  0
ENDSEC
  0
SECTION
  2
BLOCKS
  0
ENDSEC
  0
SECTION
  2
ENTITIES
  0
LINE
  8
0
 62
7
  6
CONTINUOUS
 10
-59.9672956164
 20
209.7124807131
 11
-59.9672956164
 21
93.7124807131
  0
LINE
  8
0
 62
7
  6
CONTINUOUS
 10
-27.9672956164
 20
209.7124807131
 11
-27.9672956164
 21
125.7124807131
  0
POLYLINE
  8
0
 62
7
  6
CONTINUOUS
 66
1
 70
0
  0
VERTEX
  8
0
 62
7
  6
CONTINUOUS
 10
-28.9482232937
 20
124.7315530358
  0
VERTEX
  8
0
 62
7
  6
CONTINUOUS
 10
-29.1253009856
 20
124.5544586634
  0
VERTEX
  8
0
 62
7
  6
CONTINUOUS
 10
-31.8787528548
 20
121.8010391365
  0
SEQEND
  0
POLYLINE
  8
0
 62
7
  6
CONTINUOUS
 66
1
 70
0
  0
VERTEX
  8
0
 62
7
  6
CONTINUOUS
 10
-46.7577155873
 20
106.9220607422
  0
VERTEX
  8
0
 62
7
  6
CONTINUOUS
 10
-47.4390936856
 20
106.2406512555
  0
VERTEX
  8
0
 62
7
  6
CONTINUOUS
 10
-48.1100711222
 20
105.5697052074
  0
VERTEX
  8
0
 62
7
  6
CONTINUOUS
 10
-48.768635073
 20
104.911102207
  0
VERTEX
  8
0
 62
7
  6
CONTINUOUS
 10
-49.4133302025
 20
104.266446127
  0
VERTEX
  8
0
 62
7
  6
CONTINUOUS
 10
-50.0423983302
 20
103.6373351723
  0
VERTEX
  8
0
 62
7
  6
CONTINUOUS
 10
-50.654735167
 20
103.0250411625
  0
VERTEX
  8
0
 62
7
  6
CONTINUOUS
 10
-51.2488990885
 20
102.4308345323
  0
VERTEX
  8
0
 62
7
  6
CONTINUOUS
 10
-51.82414392
 20
101.8556324095
  0
VERTEX
  8
0
 62
7
  6
CONTINUOUS
 10
-52.3793934884
 20
101.3003424132
  0
VERTEX
  8
0
 62
7
  6
CONTINUOUS
 10
-52.914196164
 20
100.7655801655
  0
VERTEX
  8
0
 62
7
  6
CONTINUOUS
 10
-53.4277904958
 20
100.2519507369
  0
VERTEX
  8
0
 62
7
  6
CONTINUOUS
 10
-53.9200297742
 20
99.7597465553
  0
VERTEX
  8
0
 62
7
  6
CONTINUOUS
 10
-54.39046946
 20
99.289279989
  0
VERTEX
  8
0
 62
7
  6
CONTINUOUS
 10
-54.839241591
 20
98.8405347385
  0
VERTEX
  8
0
 62
7
  6
CONTINUOUS
 10
-55.2662408281
 20
98.4135150984
  0
VERTEX
  8
0
 62
7
  6
CONTINUOUS
 10
-55.6717347627
 20
98.0080415668
  0
VERTEX
  8
0
 62
7
  6
CONTINUOUS
 10
-56.0558383781
 20
97.6239222896
  0
VERTEX
  8
0
 62
7
  6
CONTINUOUS
 10
-57.9320696821
 20
95.7477154068
  0
SEQEND
  0
POLYLINE
  8
0
 62
7
  6
CONTINUOUS
 66
1
 70
0
  0
VERTEX
  8
0
 62
7
  6
CONTINUOUS
 10
-57.9320696821
 20
95.7477154068
  0
VERTEX
  8
0
 62
7
  6
CONTINUOUS
 10
-58.1775869568
 20
95.5021893727
  0
VERTEX
  8
0
 62
7
  6
CONTINUOUS
 10
-58.6158135996
 20
95.0639627299
  0
SEQEND
  0
POLYLINE
  8
0
 62
7
  6
CONTINUOUS
 66
1
 70
0
  0
VERTEX
  8
0
 62
7
  6
CONTINUOUS
 10
-31.8787528548
 20
121.8010391365
  0
VERTEX
  8
0
 62
7
  6
CONTINUOUS
 10
-32.2628564701
 20
121.4169198594
  0
VERTEX
  8
0
 62
7
  6
CONTINUOUS
 10
-32.6683504048
 20
121.0114463278
  0
VERTEX
  8
0
 62
7
  6
CONTINUOUS
 10
-33.0953496419
 20
120.5844266877
  0
VERTEX
  8
0
 62
7
  6
CONTINUOUS
 10
-33.5441217728
 20
120.1356814372
  0
VERTEX
  8
0
 62
7
  6
CONTINUOUS
 10
-34.0145614586
 20
119.6652148709
  0
VERTEX
  8
0
 62
7
  6
CONTINUOUS
 10
-34.506800737
 20
119.1730106892
  0
VERTEX
  8
0
 62
7
  6
CONTINUOUS
 10
-35.0203950689
 20
118.6593812606
  0
VERTEX
  8
0
 62
7
  6
CONTINUOUS
 10
-35.5551977444
 20
118.124619013
  0
VERTEX
  8
0
 62
7
  6
CONTINUOUS
 10
-36.1104473128
 20
117.5693290167
  0
VERTEX
  8
0
 62
7
  6
CONTINUOUS
 10
-36.6856921443
 20
116.9941268938
  0
VERTEX
  8
0
 62
7
  6
CONTINUOUS
 10
-37.2798560659
 20
116.3999202637
  0
VERTEX
  8
0
 62
7
  6
CONTINUOUS
 10
-37.8921929026
 20
115.7876262539
  0
VERTEX
  8
0
 62
7
  6
CONTINUOUS
 10
-38.5212610303
 20
115.1585152992
  0
VERTEX
  8
0
 62
7
  6
CONTINUOUS
 10
-39.1659561599
 20
114.5138592192
  0
VERTEX
  8
0
 62
7
  6
CONTINUOUS
 10
-39.8245201107
 20
113.8552562188
  0
VERTEX
  8
0
 62
7
  6
CONTINUOUS
 10
-40.4954975473
 20
113.1843101706
  0
VERTEX
  8
0
 62
7
  6
CONTINUOUS
 10
-41.1768756455
 20
112.502900684
  0
SEQEND
  0
POLYLINE
  8
0
 62
7
  6
CONTINUOUS
 66
1
 70
0
  0
VERTEX
  8
0
 62
7
  6
CONTINUOUS
 10
-58.6158135996
 20
95.0639627299
  0
VERTEX
  8
0
 62
7
  6
CONTINUOUS
 10
-58.8092902473
 20
94.8705027627
  0
VERTEX
  8
0
 62
7
  6
CONTINUOUS
 10
-58.9863679391
 20
94.6934083904
  0
SEQEND
  0
LINE
  8
0
 62
7
  6
CONTINUOUS
 10
-28.2933870621
 20
125.3863865441
 11
-28.9482232937
 21
124.7315530358
  0
LINE
  8
0
 62
7
  6
CONTINUOUS
 10
-58.9863679391
 20
94.6934083904
 11
-59.6412041707
 21
94.0385748821
  0
LINE
  8
0
 62
7
  6
CONTINUOUS
 10
-41.1768756455
 20
112.502900684
 11
-46.7577155873
 21
106.9220607422
  0
LINE
  8
0
 62
7
  6
CONTINUOUS
 10
-27.9672956164
 20
125.7124807131
 11
-28.2933870621
 21
125.3863865441
  0
LINE
  8
0
 62
7
  6
CONTINUOUS
 10
-59.6412041707
 20
94.0385748821
 11
-59.9672956164
 21
93.7124807131
  0
LINE
  8
0
 62
7
  6
CONTINUOUS
 10
-59.9672956164
 20
93.7124807131
 11
432.0327043836
 21
93.7124807131
  0
LINE
  8
0
 62
7
  6
CONTINUOUS
 10
-27.9672956164
 20
125.7124807131
 11
400.0327043836
 21
125.7124807131
  0
LINE
  8
0
 62
7
  6
CONTINUOUS
 10
-27.9672956164
 20
209.7124807131
 11
-59.9672956164
 21
209.7124807131
  0
LINE
  8
0
 62
7
  6
CONTINUOUS
 10
400.0327043836
 20
209.7124807131
 11
432.0327043836
 21
209.7124807131
  0
POLYLINE
  8
0
 62
7
  6
CONTINUOUS
 66
1
 70
0
  0
VERTEX
  8
0
 62
7
  6
CONTINUOUS
 10
401.0136320609
 20
124.7315530358
  0
VERTEX
  8
0
 62
7
  6
CONTINUOUS
 10
401.1907264332
 20
124.554475344
  0
VERTEX
  8
0
 62
7
  6
CONTINUOUS
 10
403.9441459601
 20
121.8010234747
  0
SEQEND
  0
POLYLINE
  8
0
 62
7
  6
CONTINUOUS
 66
1
 70
0
  0
VERTEX
  8
0
 62
7
  6
CONTINUOUS
 10
418.8231243545
 20
106.9220607422
  0
VERTEX
  8
0
 62
7
  6
CONTINUOUS
 10
419.5045338411
 20
106.240682644
  0
VERTEX
  8
0
 62
7
  6
CONTINUOUS
 10
420.1754798893
 20
105.5697052074
  0
VERTEX
  8
0
 62
7
  6
CONTINUOUS
 10
420.8340828897
 20
104.9111412565
  0
VERTEX
  8
0
 62
7
  6
CONTINUOUS
 10
421.4787389697
 20
104.266446127
  0
VERTEX
  8
0
 62
7
  6
CONTINUOUS
 10
422.1078499244
 20
103.6373779993
  0
VERTEX
  8
0
 62
7
  6
CONTINUOUS
 10
422.7201439341
 20
103.0250411625
  0
VERTEX
  8
0
 62
7
  6
CONTINUOUS
 10
423.3143505643
 20
102.430877241
  0
VERTEX
  8
0
 62
7
  6
CONTINUOUS
 10
423.8895526872
 20
101.8556324095
  0
VERTEX
  8
0
 62
7
  6
CONTINUOUS
 10
424.4448426835
 20
101.3003828411
  0
VERTEX
  8
0
 62
7
  6
CONTINUOUS
 10
424.9796049311
 20
100.7655801655
  0
VERTEX
  8
0
 62
7
  6
CONTINUOUS
 10
425.4932343597
 20
100.2519858337
  0
VERTEX
  8
0
 62
7
  6
CONTINUOUS
 10
425.9854385414
 20
99.7597465553
  0
VERTEX
  8
0
 62
7
  6
CONTINUOUS
 10
426.4559051077
 20
99.2893068695
  0
VERTEX
  8
0
 62
7
  6
CONTINUOUS
 10
426.9046503581
 20
98.8405347385
  0
VERTEX
  8
0
 62
7
  6
CONTINUOUS
 10
427.3316699983
 20
98.4135355014
  0
VERTEX
  8
0
 62
7
  6
CONTINUOUS
 10
427.7371435299
 20
98.0080415668
  0
VERTEX
  8
0
 62
7
  6
CONTINUOUS
 10
428.121262807
 20
97.6239379515
  0
VERTEX
  8
0
 62
7
  6
CONTINUOUS
 10
429.9974696898
 20
95.7477066474
  0
SEQEND
  0
POLYLINE
  8
0
 62
7
  6
CONTINUOUS
 66
1
 70
0
  0
VERTEX
  8
0
 62
7
  6
CONTINUOUS
 10
429.9974696898
 20
95.7477066474
  0
VERTEX
  8
0
 62
7
  6
CONTINUOUS
 10
430.242995724
 20
95.5021893727
  0
VERTEX
  8
0
 62
7
  6
CONTINUOUS
 10
430.6812223667
 20
95.0639627299
  0
SEQEND
  0
POLYLINE
  8
0
 62
7
  6
CONTINUOUS
 66
1
 70
0
  0
VERTEX
  8
0
 62
7
  6
CONTINUOUS
 10
403.9441459601
 20
121.8010234747
  0
VERTEX
  8
0
 62
7
  6
CONTINUOUS
 10
404.3282652373
 20
121.4169198594
  0
VERTEX
  8
0
 62
7
  6
CONTINUOUS
 10
404.7337387689
 20
121.0114259248
  0
VERTEX
  8
0
 62
7
  6
CONTINUOUS
 10
405.160758409
 20
120.5844266877
  0
VERTEX
  8
0
 62
7
  6
CONTINUOUS
 10
405.6095036594
 20
120.1356545567
  0
VERTEX
  8
0
 62
7
  6
CONTINUOUS
 10
406.0799702258
 20
119.6652148709
  0
VERTEX
  8
0
 62
7
  6
CONTINUOUS
 10
406.5721744074
 20
119.1729755925
  0
VERTEX
  8
0
 62
7
  6
CONTINUOUS
 10
407.085803836
 20
118.6593812606
  0
VERTEX
  8
0
 62
7
  6
CONTINUOUS
 10
407.6205660837
 20
118.1245785851
  0
VERTEX
  8
0
 62
7
  6
CONTINUOUS
 10
408.17585608
 20
117.5693290167
  0
VERTEX
  8
0
 62
7
  6
CONTINUOUS
 10
408.7510582028
 20
116.9940841852
  0
VERTEX
  8
0
 62
7
  6
CONTINUOUS
 10
409.345264833
 20
116.3999202637
  0
VERTEX
  8
0
 62
7
  6
CONTINUOUS
 10
409.9575588428
 20
115.7875834269
  0
VERTEX
  8
0
 62
7
  6
CONTINUOUS
 10
410.5866697975
 20
115.1585152992
  0
VERTEX
  8
0
 62
7
  6
CONTINUOUS
 10
411.2313258775
 20
114.5138201697
  0
VERTEX
  8
0
 62
7
  6
CONTINUOUS
 10
411.8899288778
 20
113.8552562188
  0
VERTEX
  8
0
 62
7
  6
CONTINUOUS
 10
412.560874926
 20
113.1842787822
  0
VERTEX
  8
0
 62
7
  6
CONTINUOUS
 10
413.2422844127
 20
112.502900684
  0
SEQEND
  0
POLYLINE
  8
0
 62
7
  6
CONTINUOUS
 66
1
 70
0
  0
VERTEX
  8
0
 62
7
  6
CONTINUOUS
 10
430.6812223667
 20
95.0639627299
  0
VERTEX
  8
0
 62
7
  6
CONTINUOUS
 10
430.8746823339
 20
94.8704860822
  0
VERTEX
  8
0
 62
7
  6
CONTINUOUS
 10
431.0517767063
 20
94.6934083904
  0
SEQEND
  0
LINE
  8
0
 62
7
  6
CONTINUOUS
 10
400.3587985525
 20
125.3863892674
 11
401.0136320609
 21
124.7315530358
  0
LINE
  8
0
 62
7
  6
CONTINUOUS
 10
431.0517767063
 20
94.6934083904
 11
431.7066102146
 21
94.0385721588
  0
LINE
  8
0
 62
7
  6
CONTINUOUS
 10
413.2422844127
 20
112.502900684
 11
418.8231243545
 21
106.9220607422
  0
LINE
  8
0
 62
7
  6
CONTINUOUS
 10
400.0327043836
 20
125.7124807131
 11
400.3587985525
 21
125.3863892674
  0
LINE
  8
0
 62
7
  6
CONTINUOUS
 10
431.7066102146
 20
94.0385721588
 11
432.0327043836
 21
93.7124807131
  0
LINE
  8
0
 62
7
  6
CONTINUOUS
 10
400.0327043836
 20
125.7124807131
 11
400.0327043836
 21
209.7124807131
  0
LINE
  8
0
 62
7
  6
CONTINUOUS
 10
432.0327043836
 20
93.7124807131
 11
432.0327043836
 21
209.7124807131
  0
ENDSEC
  0
EOF
