999
DXF file: K:\Client\125_Heirloom\001\00\Final_Data\Drawings\SINGLE BAR TOWEL WARMERS\wgs860_3.dxf
999
Pro/ENGINEER 2017110 by Parametric Technology Corporation
  0
SECTION
  2
HEADER
  9
$EXTMAX
 10
420.0
 20
297.0
 30
0.0
  9
$EXTMIN
 10
0.0
 20
0.0
 30
0.0
  9
$LIMMIN
 10
0.0
 20
0.0
  9
$LIMMAX
 10
420.0
 20
297.0
  9
$VIEWCTR
 10
210.0
 20
148.5
  9
$VIEWSIZE
 40
297.0
  9
$CLAYER
  8
0
  9
$LTSCALE
 40
23.1
  9
$CELTYPE
  6
BYLAYER
  9
$DIMSCALE
 40
1.0
  9
$DIMASZ
 40
3.0
  9
$DIMEXO
 40
1.0
  9
$DIMDLI
 40
15.96
  9
$DIMEXE
 40
1.0
  9
$DIMCEN
 40
3.78
  9
$DIMLFAC
 40
1.0
  9
$DIMBLK
  1
_FILLED
  9
$DIMALT
 70
0
  9
$DIMALTF
 40
0.0393700787
  9
$DIMTXT
 40
3.0
  9
$AUNITS
 70
0
  9
$PDMODE
 70
3
  9
$PDSIZE
 40
5.0
  9
$TILEMODE
 70
1
  0
ENDSEC
  0
SECTION
  2
TABLES
  0
TABLE
  2
LTYPE
 70
6
  0
LTYPE
  2
BYBLOCK
 70
0
  3

 72
65
 73
0
 40
0.0
  0
LTYPE
  2
BYLAYER
 70
0
  3

 72
65
 73
0
 40
0.0
  0
LTYPE
  2
CONTINUOUS
 70
64
  3
Solid line
 72
65
 73
0
 40
0.0
  0
LTYPE
  2
CENTER
 70
64
  3
____ _ ____ _ ____ _ ____ _ ____ _ ____ _ ____
 72
65
 73
4
 40
0.6
 49
0.375
 49
-0.075
 49
0.075
 49
-0.075
  0
LTYPE
  2
HIDDEN
 70
64
  3
- - - - - - - - - - - - - - - - - - - -
 72
65
 73
2
 40
0.2
 49
0.1
 49
-0.1
  0
LTYPE
  2
PHANTOM
 70
64
  3
_____ _ _ _____ _ _ _____ _ _ _____
 72
65
 73
6
 40
0.8
 49
0.45
 49
-0.05
 49
0.1
 49
-0.05
 49
0.1
 49
-0.05
  0
LTYPE
  2
DOT
 70
64
  3
. . . . . . . . . . . . . . . . . . . .
 72
65
 73
2
 40
0.2
 49
0.1
 49
-0.1
  0
LTYPE
  2
DASHED
 70
64
  3
- - - - - - - - - - - - - - - - - - - -
 72
65
 73
2
 40
0.2
 49
0.1
 49
-0.1
  0
ENDTAB
  0
TABLE
  2
LAYER
 70
36
  0
LAYER
  2
0
 70
0
 62
7
  6
CONTINUOUS
  0
LAYER
  2
DEFAULT_1
 70
0
 62
7
  6
CENTER
  0
LAYER
  2
DEFAULT_2
 70
0
 62
8
  6
HIDDEN
  0
LAYER
  2
DEFAULT_3
 70
0
 62
7
  6
PHANTOM
  0
LAYER
  2
0000_BOM
 70
0
 62
7
  6
CONTINUOUS
  0
LAYER
  2
0000_REV_TABLE
 70
0
 62
7
  6
CONTINUOUS
  0
LAYER
  2
0000_STEVENS_NOTE
 70
0
 62
7
  6
CONTINUOUS
  0
LAYER
  2
01_DATUM_PLANES
 70
0
 62
7
  6
CONTINUOUS
  0
LAYER
  2
01_DEF_PLANES
 70
0
 62
7
  6
CONTINUOUS
  0
LAYER
  2
02_DATUM_COS
 70
0
 62
7
  6
CONTINUOUS
  0
LAYER
  2
99_SOLID
 70
0
 62
7
  6
CONTINUOUS
  0
LAYER
  2
CAD-MASTER_ZINC-PL
 70
0
 62
7
  6
CONTINUOUS
  0
LAYER
  2
CURVE
 70
0
 62
7
  6
CONTINUOUS
  0
LAYER
  2
SKEL
 70
0
 62
7
  6
CONTINUOUS
  0
LAYER
  2
SKETCH
 70
0
 62
7
  6
CONTINUOUS
  0
LAYER
  2
SURFACE
 70
0
 62
7
  6
CONTINUOUS
  0
ENDTAB
  0
TABLE
  2
STYLE
 70
1
  0
STYLE
  2
STANDARD
 70
0
 40
0.0
 41
0.75
 50
0.0
 71
0
 42
0.2
  3
txt
  4

  0
STYLE
  2
TEXTSTYLE_1
 70
0
 40
0.0
 41
0.8
 50
0.0
 71
0
 42
0.2
  3
gdt
  4

  0
ENDTAB
  0
ENDSEC
  0
SECTION
  2
BLOCKS
  0
ENDSEC
  0
SECTION
  2
ENTITIES
  0
LINE
  8
0
 62
7
  6
CONTINUOUS
 10
-259.9672956164
 20
209.7124807131
 11
-259.9672956164
 21
93.7124807131
  0
LINE
  8
0
 62
7
  6
CONTINUOUS
 10
-227.9672956164
 20
209.7124807131
 11
-227.9672956164
 21
125.7124807131
  0
POLYLINE
  8
0
 62
7
  6
CONTINUOUS
 66
1
 70
0
  0
VERTEX
  8
0
 62
7
  6
CONTINUOUS
 10
-227.9672956164
 20
125.7124807131
  0
VERTEX
  8
0
 62
7
  6
CONTINUOUS
 10
-227.976064751
 20
125.7036531926
  0
VERTEX
  8
0
 62
7
  6
CONTINUOUS
 10
-229.3005349001
 20
124.3792414294
  0
SEQEND
  0
POLYLINE
  8
0
 62
7
  6
CONTINUOUS
 66
1
 70
0
  0
VERTEX
  8
0
 62
7
  6
CONTINUOUS
 10
-229.3005349001
 20
124.3792414294
  0
VERTEX
  8
0
 62
7
  6
CONTINUOUS
 10
-229.5438154012
 20
124.135936655
  0
VERTEX
  8
0
 62
7
  6
CONTINUOUS
 10
-231.5200148422
 20
122.1597857301
  0
SEQEND
  0
LINE
  8
0
 62
7
  6
CONTINUOUS
 10
-247.1876613651
 20
106.4921149645
 11
-247.9677797888
 21
105.7119341663
  0
LINE
  8
0
 62
7
  6
CONTINUOUS
 10
-239.9668114441
 20
113.7130272599
 11
-240.7469298678
 21
112.9328464617
  0
POLYLINE
  8
0
 62
7
  6
CONTINUOUS
 66
1
 70
0
  0
VERTEX
  8
0
 62
7
  6
CONTINUOUS
 10
-255.062387741
 20
98.6173885885
  0
VERTEX
  8
0
 62
7
  6
CONTINUOUS
 10
-255.5415765837
 20
98.1381701887
  0
VERTEX
  8
0
 62
7
  6
CONTINUOUS
 10
-255.9921950596
 20
97.6875812699
  0
VERTEX
  8
0
 62
7
  6
CONTINUOUS
 10
-256.4145763906
 20
97.2651756961
  0
VERTEX
  8
0
 62
7
  6
CONTINUOUS
 10
-256.8092903135
 20
96.870486016
  0
SEQEND
  0
POLYLINE
  8
0
 62
7
  6
CONTINUOUS
 66
1
 70
0
  0
VERTEX
  8
0
 62
7
  6
CONTINUOUS
 10
-231.5200148422
 20
122.1597857301
  0
VERTEX
  8
0
 62
7
  6
CONTINUOUS
 10
-231.9423961732
 20
121.7373801563
  0
VERTEX
  8
0
 62
7
  6
CONTINUOUS
 10
-232.3930146492
 20
121.2867912374
  0
VERTEX
  8
0
 62
7
  6
CONTINUOUS
 10
-232.8722034919
 20
120.8075728377
  0
SEQEND
  0
POLYLINE
  8
0
 62
7
  6
CONTINUOUS
 66
1
 70
0
  0
VERTEX
  8
0
 62
7
  6
CONTINUOUS
 10
-256.8092903135
 20
96.870486016
  0
VERTEX
  8
0
 62
7
  6
CONTINUOUS
 10
-258.1242075184
 20
95.5555688111
  0
VERTEX
  8
0
 62
7
  6
CONTINUOUS
 10
-258.3907758317
 20
95.2890247711
  0
VERTEX
  8
0
 62
7
  6
CONTINUOUS
 10
-258.6340563327
 20
95.0457199968
  0
SEQEND
  0
LINE
  8
0
 62
7
  6
CONTINUOUS
 10
-232.8722034919
 20
120.8075728377
 11
-239.9668114441
 21
113.7130272599
  0
LINE
  8
0
 62
7
  6
CONTINUOUS
 10
-247.9677797888
 20
105.7119341663
 11
-255.062387741
 21
98.6173885885
  0
LINE
  8
0
 62
7
  6
CONTINUOUS
 10
-240.7469298678
 20
112.9328464617
 11
-247.1876613651
 21
106.4921149645
  0
POLYLINE
  8
0
 62
7
  6
CONTINUOUS
 66
1
 70
0
  0
VERTEX
  8
0
 62
7
  6
CONTINUOUS
 10
-258.6340563327
 20
95.0457199968
  0
VERTEX
  8
0
 62
7
  6
CONTINUOUS
 10
-259.9585264818
 20
93.7213082335
  0
VERTEX
  8
0
 62
7
  6
CONTINUOUS
 10
-259.9672956164
 20
93.7124807131
  0
SEQEND
  0
LINE
  8
0
 62
7
  6
CONTINUOUS
 10
-259.9672956164
 20
93.7124807131
 11
632.0327043836
 21
93.7124807131
  0
LINE
  8
0
 62
7
  6
CONTINUOUS
 10
-227.9672956164
 20
125.7124807131
 11
600.0327043836
 21
125.7124807131
  0
LINE
  8
0
 62
7
  6
CONTINUOUS
 10
-227.9672956164
 20
209.7124807131
 11
-259.9672956164
 21
209.7124807131
  0
LINE
  8
0
 62
7
  6
CONTINUOUS
 10
600.0327043836
 20
209.7124807131
 11
632.0327043836
 21
209.7124807131
  0
POLYLINE
  8
0
 62
7
  6
CONTINUOUS
 66
1
 70
0
  0
VERTEX
  8
0
 62
7
  6
CONTINUOUS
 10
600.0327043836
 20
125.7124807131
  0
VERTEX
  8
0
 62
7
  6
CONTINUOUS
 10
600.041531904
 20
125.7037115785
  0
VERTEX
  8
0
 62
7
  6
CONTINUOUS
 10
601.3659436673
 20
124.3792414294
  0
SEQEND
  0
POLYLINE
  8
0
 62
7
  6
CONTINUOUS
 66
1
 70
0
  0
VERTEX
  8
0
 62
7
  6
CONTINUOUS
 10
601.3659436673
 20
124.3792414294
  0
VERTEX
  8
0
 62
7
  6
CONTINUOUS
 10
601.6092484416
 20
124.1359609283
  0
VERTEX
  8
0
 62
7
  6
CONTINUOUS
 10
603.5853993665
 20
122.1597614873
  0
SEQEND
  0
LINE
  8
0
 62
7
  6
CONTINUOUS
 10
619.2530701322
 20
106.4921149645
 11
620.0332509304
 21
105.7119965408
  0
LINE
  8
0
 62
7
  6
CONTINUOUS
 10
612.0321578368
 20
113.7129648854
 11
612.8123386349
 21
112.9328464617
  0
POLYLINE
  8
0
 62
7
  6
CONTINUOUS
 66
1
 70
0
  0
VERTEX
  8
0
 62
7
  6
CONTINUOUS
 10
627.1277965081
 20
98.6173885885
  0
VERTEX
  8
0
 62
7
  6
CONTINUOUS
 10
627.6070149079
 20
98.1381997458
  0
VERTEX
  8
0
 62
7
  6
CONTINUOUS
 10
628.0576038268
 20
97.6875812699
  0
VERTEX
  8
0
 62
7
  6
CONTINUOUS
 10
628.4800094006
 20
97.2651999389
  0
VERTEX
  8
0
 62
7
  6
CONTINUOUS
 10
628.8746990806
 20
96.870486016
  0
SEQEND
  0
POLYLINE
  8
0
 62
7
  6
CONTINUOUS
 66
1
 70
0
  0
VERTEX
  8
0
 62
7
  6
CONTINUOUS
 10
603.5853993665
 20
122.1597614873
  0
VERTEX
  8
0
 62
7
  6
CONTINUOUS
 10
604.0078049404
 20
121.7373801563
  0
VERTEX
  8
0
 62
7
  6
CONTINUOUS
 10
604.4583938592
 20
121.2867616803
  0
VERTEX
  8
0
 62
7
  6
CONTINUOUS
 10
604.937612259
 20
120.8075728377
  0
SEQEND
  0
POLYLINE
  8
0
 62
7
  6
CONTINUOUS
 66
1
 70
0
  0
VERTEX
  8
0
 62
7
  6
CONTINUOUS
 10
628.8746990806
 20
96.870486016
  0
VERTEX
  8
0
 62
7
  6
CONTINUOUS
 10
630.1896162856
 20
95.5555688111
  0
VERTEX
  8
0
 62
7
  6
CONTINUOUS
 10
630.4561603255
 20
95.2890004979
  0
VERTEX
  8
0
 62
7
  6
CONTINUOUS
 10
630.6994650999
 20
95.0457199968
  0
SEQEND
  0
LINE
  8
0
 62
7
  6
CONTINUOUS
 10
604.937612259
 20
120.8075728377
 11
612.0321578368
 21
113.7129648854
  0
LINE
  8
0
 62
7
  6
CONTINUOUS
 10
620.0332509304
 20
105.7119965408
 11
627.1277965081
 21
98.6173885885
  0
LINE
  8
0
 62
7
  6
CONTINUOUS
 10
612.8123386349
 20
112.9328464617
 11
619.2530701322
 21
106.4921149645
  0
POLYLINE
  8
0
 62
7
  6
CONTINUOUS
 66
1
 70
0
  0
VERTEX
  8
0
 62
7
  6
CONTINUOUS
 10
630.6994650999
 20
95.0457199968
  0
VERTEX
  8
0
 62
7
  6
CONTINUOUS
 10
632.0238768631
 20
93.7212498477
  0
VERTEX
  8
0
 62
7
  6
CONTINUOUS
 10
632.0327043836
 20
93.7124807131
  0
SEQEND
  0
LINE
  8
0
 62
7
  6
CONTINUOUS
 10
600.0327043836
 20
125.7124807131
 11
600.0327043836
 21
209.7124807131
  0
LINE
  8
0
 62
7
  6
CONTINUOUS
 10
632.0327043836
 20
93.7124807131
 11
632.0327043836
 21
209.7124807131
  0
ENDSEC
  0
EOF
