999
DXF file: K:\Client\125_Heirloom\001\00\Final_Data\Drawings\SINGLE BAR TOWEL WARMERS\whs690_3.dxf
999
Pro/ENGINEER 2017110 by Parametric Technology Corporation
  0
SECTION
  2
HEADER
  9
$EXTMAX
 10
420.0
 20
297.0
 30
0.0
  9
$EXTMIN
 10
0.0
 20
0.0
 30
0.0
  9
$LIMMIN
 10
0.0
 20
0.0
  9
$LIMMAX
 10
420.0
 20
297.0
  9
$VIEWCTR
 10
210.0
 20
148.5
  9
$VIEWSIZE
 40
297.0
  9
$CLAYER
  8
0
  9
$LTSCALE
 40
23.1
  9
$CELTYPE
  6
BYLAYER
  9
$DIMSCALE
 40
1.0
  9
$DIMASZ
 40
3.0
  9
$DIMEXO
 40
1.0
  9
$DIMDLI
 40
15.96
  9
$DIMEXE
 40
1.0
  9
$DIMCEN
 40
3.78
  9
$DIMLFAC
 40
1.0
  9
$DIMBLK
  1
_FILLED
  9
$DIMALT
 70
0
  9
$DIMALTF
 40
0.0393700787
  9
$DIMTXT
 40
3.0
  9
$AUNITS
 70
0
  9
$PDMODE
 70
3
  9
$PDSIZE
 40
5.0
  9
$TILEMODE
 70
1
  0
ENDSEC
  0
SECTION
  2
TABLES
  0
TABLE
  2
LTYPE
 70
6
  0
LTYPE
  2
BYBLOCK
 70
0
  3

 72
65
 73
0
 40
0.0
  0
LTYPE
  2
BYLAYER
 70
0
  3

 72
65
 73
0
 40
0.0
  0
LTYPE
  2
CONTINUOUS
 70
64
  3
Solid line
 72
65
 73
0
 40
0.0
  0
LTYPE
  2
CENTER
 70
64
  3
____ _ ____ _ ____ _ ____ _ ____ _ ____ _ ____
 72
65
 73
4
 40
0.6
 49
0.375
 49
-0.075
 49
0.075
 49
-0.075
  0
LTYPE
  2
HIDDEN
 70
64
  3
- - - - - - - - - - - - - - - - - - - -
 72
65
 73
2
 40
0.2
 49
0.1
 49
-0.1
  0
LTYPE
  2
PHANTOM
 70
64
  3
_____ _ _ _____ _ _ _____ _ _ _____
 72
65
 73
6
 40
0.8
 49
0.45
 49
-0.05
 49
0.1
 49
-0.05
 49
0.1
 49
-0.05
  0
LTYPE
  2
DOT
 70
64
  3
. . . . . . . . . . . . . . . . . . . .
 72
65
 73
2
 40
0.2
 49
0.1
 49
-0.1
  0
LTYPE
  2
DASHED
 70
64
  3
- - - - - - - - - - - - - - - - - - - -
 72
65
 73
2
 40
0.2
 49
0.1
 49
-0.1
  0
ENDTAB
  0
TABLE
  2
LAYER
 70
36
  0
LAYER
  2
0
 70
0
 62
7
  6
CONTINUOUS
  0
LAYER
  2
DEFAULT_1
 70
0
 62
7
  6
CENTER
  0
LAYER
  2
DEFAULT_2
 70
0
 62
8
  6
HIDDEN
  0
LAYER
  2
DEFAULT_3
 70
0
 62
7
  6
PHANTOM
  0
LAYER
  2
0000_BOM
 70
0
 62
7
  6
CONTINUOUS
  0
LAYER
  2
0000_REV_TABLE
 70
0
 62
7
  6
CONTINUOUS
  0
LAYER
  2
0000_STEVENS_NOTE
 70
0
 62
7
  6
CONTINUOUS
  0
LAYER
  2
01_DATUM_PLANES
 70
0
 62
7
  6
CONTINUOUS
  0
LAYER
  2
01_DEF_PLANES
 70
0
 62
7
  6
CONTINUOUS
  0
LAYER
  2
02_DATUM_COS
 70
0
 62
7
  6
CONTINUOUS
  0
LAYER
  2
99_SOLID
 70
0
 62
7
  6
CONTINUOUS
  0
LAYER
  2
CAD-MASTER_ZINC-PL
 70
0
 62
7
  6
CONTINUOUS
  0
LAYER
  2
CURVE
 70
0
 62
7
  6
CONTINUOUS
  0
LAYER
  2
SKEL
 70
0
 62
7
  6
CONTINUOUS
  0
LAYER
  2
SKETCH
 70
0
 62
7
  6
CONTINUOUS
  0
LAYER
  2
SURFACE
 70
0
 62
7
  6
CONTINUOUS
  0
ENDTAB
  0
TABLE
  2
STYLE
 70
1
  0
STYLE
  2
STANDARD
 70
0
 40
0.0
 41
0.75
 50
0.0
 71
0
 42
0.2
  3
txt
  4

  0
STYLE
  2
TEXTSTYLE_1
 70
0
 40
0.0
 41
0.8
 50
0.0
 71
0
 42
0.2
  3
gdt
  4

  0
ENDTAB
  0
ENDSEC
  0
SECTION
  2
BLOCKS
  0
ENDSEC
  0
SECTION
  2
ENTITIES
  0
LINE
  8
0
 62
7
  6
CONTINUOUS
 10
-158.9672956164
 20
135.4624807131
 11
-158.9672956164
 21
90.4624807131
  0
LINE
  8
0
 62
7
  6
CONTINUOUS
 10
-126.4672956164
 20
135.4624807131
 11
-126.4672956164
 21
212.9624807131
  0
LINE
  8
0
 62
7
  6
CONTINUOUS
 10
-101.4672956164
 20
135.4624807131
 11
-101.4672956164
 21
212.9624807131
  0
LINE
  8
0
 62
7
  6
CONTINUOUS
 10
-125.8993008922
 20
135.1519545667
 11
-125.5741934746
 21
134.9788400373
  0
LINE
  8
0
 62
7
  6
CONTINUOUS
 10
-126.1496341214
 20
135.28756462
 11
-125.8993008922
 21
135.1519545667
  0
POLYLINE
  8
0
 62
7
  6
CONTINUOUS
 66
1
 70
0
  0
VERTEX
  8
0
 62
7
  6
CONTINUOUS
 10
-126.4322624086
 20
135.4430366922
  0
VERTEX
  8
0
 62
7
  6
CONTINUOUS
 10
-126.3883222906
 20
135.4187025421
  0
VERTEX
  8
0
 62
7
  6
CONTINUOUS
 10
-126.1496341214
 20
135.28756462
  0
SEQEND
  0
LINE
  8
0
 62
7
  6
CONTINUOUS
 10
-126.4672956164
 20
135.4624807131
 11
-126.4322624086
 21
135.4430366922
  0
POLYLINE
  8
0
 62
7
  6
CONTINUOUS
 66
1
 70
0
  0
VERTEX
  8
0
 62
7
  6
CONTINUOUS
 10
-125.5741934746
 20
134.9788400373
  0
VERTEX
  8
0
 62
7
  6
CONTINUOUS
 10
-125.3824880308
 20
134.8783856797
  0
VERTEX
  8
0
 62
7
  6
CONTINUOUS
 10
-125.1711771359
 20
134.7690613965
  0
VERTEX
  8
0
 62
7
  6
CONTINUOUS
 10
-124.9400418891
 20
134.6512241406
  0
VERTEX
  8
0
 62
7
  6
CONTINUOUS
 10
-124.6892261096
 20
134.5254070799
  0
VERTEX
  8
0
 62
7
  6
CONTINUOUS
 10
-124.4187724318
 20
134.3922144169
  0
VERTEX
  8
0
 62
7
  6
CONTINUOUS
 10
-124.1287655096
 20
134.252278044
  0
VERTEX
  8
0
 62
7
  6
CONTINUOUS
 10
-123.8189863289
 20
134.1062002684
  0
VERTEX
  8
0
 62
7
  6
CONTINUOUS
 10
-123.4903885277
 20
133.9550817572
  0
VERTEX
  8
0
 62
7
  6
CONTINUOUS
 10
-123.1434022642
 20
133.8000037484
  0
VERTEX
  8
0
 62
7
  6
CONTINUOUS
 10
-122.7793789631
 20
133.6422489156
  0
VERTEX
  8
0
 62
7
  6
CONTINUOUS
 10
-122.3993419403
 20
133.4832190724
  0
VERTEX
  8
0
 62
7
  6
CONTINUOUS
 10
-122.0047056801
 20
133.3242085507
  0
VERTEX
  8
0
 62
7
  6
CONTINUOUS
 10
-121.5966169633
 20
133.1666413855
  0
VERTEX
  8
0
 62
7
  6
CONTINUOUS
 10
-121.1769022162
 20
133.011880388
  0
VERTEX
  8
0
 62
7
  6
CONTINUOUS
 10
-120.7471122826
 20
132.8614156207
  0
VERTEX
  8
0
 62
7
  6
CONTINUOUS
 10
-120.3092206914
 20
132.7164679981
  0
VERTEX
  8
0
 62
7
  6
CONTINUOUS
 10
-119.865383806
 20
132.5784989814
  0
VERTEX
  8
0
 62
7
  6
CONTINUOUS
 10
-119.4166039667
 20
132.4482437594
  0
VERTEX
  8
0
 62
7
  6
CONTINUOUS
 10
-118.9641638242
 20
132.3266115456
  0
VERTEX
  8
0
 62
7
  6
CONTINUOUS
 10
-118.5093788112
 20
132.2142473787
  0
VERTEX
  8
0
 62
7
  6
CONTINUOUS
 10
-118.0539987553
 20
132.1119160506
  0
VERTEX
  8
0
 62
7
  6
CONTINUOUS
 10
-117.5980031215
 20
132.0198162296
  0
VERTEX
  8
0
 62
7
  6
CONTINUOUS
 10
-117.1417338248
 20
131.9381812822
  0
VERTEX
  8
0
 62
7
  6
CONTINUOUS
 10
-116.6858533427
 20
131.8672567263
  0
VERTEX
  8
0
 62
7
  6
CONTINUOUS
 10
-116.2313611023
 20
131.8072447875
  0
VERTEX
  8
0
 62
7
  6
CONTINUOUS
 10
-115.7775881696
 20
131.7581493399
  0
VERTEX
  8
0
 62
7
  6
CONTINUOUS
 10
-115.3241201667
 20
131.7198972705
  0
VERTEX
  8
0
 62
7
  6
CONTINUOUS
 10
-114.8711928521
 20
131.6925909694
  0
VERTEX
  8
0
 62
7
  6
CONTINUOUS
 10
-114.4190639083
 20
131.6762015801
  0
VERTEX
  8
0
 62
7
  6
CONTINUOUS
 10
-113.967253186
 20
131.670767647
  0
VERTEX
  8
0
 62
7
  6
CONTINUOUS
 10
-113.5154839796
 20
131.6762012499
  0
VERTEX
  8
0
 62
7
  6
CONTINUOUS
 10
-113.0634036399
 20
131.6925907156
  0
VERTEX
  8
0
 62
7
  6
CONTINUOUS
 10
-112.6104644106
 20
131.719898526
  0
VERTEX
  8
0
 62
7
  6
CONTINUOUS
 10
-112.1569749074
 20
131.7581520517
  0
VERTEX
  8
0
 62
7
  6
CONTINUOUS
 10
-111.7032064216
 20
131.8072473746
  0
VERTEX
  8
0
 62
7
  6
CONTINUOUS
 10
-111.24872317
 20
131.8672588431
  0
VERTEX
  8
0
 62
7
  6
CONTINUOUS
 10
-110.792846424
 20
131.9381830421
  0
VERTEX
  8
0
 62
7
  6
CONTINUOUS
 10
-110.3365763104
 20
132.0198184778
  0
VERTEX
  8
0
 62
7
  6
CONTINUOUS
 10
-109.8805681272
 20
132.1119215798
  0
VERTEX
  8
0
 62
7
  6
CONTINUOUS
 10
-109.4251776319
 20
132.2142555867
  0
VERTEX
  8
0
 62
7
  6
CONTINUOUS
 10
-108.9704038184
 20
132.3266171008
  0
VERTEX
  8
0
 62
7
  6
CONTINUOUS
 10
-108.5179722754
 20
132.4482479516
  0
VERTEX
  8
0
 62
7
  6
CONTINUOUS
 10
-108.0691690369
 20
132.5785113051
  0
VERTEX
  8
0
 62
7
  6
CONTINUOUS
 10
-107.625311761
 20
132.7164868694
  0
VERTEX
  8
0
 62
7
  6
CONTINUOUS
 10
-107.1874434599
 20
132.8614266513
  0
VERTEX
  8
0
 62
7
  6
CONTINUOUS
 10
-106.7576741055
 20
133.0118857499
  0
VERTEX
  8
0
 62
7
  6
CONTINUOUS
 10
-106.3379249927
 20
133.1666613752
  0
VERTEX
  8
0
 62
7
  6
CONTINUOUS
 10
-105.9298051649
 20
133.3242402824
  0
VERTEX
  8
0
 62
7
  6
CONTINUOUS
 10
-105.5351998458
 20
133.4832382089
  0
VERTEX
  8
0
 62
7
  6
CONTINUOUS
 10
-105.1552017884
 20
133.6422533819
  0
VERTEX
  8
0
 62
7
  6
CONTINUOUS
 10
-104.7911820329
 20
133.8000072345
  0
VERTEX
  8
0
 62
7
  6
CONTINUOUS
 10
-104.4441909415
 20
133.9550870936
  0
VERTEX
  8
0
 62
7
  6
CONTINUOUS
 10
-104.1155953969
 20
134.1062045366
  0
VERTEX
  8
0
 62
7
  6
CONTINUOUS
 10
-103.8058168782
 20
134.2522822656
  0
VERTEX
  8
0
 62
7
  6
CONTINUOUS
 10
-103.5158046572
 20
134.3922213144
  0
VERTEX
  8
0
 62
7
  6
CONTINUOUS
 10
-103.2453422379
 20
134.5254184594
  0
VERTEX
  8
0
 62
7
  6
CONTINUOUS
 10
-102.9945155845
 20
134.6512411242
  0
VERTEX
  8
0
 62
7
  6
CONTINUOUS
 10
-102.7633665882
 20
134.7690858058
  0
VERTEX
  8
0
 62
7
  6
CONTINUOUS
 10
-102.5520347918
 20
134.8784219896
  0
VERTEX
  8
0
 62
7
  6
CONTINUOUS
 10
-102.3603132044
 20
134.9788846137
  0
VERTEX
  8
0
 62
7
  6
CONTINUOUS
 10
-102.1882191369
 20
135.0700787875
  0
VERTEX
  8
0
 62
7
  6
CONTINUOUS
 10
-101.9008122132
 20
135.2245570761
  0
SEQEND
  0
LINE
  8
0
 62
7
  6
CONTINUOUS
 10
-101.6873846073
 20
135.3409415094
 11
-101.4672956164
 21
135.4624807131
  0
LINE
  8
0
 62
7
  6
CONTINUOUS
 10
-101.9008122132
 20
135.2245570761
 11
-101.6873846073
 21
135.3409415094
  0
LINE
  8
0
 62
7
  6
CONTINUOUS
 10
-158.9672956164
 20
90.4624807131
 11
531.0327043836
 21
90.4624807131
  0
LINE
  8
0
 62
7
  6
CONTINUOUS
 10
-158.9672956164
 20
135.4624807131
 11
-126.4672956164
 21
135.4624807131
  0
LINE
  8
0
 62
7
  6
CONTINUOUS
 10
-101.4672956164
 20
135.4624807131
 11
473.5327043836
 21
135.4624807131
  0
LINE
  8
0
 62
7
  6
CONTINUOUS
 10
498.5327043836
 20
135.4624807131
 11
531.0327043836
 21
135.4624807131
  0
LINE
  8
0
 62
7
  6
CONTINUOUS
 10
-126.4672956164
 20
212.9624807131
 11
-101.4672956164
 21
212.9624807131
  0
LINE
  8
0
 62
7
  6
CONTINUOUS
 10
473.5327043836
 20
212.9624807131
 11
498.5327043836
 21
212.9624807131
  0
POLYLINE
  8
0
 62
7
  6
CONTINUOUS
 66
1
 70
0
  0
VERTEX
  8
0
 62
7
  6
CONTINUOUS
 10
474.4258065254
 20
134.9788400373
  0
VERTEX
  8
0
 62
7
  6
CONTINUOUS
 10
474.6175119692
 20
134.8783856797
  0
VERTEX
  8
0
 62
7
  6
CONTINUOUS
 10
474.8288228641
 20
134.7690613965
  0
VERTEX
  8
0
 62
7
  6
CONTINUOUS
 10
475.0599581109
 20
134.6512241406
  0
VERTEX
  8
0
 62
7
  6
CONTINUOUS
 10
475.3107738904
 20
134.5254070799
  0
VERTEX
  8
0
 62
7
  6
CONTINUOUS
 10
475.5812275682
 20
134.3922144169
  0
VERTEX
  8
0
 62
7
  6
CONTINUOUS
 10
475.8712344904
 20
134.252278044
  0
VERTEX
  8
0
 62
7
  6
CONTINUOUS
 10
476.1810136711
 20
134.1062002684
  0
VERTEX
  8
0
 62
7
  6
CONTINUOUS
 10
476.5096114723
 20
133.9550817572
  0
VERTEX
  8
0
 62
7
  6
CONTINUOUS
 10
476.8565977358
 20
133.8000037484
  0
VERTEX
  8
0
 62
7
  6
CONTINUOUS
 10
477.2206210369
 20
133.6422489156
  0
VERTEX
  8
0
 62
7
  6
CONTINUOUS
 10
477.6006580597
 20
133.4832190724
  0
VERTEX
  8
0
 62
7
  6
CONTINUOUS
 10
477.9952943199
 20
133.3242085507
  0
VERTEX
  8
0
 62
7
  6
CONTINUOUS
 10
478.4033830367
 20
133.1666413855
  0
VERTEX
  8
0
 62
7
  6
CONTINUOUS
 10
478.8230977838
 20
133.011880388
  0
VERTEX
  8
0
 62
7
  6
CONTINUOUS
 10
479.2528877174
 20
132.8614156207
  0
VERTEX
  8
0
 62
7
  6
CONTINUOUS
 10
479.6907793086
 20
132.7164679981
  0
VERTEX
  8
0
 62
7
  6
CONTINUOUS
 10
480.134616194
 20
132.5784989814
  0
VERTEX
  8
0
 62
7
  6
CONTINUOUS
 10
480.5833960333
 20
132.4482437594
  0
VERTEX
  8
0
 62
7
  6
CONTINUOUS
 10
481.0358361758
 20
132.3266115456
  0
VERTEX
  8
0
 62
7
  6
CONTINUOUS
 10
481.4906211888
 20
132.2142473787
  0
VERTEX
  8
0
 62
7
  6
CONTINUOUS
 10
481.9460012447
 20
132.1119160506
  0
VERTEX
  8
0
 62
7
  6
CONTINUOUS
 10
482.4019968785
 20
132.0198162296
  0
VERTEX
  8
0
 62
7
  6
CONTINUOUS
 10
482.8582661752
 20
131.9381812822
  0
VERTEX
  8
0
 62
7
  6
CONTINUOUS
 10
483.3141466573
 20
131.8672567263
  0
VERTEX
  8
0
 62
7
  6
CONTINUOUS
 10
483.7686388977
 20
131.8072447875
  0
VERTEX
  8
0
 62
7
  6
CONTINUOUS
 10
484.2224118304
 20
131.7581493399
  0
VERTEX
  8
0
 62
7
  6
CONTINUOUS
 10
484.6758798333
 20
131.7198972705
  0
VERTEX
  8
0
 62
7
  6
CONTINUOUS
 10
485.1288071479
 20
131.6925909694
  0
VERTEX
  8
0
 62
7
  6
CONTINUOUS
 10
485.5809360917
 20
131.6762015801
  0
VERTEX
  8
0
 62
7
  6
CONTINUOUS
 10
486.032746814
 20
131.670767647
  0
VERTEX
  8
0
 62
7
  6
CONTINUOUS
 10
486.4845160204
 20
131.6762012499
  0
VERTEX
  8
0
 62
7
  6
CONTINUOUS
 10
486.9365963601
 20
131.6925907156
  0
VERTEX
  8
0
 62
7
  6
CONTINUOUS
 10
487.3895355894
 20
131.719898526
  0
VERTEX
  8
0
 62
7
  6
CONTINUOUS
 10
487.8430250926
 20
131.7581520517
  0
VERTEX
  8
0
 62
7
  6
CONTINUOUS
 10
488.2967935784
 20
131.8072473746
  0
VERTEX
  8
0
 62
7
  6
CONTINUOUS
 10
488.75127683
 20
131.8672588431
  0
VERTEX
  8
0
 62
7
  6
CONTINUOUS
 10
489.207153576
 20
131.9381830421
  0
VERTEX
  8
0
 62
7
  6
CONTINUOUS
 10
489.6634236896
 20
132.0198184778
  0
VERTEX
  8
0
 62
7
  6
CONTINUOUS
 10
490.1194318728
 20
132.1119215798
  0
VERTEX
  8
0
 62
7
  6
CONTINUOUS
 10
490.5748223681
 20
132.2142555867
  0
VERTEX
  8
0
 62
7
  6
CONTINUOUS
 10
491.0295961816
 20
132.3266171008
  0
VERTEX
  8
0
 62
7
  6
CONTINUOUS
 10
491.4820277246
 20
132.4482479516
  0
VERTEX
  8
0
 62
7
  6
CONTINUOUS
 10
491.9308309631
 20
132.5785113051
  0
VERTEX
  8
0
 62
7
  6
CONTINUOUS
 10
492.374688239
 20
132.7164868694
  0
VERTEX
  8
0
 62
7
  6
CONTINUOUS
 10
492.8125565401
 20
132.8614266513
  0
VERTEX
  8
0
 62
7
  6
CONTINUOUS
 10
493.2423258945
 20
133.0118857499
  0
VERTEX
  8
0
 62
7
  6
CONTINUOUS
 10
493.6620750073
 20
133.1666613752
  0
VERTEX
  8
0
 62
7
  6
CONTINUOUS
 10
494.0701948351
 20
133.3242402824
  0
VERTEX
  8
0
 62
7
  6
CONTINUOUS
 10
494.4648001542
 20
133.4832382089
  0
VERTEX
  8
0
 62
7
  6
CONTINUOUS
 10
494.8447982116
 20
133.6422533819
  0
VERTEX
  8
0
 62
7
  6
CONTINUOUS
 10
495.2088179671
 20
133.8000072345
  0
VERTEX
  8
0
 62
7
  6
CONTINUOUS
 10
495.5558090585
 20
133.9550870936
  0
VERTEX
  8
0
 62
7
  6
CONTINUOUS
 10
495.8844046031
 20
134.1062045366
  0
VERTEX
  8
0
 62
7
  6
CONTINUOUS
 10
496.1941831218
 20
134.2522822656
  0
VERTEX
  8
0
 62
7
  6
CONTINUOUS
 10
496.4841953428
 20
134.3922213144
  0
VERTEX
  8
0
 62
7
  6
CONTINUOUS
 10
496.7546577621
 20
134.5254184594
  0
VERTEX
  8
0
 62
7
  6
CONTINUOUS
 10
497.0054844155
 20
134.6512411242
  0
VERTEX
  8
0
 62
7
  6
CONTINUOUS
 10
497.2366334118
 20
134.7690858058
  0
VERTEX
  8
0
 62
7
  6
CONTINUOUS
 10
497.4479652082
 20
134.8784219896
  0
VERTEX
  8
0
 62
7
  6
CONTINUOUS
 10
497.6396867956
 20
134.9788846137
  0
VERTEX
  8
0
 62
7
  6
CONTINUOUS
 10
497.8117808631
 20
135.0700787875
  0
VERTEX
  8
0
 62
7
  6
CONTINUOUS
 10
498.0991877868
 20
135.2245570761
  0
SEQEND
  0
LINE
  8
0
 62
7
  6
CONTINUOUS
 10
474.1006991078
 20
135.1519545667
 11
474.4258065254
 21
134.9788400373
  0
LINE
  8
0
 62
7
  6
CONTINUOUS
 10
473.8503658786
 20
135.28756462
 11
474.1006991078
 21
135.1519545667
  0
LINE
  8
0
 62
7
  6
CONTINUOUS
 10
473.6116777094
 20
135.4187025421
 11
473.8503658786
 21
135.28756462
  0
LINE
  8
0
 62
7
  6
CONTINUOUS
 10
473.5327043836
 20
135.4624807131
 11
473.6116777094
 21
135.4187025421
  0
LINE
  8
0
 62
7
  6
CONTINUOUS
 10
498.3126153927
 20
135.3409415094
 11
498.5327043836
 21
135.4624807131
  0
LINE
  8
0
 62
7
  6
CONTINUOUS
 10
498.0991877868
 20
135.2245570761
 11
498.3126153927
 21
135.3409415094
  0
LINE
  8
0
 62
7
  6
CONTINUOUS
 10
473.5327043836
 20
135.4624807131
 11
473.5327043836
 21
212.9624807131
  0
LINE
  8
0
 62
7
  6
CONTINUOUS
 10
498.5327043836
 20
135.4624807131
 11
498.5327043836
 21
212.9624807131
  0
LINE
  8
0
 62
7
  6
CONTINUOUS
 10
531.0327043836
 20
135.4624807131
 11
531.0327043836
 21
90.4624807131
  0
ENDSEC
  0
EOF
