999
DXF file: K:\Client\125_Heirloom\001\00\Final_Data\Drawings\BASINS\stwbcs_3.dxf
999
Pro/ENGINEER 2017110 by Parametric Technology Corporation
  0
SECTION
  2
HEADER
  9
$EXTMAX
 10
420.0
 20
297.0
 30
0.0
  9
$EXTMIN
 10
0.0
 20
0.0
 30
0.0
  9
$LIMMIN
 10
0.0
 20
0.0
  9
$LIMMAX
 10
420.0
 20
297.0
  9
$VIEWCTR
 10
210.0
 20
148.5
  9
$VIEWSIZE
 40
297.0
  9
$CLAYER
  8
0
  9
$LTSCALE
 40
23.1
  9
$CELTYPE
  6
BYLAYER
  9
$DIMSCALE
 40
1.0
  9
$DIMASZ
 40
3.0
  9
$DIMEXO
 40
1.0
  9
$DIMDLI
 40
15.96
  9
$DIMEXE
 40
1.0
  9
$DIMCEN
 40
3.78
  9
$DIMLFAC
 40
1.0
  9
$DIMBLK
  1
_FILLED
  9
$DIMALT
 70
0
  9
$DIMALTF
 40
0.0393700787
  9
$DIMTXT
 40
3.0
  9
$AUNITS
 70
0
  9
$PDMODE
 70
3
  9
$PDSIZE
 40
5.0
  9
$TILEMODE
 70
1
  0
ENDSEC
  0
SECTION
  2
TABLES
  0
TABLE
  2
LTYPE
 70
6
  0
LTYPE
  2
BYBLOCK
 70
0
  3

 72
65
 73
0
 40
0.0
  0
LTYPE
  2
BYLAYER
 70
0
  3

 72
65
 73
0
 40
0.0
  0
LTYPE
  2
CONTINUOUS
 70
64
  3
Solid line
 72
65
 73
0
 40
0.0
  0
LTYPE
  2
CENTER
 70
64
  3
____ _ ____ _ ____ _ ____ _ ____ _ ____ _ ____
 72
65
 73
4
 40
0.6
 49
0.375
 49
-0.075
 49
0.075
 49
-0.075
  0
LTYPE
  2
HIDDEN
 70
64
  3
- - - - - - - - - - - - - - - - - - - -
 72
65
 73
2
 40
0.2
 49
0.1
 49
-0.1
  0
LTYPE
  2
PHANTOM
 70
64
  3
_____ _ _ _____ _ _ _____ _ _ _____
 72
65
 73
6
 40
0.8
 49
0.45
 49
-0.05
 49
0.1
 49
-0.05
 49
0.1
 49
-0.05
  0
LTYPE
  2
DOT
 70
64
  3
. . . . . . . . . . . . . . . . . . . .
 72
65
 73
2
 40
0.2
 49
0.1
 49
-0.1
  0
LTYPE
  2
DASHED
 70
64
  3
- - - - - - - - - - - - - - - - - - - -
 72
65
 73
2
 40
0.2
 49
0.1
 49
-0.1
  0
ENDTAB
  0
TABLE
  2
LAYER
 70
36
  0
LAYER
  2
0
 70
0
 62
7
  6
CONTINUOUS
  0
LAYER
  2
DEFAULT_1
 70
0
 62
7
  6
CENTER
  0
LAYER
  2
DEFAULT_2
 70
0
 62
8
  6
HIDDEN
  0
LAYER
  2
DEFAULT_3
 70
0
 62
7
  6
PHANTOM
  0
LAYER
  2
0000_BOM
 70
0
 62
7
  6
CONTINUOUS
  0
LAYER
  2
0000_REV_TABLE
 70
0
 62
7
  6
CONTINUOUS
  0
LAYER
  2
0000_STEVENS_NOTE
 70
0
 62
7
  6
CONTINUOUS
  0
LAYER
  2
01_DATUM_PLANES
 70
0
 62
7
  6
CONTINUOUS
  0
LAYER
  2
01_DEF_PLANES
 70
0
 62
7
  6
CONTINUOUS
  0
LAYER
  2
02_DATUM_COS
 70
0
 62
7
  6
CONTINUOUS
  0
LAYER
  2
99_SOLID
 70
0
 62
7
  6
CONTINUOUS
  0
LAYER
  2
CAD-MASTER_ZINC-PL
 70
0
 62
7
  6
CONTINUOUS
  0
LAYER
  2
CURVE
 70
0
 62
7
  6
CONTINUOUS
  0
LAYER
  2
SKEL
 70
0
 62
7
  6
CONTINUOUS
  0
LAYER
  2
SKETCH
 70
0
 62
7
  6
CONTINUOUS
  0
LAYER
  2
SURFACE
 70
0
 62
7
  6
CONTINUOUS
  0
ENDTAB
  0
TABLE
  2
STYLE
 70
1
  0
STYLE
  2
STANDARD
 70
0
 40
0.0
 41
0.75
 50
0.0
 71
0
 42
0.2
  3
txt
  4

  0
STYLE
  2
TEXTSTYLE_1
 70
0
 40
0.0
 41
0.8
 50
0.0
 71
0
 42
0.2
  3
gdt
  4

  0
ENDTAB
  0
ENDSEC
  0
SECTION
  2
BLOCKS
  0
ENDSEC
  0
SECTION
  2
ENTITIES
  0
LINE
  8
0
 62
7
  6
CONTINUOUS
 10
21.0327043836
 20
291.7124807131
 11
21.0327043836
 21
11.7124807131
  0
LINE
  8
0
 62
7
  6
CONTINUOUS
 10
26.0327043836
 20
6.7124807131
 11
26.0327043836
 21
296.7124807131
  0
POLYLINE
  8
0
 62
7
  6
CONTINUOUS
 66
1
 70
0
  0
VERTEX
  8
0
 62
7
  6
CONTINUOUS
 10
41.7957189073
 20
37.4374422177
  0
VERTEX
  8
0
 62
7
  6
CONTINUOUS
 10
41.8062818965
 20
37.048213288
  0
VERTEX
  8
0
 62
7
  6
CONTINUOUS
 10
41.8320414718
 20
36.659578741
  0
VERTEX
  8
0
 62
7
  6
CONTINUOUS
 10
41.8729582966
 20
36.2721320523
  0
VERTEX
  8
0
 62
7
  6
CONTINUOUS
 10
41.9289698873
 20
35.8864648891
  0
VERTEX
  8
0
 62
7
  6
CONTINUOUS
 10
41.9999907089
 20
35.5031662001
  0
VERTEX
  8
0
 62
7
  6
CONTINUOUS
 10
42.0859123059
 20
35.1228213149
  0
VERTEX
  8
0
 62
7
  6
CONTINUOUS
 10
42.1866034683
 20
34.7460110528
  0
VERTEX
  8
0
 62
7
  6
CONTINUOUS
 10
42.3019104309
 20
34.3733108359
  0
VERTEX
  8
0
 62
7
  6
CONTINUOUS
 10
42.431657109
 20
34.0052898097
  0
VERTEX
  8
0
 62
7
  6
CONTINUOUS
 10
42.5756453666
 20
33.6425099744
  0
VERTEX
  8
0
 62
7
  6
CONTINUOUS
 10
42.7336553197
 20
33.2855253261
  0
VERTEX
  8
0
 62
7
  6
CONTINUOUS
 10
42.9054456713
 20
32.9348810114
  0
VERTEX
  8
0
 62
7
  6
CONTINUOUS
 10
43.0907540804
 20
32.5911124943
  0
VERTEX
  8
0
 62
7
  6
CONTINUOUS
 10
43.2892975623
 20
32.2547447392
  0
VERTEX
  8
0
 62
7
  6
CONTINUOUS
 10
43.5007729208
 20
31.9262914083
  0
VERTEX
  8
0
 62
7
  6
CONTINUOUS
 10
43.7248572111
 20
31.6062540779
  0
VERTEX
  8
0
 62
7
  6
CONTINUOUS
 10
43.9612082334
 20
31.2951214719
  0
VERTEX
  8
0
 62
7
  6
CONTINUOUS
 10
44.209465055
 20
30.9933687156
  0
VERTEX
  8
0
 62
7
  6
CONTINUOUS
 10
44.4692485615
 20
30.7014566101
  0
VERTEX
  8
0
 62
7
  6
CONTINUOUS
 10
44.7401620368
 20
30.4198309279
  0
VERTEX
  8
0
 62
7
  6
CONTINUOUS
 10
45.0217917677
 20
30.148921733
  0
VERTEX
  8
0
 62
7
  6
CONTINUOUS
 10
45.3137076777
 20
29.8891427229
  0
VERTEX
  8
0
 62
7
  6
CONTINUOUS
 10
45.6154639803
 20
29.6408905994
  0
VERTEX
  8
0
 62
7
  6
CONTINUOUS
 10
45.9265998688
 20
29.4045444558
  0
VERTEX
  8
0
 62
7
  6
CONTINUOUS
 10
46.2466402123
 20
29.1804652055
  0
VERTEX
  8
0
 62
7
  6
CONTINUOUS
 10
46.5750962823
 20
28.9689950295
  0
VERTEX
  8
0
 62
7
  6
CONTINUOUS
 10
46.9114664856
 20
28.7704568614
  0
VERTEX
  8
0
 62
7
  6
CONTINUOUS
 10
47.2552371988
 20
28.5851538558
  0
VERTEX
  8
0
 62
7
  6
CONTINUOUS
 10
47.6058835215
 20
28.4133689532
  0
VERTEX
  8
0
 62
7
  6
CONTINUOUS
 10
47.962869917
 20
28.2553645203
  0
VERTEX
  8
0
 62
7
  6
CONTINUOUS
 10
48.3256511283
 20
28.111381881
  0
VERTEX
  8
0
 62
7
  6
CONTINUOUS
 10
48.6936733238
 20
27.9816408364
  0
VERTEX
  8
0
 62
7
  6
CONTINUOUS
 10
49.0663750704
 20
27.8663393529
  0
VERTEX
  8
0
 62
7
  6
CONTINUOUS
 10
49.4431859384
 20
27.7656538965
  0
VERTEX
  8
0
 62
7
  6
CONTINUOUS
 10
49.8235288363
 20
27.6797384795
  0
VERTEX
  8
0
 62
7
  6
CONTINUOUS
 10
50.2068244903
 20
27.6087237622
  0
VERTEX
  8
0
 62
7
  6
CONTINUOUS
 10
50.5924963755
 20
27.552716993
  0
VERTEX
  8
0
 62
7
  6
CONTINUOUS
 10
50.9799322848
 20
27.5118066442
  0
VERTEX
  8
0
 62
7
  6
CONTINUOUS
 10
51.3685173993
 20
27.4860544701
  0
VERTEX
  8
0
 62
7
  6
CONTINUOUS
 10
51.7576658882
 20
27.4754952368
  0
SEQEND
  0
LINE
  8
0
 62
7
  6
CONTINUOUS
 10
31.4510485135
 20
32.0737453144
 11
31.4510485135
 21
201.3512161118
  0
LINE
  8
0
 62
7
  6
CONTINUOUS
 10
36.4320220039
 20
32.0737453144
 11
36.4320220039
 21
201.3512161118
  0
POLYLINE
  8
0
 62
7
  6
CONTINUOUS
 66
1
 70
0
  0
VERTEX
  8
0
 62
7
  6
CONTINUOUS
 10
36.4320220039
 20
201.3512161118
  0
VERTEX
  8
0
 62
7
  6
CONTINUOUS
 10
36.4369831113
 20
201.7074437331
  0
VERTEX
  8
0
 62
7
  6
CONTINUOUS
 10
36.4545953405
 20
202.0637871382
  0
VERTEX
  8
0
 62
7
  6
CONTINUOUS
 10
36.4849124292
 20
202.4198847091
  0
VERTEX
  8
0
 62
7
  6
CONTINUOUS
 10
36.5279485046
 20
202.7750302274
  0
VERTEX
  8
0
 62
7
  6
CONTINUOUS
 10
36.5836793605
 20
203.1286052966
  0
VERTEX
  8
0
 62
7
  6
CONTINUOUS
 10
36.652037782
 20
203.4799853678
  0
VERTEX
  8
0
 62
7
  6
CONTINUOUS
 10
36.73291631
 20
203.8285461502
  0
VERTEX
  8
0
 62
7
  6
CONTINUOUS
 10
36.8261730121
 20
204.1737017508
  0
VERTEX
  8
0
 62
7
  6
CONTINUOUS
 10
36.9316043011
 20
204.5147934186
  0
VERTEX
  8
0
 62
7
  6
CONTINUOUS
 10
37.0490677333
 20
204.8514770196
  0
VERTEX
  8
0
 62
7
  6
CONTINUOUS
 10
37.1783684445
 20
205.1832906668
  0
VERTEX
  8
0
 62
7
  6
CONTINUOUS
 10
37.3193749173
 20
205.5099702686
  0
VERTEX
  8
0
 62
7
  6
CONTINUOUS
 10
37.4719521403
 20
205.831230407
  0
VERTEX
  8
0
 62
7
  6
CONTINUOUS
 10
37.6359122983
 20
206.1466828406
  0
VERTEX
  8
0
 62
7
  6
CONTINUOUS
 10
37.8110898385
 20
206.4560026779
  0
VERTEX
  8
0
 62
7
  6
CONTINUOUS
 10
37.997233381
 20
206.7587401574
  0
VERTEX
  8
0
 62
7
  6
CONTINUOUS
 10
38.1940883972
 20
207.0544840775
  0
VERTEX
  8
0
 62
7
  6
CONTINUOUS
 10
38.4013959617
 20
207.3428548984
  0
VERTEX
  8
0
 62
7
  6
CONTINUOUS
 10
38.6188699939
 20
207.6234657783
  0
VERTEX
  8
0
 62
7
  6
CONTINUOUS
 10
38.8462487465
 20
207.8959916387
  0
VERTEX
  8
0
 62
7
  6
CONTINUOUS
 10
39.0832498289
 20
208.1601011007
  0
VERTEX
  8
0
 62
7
  6
CONTINUOUS
 10
39.3295862622
 20
208.415479871
  0
VERTEX
  8
0
 62
7
  6
CONTINUOUS
 10
39.584960508
 20
208.6618203711
  0
VERTEX
  8
0
 62
7
  6
CONTINUOUS
 10
39.8490650055
 20
208.8988251907
  0
VERTEX
  8
0
 62
7
  6
CONTINUOUS
 10
40.121585292
 20
209.1262073121
  0
VERTEX
  8
0
 62
7
  6
CONTINUOUS
 10
40.402190475
 20
209.3436848196
  0
VERTEX
  8
0
 62
7
  6
CONTINUOUS
 10
40.6905554767
 20
209.5509959947
  0
VERTEX
  8
0
 62
7
  6
CONTINUOUS
 10
40.9862949974
 20
209.747855758
  0
VERTEX
  8
0
 62
7
  6
CONTINUOUS
 10
41.2890316161
 20
209.9340062309
  0
VERTEX
  8
0
 62
7
  6
CONTINUOUS
 10
41.5983530021
 20
210.1091917797
  0
VERTEX
  8
0
 62
7
  6
CONTINUOUS
 10
41.9138105251
 20
210.2731612796
  0
VERTEX
  8
0
 62
7
  6
CONTINUOUS
 10
42.2350742902
 20
210.4257464995
  0
VERTEX
  8
0
 62
7
  6
CONTINUOUS
 10
42.5617507373
 20
210.566757664
  0
VERTEX
  8
0
 62
7
  6
CONTINUOUS
 10
42.8935551153
 20
210.6960608959
  0
VERTEX
  8
0
 62
7
  6
CONTINUOUS
 10
43.2302191391
 20
210.8135240563
  0
VERTEX
  8
0
 62
7
  6
CONTINUOUS
 10
43.5712902681
 20
210.9189561772
  0
VERTEX
  8
0
 62
7
  6
CONTINUOUS
 10
43.9164326722
 20
211.0122170064
  0
VERTEX
  8
0
 62
7
  6
CONTINUOUS
 10
44.2649883043
 20
211.093102234
  0
VERTEX
  8
0
 62
7
  6
CONTINUOUS
 10
44.6163750078
 20
211.1614696875
  0
VERTEX
  8
0
 62
7
  6
CONTINUOUS
 10
44.9699678521
 20
211.2172105313
  0
VERTEX
  8
0
 62
7
  6
CONTINUOUS
 10
45.325142741
 20
211.2602564115
  0
VERTEX
  8
0
 62
7
  6
CONTINUOUS
 10
45.6812812791
 20
211.2905819111
  0
VERTEX
  8
0
 62
7
  6
CONTINUOUS
 10
46.0376772884
 20
211.3081999513
  0
VERTEX
  8
0
 62
7
  6
CONTINUOUS
 10
46.3939689849
 20
211.3131630927
  0
SEQEND
  0
POLYLINE
  8
0
 62
7
  6
CONTINUOUS
 66
1
 70
0
  0
VERTEX
  8
0
 62
7
  6
CONTINUOUS
 10
31.4510485135
 20
201.3512161118
  0
VERTEX
  8
0
 62
7
  6
CONTINUOUS
 10
31.4604300057
 20
201.883920767
  0
VERTEX
  8
0
 62
7
  6
CONTINUOUS
 10
31.4887807682
 20
202.4162005312
  0
VERTEX
  8
0
 62
7
  6
CONTINUOUS
 10
31.5361065955
 20
202.9485186727
  0
VERTEX
  8
0
 62
7
  6
CONTINUOUS
 10
31.6023901039
 20
203.4794853866
  0
VERTEX
  8
0
 62
7
  6
CONTINUOUS
 10
31.6876801257
 20
204.0081735165
  0
VERTEX
  8
0
 62
7
  6
CONTINUOUS
 10
31.7917838089
 20
204.5336583856
  0
VERTEX
  8
0
 62
7
  6
CONTINUOUS
 10
31.9146243037
 20
205.0549916955
  0
VERTEX
  8
0
 62
7
  6
CONTINUOUS
 10
32.0559024359
 20
205.5713171541
  0
VERTEX
  8
0
 62
7
  6
CONTINUOUS
 10
32.2153798015
 20
206.0816283312
  0
VERTEX
  8
0
 62
7
  6
CONTINUOUS
 10
32.3927972401
 20
206.5854273419
  0
VERTEX
  8
0
 62
7
  6
CONTINUOUS
 10
32.587885093
 20
207.0820104419
  0
VERTEX
  8
0
 62
7
  6
CONTINUOUS
 10
32.8004364507
 20
207.5709887792
  0
VERTEX
  8
0
 62
7
  6
CONTINUOUS
 10
33.030253528
 20
208.0519299824
  0
VERTEX
  8
0
 62
7
  6
CONTINUOUS
 10
33.2770392934
 20
208.5242608664
  0
VERTEX
  8
0
 62
7
  6
CONTINUOUS
 10
33.5405679702
 20
208.9874821735
  0
VERTEX
  8
0
 62
7
  6
CONTINUOUS
 10
33.8204280082
 20
209.4409397509
  0
VERTEX
  8
0
 62
7
  6
CONTINUOUS
 10
34.1162737415
 20
209.883994716
  0
VERTEX
  8
0
 62
7
  6
CONTINUOUS
 10
34.4276817416
 20
210.3161020003
  0
VERTEX
  8
0
 62
7
  6
CONTINUOUS
 10
34.7542529529
 20
210.7366590179
  0
VERTEX
  8
0
 62
7
  6
CONTINUOUS
 10
35.0955685906
 20
211.1451994388
  0
VERTEX
  8
0
 62
7
  6
CONTINUOUS
 10
35.4512276327
 20
211.5412064699
  0
VERTEX
  8
0
 62
7
  6
CONTINUOUS
 10
35.8207777361
 20
211.9242289154
  0
VERTEX
  8
0
 62
7
  6
CONTINUOUS
 10
36.203793438
 20
212.2937850716
  0
VERTEX
  8
0
 62
7
  6
CONTINUOUS
 10
36.5997930761
 20
212.6494496699
  0
VERTEX
  8
0
 62
7
  6
CONTINUOUS
 10
37.0083251628
 20
212.9907703385
  0
VERTEX
  8
0
 62
7
  6
CONTINUOUS
 10
37.4288737102
 20
213.3173466834
  0
VERTEX
  8
0
 62
7
  6
CONTINUOUS
 10
37.8609722629
 20
213.6287601393
  0
VERTEX
  8
0
 62
7
  6
CONTINUOUS
 10
38.3040207359
 20
213.9246128489
  0
VERTEX
  8
0
 62
7
  6
CONTINUOUS
 10
38.7574770976
 20
214.2044832057
  0
VERTEX
  8
0
 62
7
  6
CONTINUOUS
 10
39.2207007323
 20
214.4680238922
  0
VERTEX
  8
0
 62
7
  6
CONTINUOUS
 10
39.6930394049
 20
214.7148233639
  0
VERTEX
  8
0
 62
7
  6
CONTINUOUS
 10
40.173985942
 20
214.944652695
  0
VERTEX
  8
0
 62
7
  6
CONTINUOUS
 10
40.6629595832
 20
215.1572109911
  0
VERTEX
  8
0
 62
7
  6
CONTINUOUS
 10
41.1595288536
 20
215.3523026138
  0
VERTEX
  8
0
 62
7
  6
CONTINUOUS
 10
41.6632984433
 20
215.5297200229
  0
VERTEX
  8
0
 62
7
  6
CONTINUOUS
 10
42.1735790957
 20
215.6891980299
  0
VERTEX
  8
0
 62
7
  6
CONTINUOUS
 10
42.6898848431
 20
215.8304824535
  0
VERTEX
  8
0
 62
7
  6
CONTINUOUS
 10
43.2112105077
 20
215.9533327332
  0
VERTEX
  8
0
 62
7
  6
CONTINUOUS
 10
43.7367053815
 20
216.0574499752
  0
VERTEX
  8
0
 62
7
  6
CONTINUOUS
 10
44.2654200875
 20
216.1427549983
  0
VERTEX
  8
0
 62
7
  6
CONTINUOUS
 10
44.7964307943
 20
216.2090533262
  0
VERTEX
  8
0
 62
7
  6
CONTINUOUS
 10
45.3288101571
 20
216.25639195
  0
VERTEX
  8
0
 62
7
  6
CONTINUOUS
 10
45.8611684762
 20
216.2847508064
  0
VERTEX
  8
0
 62
7
  6
CONTINUOUS
 10
46.3939689849
 20
216.2941365832
  0
SEQEND
  0
LINE
  8
0
 62
7
  6
CONTINUOUS
 10
26.0327043836
 20
6.7124807131
 11
346.0327043836
 21
6.7124807131
  0
LINE
  8
0
 62
7
  6
CONTINUOUS
 10
41.7957189073
 20
37.4374422177
 11
41.7957189073
 21
195.9875192085
  0
LINE
  8
0
 62
7
  6
CONTINUOUS
 10
46.3939689849
 20
17.130824843
 11
46.3939689849
 21
22.1117983335
  0
LINE
  8
0
 62
7
  6
CONTINUOUS
 10
46.3939689849
 20
211.3131630927
 11
46.3939689849
 21
216.2941365832
  0
LINE
  8
0
 62
7
  6
CONTINUOUS
 10
51.7576658882
 20
27.4754952368
 11
51.7576658882
 21
205.9494661894
  0
LINE
  8
0
 62
7
  6
CONTINUOUS
 10
21.0327043836
 20
11.7124807131
 11
351.0327043836
 21
11.7124807131
  0
LINE
  8
0
 62
7
  6
CONTINUOUS
 10
325.6714397823
 20
17.130824843
 11
46.3939689849
 21
17.130824843
  0
POLYLINE
  8
0
 62
7
  6
CONTINUOUS
 66
1
 70
0
  0
VERTEX
  8
0
 62
7
  6
CONTINUOUS
 10
46.3939689849
 20
22.1117983335
  0
VERTEX
  8
0
 62
7
  6
CONTINUOUS
 10
46.0377413636
 20
22.1167594408
  0
VERTEX
  8
0
 62
7
  6
CONTINUOUS
 10
45.6813979584
 20
22.13437167
  0
VERTEX
  8
0
 62
7
  6
CONTINUOUS
 10
45.3253003876
 20
22.1646887587
  0
VERTEX
  8
0
 62
7
  6
CONTINUOUS
 10
44.9701548693
 20
22.2077248341
  0
VERTEX
  8
0
 62
7
  6
CONTINUOUS
 10
44.6165798001
 20
22.26345569
  0
VERTEX
  8
0
 62
7
  6
CONTINUOUS
 10
44.2651997288
 20
22.3318141115
  0
VERTEX
  8
0
 62
7
  6
CONTINUOUS
 10
43.9166389465
 20
22.4126926396
  0
VERTEX
  8
0
 62
7
  6
CONTINUOUS
 10
43.5714833459
 20
22.5059493416
  0
VERTEX
  8
0
 62
7
  6
CONTINUOUS
 10
43.2303916781
 20
22.6113806306
  0
VERTEX
  8
0
 62
7
  6
CONTINUOUS
 10
42.8937080771
 20
22.7288440628
  0
VERTEX
  8
0
 62
7
  6
CONTINUOUS
 10
42.5618944299
 20
22.858144774
  0
VERTEX
  8
0
 62
7
  6
CONTINUOUS
 10
42.2352148281
 20
22.9991512468
  0
VERTEX
  8
0
 62
7
  6
CONTINUOUS
 10
41.9139546897
 20
23.1517284698
  0
VERTEX
  8
0
 62
7
  6
CONTINUOUS
 10
41.598502256
 20
23.3156886278
  0
VERTEX
  8
0
 62
7
  6
CONTINUOUS
 10
41.2891824188
 20
23.490866168
  0
VERTEX
  8
0
 62
7
  6
CONTINUOUS
 10
40.9864449393
 20
23.6770097105
  0
VERTEX
  8
0
 62
7
  6
CONTINUOUS
 10
40.6907010191
 20
23.8738647267
  0
VERTEX
  8
0
 62
7
  6
CONTINUOUS
 10
40.4023301982
 20
24.0811722913
  0
VERTEX
  8
0
 62
7
  6
CONTINUOUS
 10
40.1217193184
 20
24.2986463234
  0
VERTEX
  8
0
 62
7
  6
CONTINUOUS
 10
39.849193458
 20
24.5260250761
  0
VERTEX
  8
0
 62
7
  6
CONTINUOUS
 10
39.585083996
 20
24.7630261584
  0
VERTEX
  8
0
 62
7
  6
CONTINUOUS
 10
39.3297052257
 20
25.0093625917
  0
VERTEX
  8
0
 62
7
  6
CONTINUOUS
 10
39.0833647255
 20
25.2647368375
  0
VERTEX
  8
0
 62
7
  6
CONTINUOUS
 10
38.8463599059
 20
25.528841335
  0
VERTEX
  8
0
 62
7
  6
CONTINUOUS
 10
38.6189777846
 20
25.8013616215
  0
VERTEX
  8
0
 62
7
  6
CONTINUOUS
 10
38.401500277
 20
26.0819668045
  0
VERTEX
  8
0
 62
7
  6
CONTINUOUS
 10
38.1941891019
 20
26.3703318062
  0
VERTEX
  8
0
 62
7
  6
CONTINUOUS
 10
37.9973293387
 20
26.6660713269
  0
VERTEX
  8
0
 62
7
  6
CONTINUOUS
 10
37.8111788657
 20
26.9688079457
  0
VERTEX
  8
0
 62
7
  6
CONTINUOUS
 10
37.635993317
 20
27.2781293316
  0
VERTEX
  8
0
 62
7
  6
CONTINUOUS
 10
37.4720238171
 20
27.5935868547
  0
VERTEX
  8
0
 62
7
  6
CONTINUOUS
 10
37.3194385971
 20
27.9148506197
  0
VERTEX
  8
0
 62
7
  6
CONTINUOUS
 10
37.1784274326
 20
28.2415270668
  0
VERTEX
  8
0
 62
7
  6
CONTINUOUS
 10
37.0491242008
 20
28.5733314448
  0
VERTEX
  8
0
 62
7
  6
CONTINUOUS
 10
36.9316610404
 20
28.9099954686
  0
VERTEX
  8
0
 62
7
  6
CONTINUOUS
 10
36.8262289195
 20
29.2510665976
  0
VERTEX
  8
0
 62
7
  6
CONTINUOUS
 10
36.7329680902
 20
29.5962090017
  0
VERTEX
  8
0
 62
7
  6
CONTINUOUS
 10
36.6520828627
 20
29.9447646338
  0
VERTEX
  8
0
 62
7
  6
CONTINUOUS
 10
36.5837154091
 20
30.2961513373
  0
VERTEX
  8
0
 62
7
  6
CONTINUOUS
 10
36.5279745654
 20
30.6497441816
  0
VERTEX
  8
0
 62
7
  6
CONTINUOUS
 10
36.4849286852
 20
31.0049190705
  0
VERTEX
  8
0
 62
7
  6
CONTINUOUS
 10
36.4546031856
 20
31.3610576086
  0
VERTEX
  8
0
 62
7
  6
CONTINUOUS
 10
36.4369851454
 20
31.7174536179
  0
VERTEX
  8
0
 62
7
  6
CONTINUOUS
 10
36.4320220039
 20
32.0737453144
  0
SEQEND
  0
POLYLINE
  8
0
 62
7
  6
CONTINUOUS
 66
1
 70
0
  0
VERTEX
  8
0
 62
7
  6
CONTINUOUS
 10
46.3939689849
 20
17.130824843
  0
VERTEX
  8
0
 62
7
  6
CONTINUOUS
 10
45.8612643296
 20
17.1402063353
  0
VERTEX
  8
0
 62
7
  6
CONTINUOUS
 10
45.3289845654
 20
17.1685570977
  0
VERTEX
  8
0
 62
7
  6
CONTINUOUS
 10
44.7966664239
 20
17.215882925
  0
VERTEX
  8
0
 62
7
  6
CONTINUOUS
 10
44.26569971
 20
17.2821664335
  0
VERTEX
  8
0
 62
7
  6
CONTINUOUS
 10
43.7370115801
 20
17.3674564553
  0
VERTEX
  8
0
 62
7
  6
CONTINUOUS
 10
43.2115267111
 20
17.4715601385
  0
VERTEX
  8
0
 62
7
  6
CONTINUOUS
 10
42.6901934011
 20
17.5944006332
  0
VERTEX
  8
0
 62
7
  6
CONTINUOUS
 10
42.1738679425
 20
17.7356787654
  0
VERTEX
  8
0
 62
7
  6
CONTINUOUS
 10
41.6635567654
 20
17.895156131
  0
VERTEX
  8
0
 62
7
  6
CONTINUOUS
 10
41.1597577547
 20
18.0725735696
  0
VERTEX
  8
0
 62
7
  6
CONTINUOUS
 10
40.6631746548
 20
18.2676614225
  0
VERTEX
  8
0
 62
7
  6
CONTINUOUS
 10
40.1741963175
 20
18.4802127802
  0
VERTEX
  8
0
 62
7
  6
CONTINUOUS
 10
39.6932551143
 20
18.7100298575
  0
VERTEX
  8
0
 62
7
  6
CONTINUOUS
 10
39.2209242302
 20
18.9568156229
  0
VERTEX
  8
0
 62
7
  6
CONTINUOUS
 10
38.7577029231
 20
19.2203442997
  0
VERTEX
  8
0
 62
7
  6
CONTINUOUS
 10
38.3042453458
 20
19.5002043378
  0
VERTEX
  8
0
 62
7
  6
CONTINUOUS
 10
37.8611903807
 20
19.796050071
  0
VERTEX
  8
0
 62
7
  6
CONTINUOUS
 10
37.4290830964
 20
20.1074580711
  0
VERTEX
  8
0
 62
7
  6
CONTINUOUS
 10
37.0085260788
 20
20.4340292824
  0
VERTEX
  8
0
 62
7
  6
CONTINUOUS
 10
36.5999856578
 20
20.7753449202
  0
VERTEX
  8
0
 62
7
  6
CONTINUOUS
 10
36.2039786268
 20
21.1310039622
  0
VERTEX
  8
0
 62
7
  6
CONTINUOUS
 10
35.8209561812
 20
21.5005540656
  0
VERTEX
  8
0
 62
7
  6
CONTINUOUS
 10
35.4514000251
 20
21.8835697675
  0
VERTEX
  8
0
 62
7
  6
CONTINUOUS
 10
35.0957354268
 20
22.2795694056
  0
VERTEX
  8
0
 62
7
  6
CONTINUOUS
 10
34.7544147582
 20
22.6881014923
  0
VERTEX
  8
0
 62
7
  6
CONTINUOUS
 10
34.4278384132
 20
23.1086500397
  0
VERTEX
  8
0
 62
7
  6
CONTINUOUS
 10
34.1164249574
 20
23.5407485924
  0
VERTEX
  8
0
 62
7
  6
CONTINUOUS
 10
33.8205722478
 20
23.9837970654
  0
VERTEX
  8
0
 62
7
  6
CONTINUOUS
 10
33.5407018909
 20
24.4372534271
  0
VERTEX
  8
0
 62
7
  6
CONTINUOUS
 10
33.2771612044
 20
24.9004770618
  0
VERTEX
  8
0
 62
7
  6
CONTINUOUS
 10
33.0303617328
 20
25.3728157344
  0
VERTEX
  8
0
 62
7
  6
CONTINUOUS
 10
32.8005324017
 20
25.8537622715
  0
VERTEX
  8
0
 62
7
  6
CONTINUOUS
 10
32.5879741056
 20
26.3427359127
  0
VERTEX
  8
0
 62
7
  6
CONTINUOUS
 10
32.3928824828
 20
26.8393051831
  0
VERTEX
  8
0
 62
7
  6
CONTINUOUS
 10
32.2154650738
 20
27.3430747728
  0
VERTEX
  8
0
 62
7
  6
CONTINUOUS
 10
32.0559870667
 20
27.8533554252
  0
VERTEX
  8
0
 62
7
  6
CONTINUOUS
 10
31.9147026431
 20
28.3696611726
  0
VERTEX
  8
0
 62
7
  6
CONTINUOUS
 10
31.7918523634
 20
28.8909868373
  0
VERTEX
  8
0
 62
7
  6
CONTINUOUS
 10
31.6877351214
 20
29.416481711
  0
VERTEX
  8
0
 62
7
  6
CONTINUOUS
 10
31.6024300983
 20
29.945196417
  0
VERTEX
  8
0
 62
7
  6
CONTINUOUS
 10
31.5361317705
 20
30.4762071238
  0
VERTEX
  8
0
 62
7
  6
CONTINUOUS
 10
31.4887931467
 20
31.0085864866
  0
VERTEX
  8
0
 62
7
  6
CONTINUOUS
 10
31.4604342903
 20
31.5409448057
  0
VERTEX
  8
0
 62
7
  6
CONTINUOUS
 10
31.4510485135
 20
32.0737453144
  0
SEQEND
  0
POLYLINE
  8
0
 62
7
  6
CONTINUOUS
 66
1
 70
0
  0
VERTEX
  8
0
 62
7
  6
CONTINUOUS
 10
320.307742879
 20
27.4754952368
  0
VERTEX
  8
0
 62
7
  6
CONTINUOUS
 10
320.6969718086
 20
27.486058226
  0
VERTEX
  8
0
 62
7
  6
CONTINUOUS
 10
321.0856063557
 20
27.5118178013
  0
VERTEX
  8
0
 62
7
  6
CONTINUOUS
 10
321.4730530444
 20
27.5527346262
  0
VERTEX
  8
0
 62
7
  6
CONTINUOUS
 10
321.8587202076
 20
27.6087462168
  0
VERTEX
  8
0
 62
7
  6
CONTINUOUS
 10
322.2420188966
 20
27.6797670384
  0
VERTEX
  8
0
 62
7
  6
CONTINUOUS
 10
322.6223637817
 20
27.7656886355
  0
VERTEX
  8
0
 62
7
  6
CONTINUOUS
 10
322.9991740439
 20
27.8663797978
  0
VERTEX
  8
0
 62
7
  6
CONTINUOUS
 10
323.3718742608
 20
27.9816867604
  0
VERTEX
  8
0
 62
7
  6
CONTINUOUS
 10
323.739895287
 20
28.1114334385
  0
VERTEX
  8
0
 62
7
  6
CONTINUOUS
 10
324.1026751222
 20
28.2554216961
  0
VERTEX
  8
0
 62
7
  6
CONTINUOUS
 10
324.4596597706
 20
28.4134316492
  0
VERTEX
  8
0
 62
7
  6
CONTINUOUS
 10
324.8103040852
 20
28.5852220008
  0
VERTEX
  8
0
 62
7
  6
CONTINUOUS
 10
325.1540726024
 20
28.77053041
  0
VERTEX
  8
0
 62
7
  6
CONTINUOUS
 10
325.4904403574
 20
28.9690738918
  0
VERTEX
  8
0
 62
7
  6
CONTINUOUS
 10
325.8188936884
 20
29.1805492503
  0
VERTEX
  8
0
 62
7
  6
CONTINUOUS
 10
326.1389310187
 20
29.4046335406
  0
VERTEX
  8
0
 62
7
  6
CONTINUOUS
 10
326.4500636248
 20
29.6409845629
  0
VERTEX
  8
0
 62
7
  6
CONTINUOUS
 10
326.751816381
 20
29.8892413845
  0
VERTEX
  8
0
 62
7
  6
CONTINUOUS
 10
327.0437284865
 20
30.149024891
  0
VERTEX
  8
0
 62
7
  6
CONTINUOUS
 10
327.3253541688
 20
30.4199383663
  0
VERTEX
  8
0
 62
7
  6
CONTINUOUS
 10
327.5962633636
 20
30.7015680972
  0
VERTEX
  8
0
 62
7
  6
CONTINUOUS
 10
327.8560423737
 20
30.9934840072
  0
VERTEX
  8
0
 62
7
  6
CONTINUOUS
 10
328.1042944973
 20
31.2952403098
  0
VERTEX
  8
0
 62
7
  6
CONTINUOUS
 10
328.3406406409
 20
31.6063761983
  0
VERTEX
  8
0
 62
7
  6
CONTINUOUS
 10
328.5647198911
 20
31.9264165418
  0
VERTEX
  8
0
 62
7
  6
CONTINUOUS
 10
328.7761900671
 20
32.2548726118
  0
VERTEX
  8
0
 62
7
  6
CONTINUOUS
 10
328.9747282352
 20
32.5912428151
  0
VERTEX
  8
0
 62
7
  6
CONTINUOUS
 10
329.1600312409
 20
32.9350135283
  0
VERTEX
  8
0
 62
7
  6
CONTINUOUS
 10
329.3318161435
 20
33.285659851
  0
VERTEX
  8
0
 62
7
  6
CONTINUOUS
 10
329.4898205763
 20
33.6426462465
  0
VERTEX
  8
0
 62
7
  6
CONTINUOUS
 10
329.6338032157
 20
34.0054274579
  0
VERTEX
  8
0
 62
7
  6
CONTINUOUS
 10
329.7635442602
 20
34.3734496533
  0
VERTEX
  8
0
 62
7
  6
CONTINUOUS
 10
329.8788457437
 20
34.7461513999
  0
VERTEX
  8
0
 62
7
  6
CONTINUOUS
 10
329.9795312002
 20
35.1229622679
  0
VERTEX
  8
0
 62
7
  6
CONTINUOUS
 10
330.0654466172
 20
35.5033051658
  0
VERTEX
  8
0
 62
7
  6
CONTINUOUS
 10
330.1364613345
 20
35.8866008198
  0
VERTEX
  8
0
 62
7
  6
CONTINUOUS
 10
330.1924681037
 20
36.272272705
  0
VERTEX
  8
0
 62
7
  6
CONTINUOUS
 10
330.2333784524
 20
36.6597086144
  0
VERTEX
  8
0
 62
7
  6
CONTINUOUS
 10
330.2591306265
 20
37.0482937288
  0
VERTEX
  8
0
 62
7
  6
CONTINUOUS
 10
330.2696898599
 20
37.4374422177
  0
SEQEND
  0
LINE
  8
0
 62
7
  6
CONTINUOUS
 10
325.6714397823
 20
22.1117983335
 11
46.3939689849
 21
22.1117983335
  0
LINE
  8
0
 62
7
  6
CONTINUOUS
 10
320.307742879
 20
27.4754952368
 11
51.7576658882
 21
27.4754952368
  0
LINE
  8
0
 62
7
  6
CONTINUOUS
 10
340.6143602537
 20
32.0737453144
 11
335.6333867632
 21
32.0737453144
  0
LINE
  8
0
 62
7
  6
CONTINUOUS
 10
36.4320220039
 20
32.0737453144
 11
31.4510485135
 21
32.0737453144
  0
LINE
  8
0
 62
7
  6
CONTINUOUS
 10
330.2696898599
 20
37.4374422177
 11
41.7957189073
 21
37.4374422177
  0
LINE
  8
0
 62
7
  6
CONTINUOUS
 10
36.4320220039
 20
201.3512161118
 11
41.7957189073
 21
195.9875192085
  0
LINE
  8
0
 62
7
  6
CONTINUOUS
 10
46.3939689849
 20
211.3131630927
 11
51.7576658882
 21
205.9494661894
  0
LINE
  8
0
 62
7
  6
CONTINUOUS
 10
36.4320220039
 20
32.0737453144
 11
41.7957189073
 21
37.4374422177
  0
LINE
  8
0
 62
7
  6
CONTINUOUS
 10
46.3939689849
 20
22.1117983335
 11
51.7576658882
 21
27.4754952368
  0
LINE
  8
0
 62
7
  6
CONTINUOUS
 10
325.6714397823
 20
22.1117983335
 11
320.307742879
 21
27.4754952368
  0
LINE
  8
0
 62
7
  6
CONTINUOUS
 10
335.6333867632
 20
32.0737453144
 11
330.2696898599
 21
37.4374422177
  0
LINE
  8
0
 62
7
  6
CONTINUOUS
 10
41.7957189073
 20
195.9875192085
 11
330.2696898599
 21
195.9875192085
  0
LINE
  8
0
 62
7
  6
CONTINUOUS
 10
325.6714397823
 20
211.3131630927
 11
320.307742879
 21
205.9494661894
  0
POLYLINE
  8
0
 62
7
  6
CONTINUOUS
 66
1
 70
0
  0
VERTEX
  8
0
 62
7
  6
CONTINUOUS
 10
51.7576658882
 20
205.9494661894
  0
VERTEX
  8
0
 62
7
  6
CONTINUOUS
 10
51.3684408268
 20
205.9389033808
  0
VERTEX
  8
0
 62
7
  6
CONTINUOUS
 10
50.9798101324
 20
205.9131442882
  0
VERTEX
  8
0
 62
7
  6
CONTINUOUS
 10
50.5923672645
 20
205.872228247
  0
VERTEX
  8
0
 62
7
  6
CONTINUOUS
 10
50.2067038684
 20
205.8162177383
  0
VERTEX
  8
0
 62
7
  6
CONTINUOUS
 10
49.8234088725
 20
205.745198293
  0
VERTEX
  8
0
 62
7
  6
CONTINUOUS
 10
49.4430675882
 20
205.6592783615
  0
VERTEX
  8
0
 62
7
  6
CONTINUOUS
 10
49.0662608165
 20
205.558589148
  0
VERTEX
  8
0
 62
7
  6
CONTINUOUS
 10
48.6935639611
 20
205.4432844102
  0
VERTEX
  8
0
 62
7
  6
CONTINUOUS
 10
48.3255461496
 20
205.3135402246
  0
VERTEX
  8
0
 62
7
  6
CONTINUOUS
 10
47.9627693644
 20
205.1695547171
  0
VERTEX
  8
0
 62
7
  6
CONTINUOUS
 10
47.6057875846
 20
205.0115477613
  0
VERTEX
  8
0
 62
7
  6
CONTINUOUS
 10
47.2551459401
 20
204.8397606421
  0
VERTEX
  8
0
 62
7
  6
CONTINUOUS
 10
46.911379879
 20
204.6544556873
  0
VERTEX
  8
0
 62
7
  6
CONTINUOUS
 10
46.57501435
 20
204.4559158672
  0
VERTEX
  8
0
 62
7
  6
CONTINUOUS
 10
46.2465630009
 20
204.2444443627
  0
VERTEX
  8
0
 62
7
  6
CONTINUOUS
 10
45.9265273942
 20
204.0203641016
  0
VERTEX
  8
0
 62
7
  6
CONTINUOUS
 10
45.6153962408
 20
203.7840172664
  0
VERTEX
  8
0
 62
7
  6
CONTINUOUS
 10
45.3136446544
 20
203.535764771
  0
VERTEX
  8
0
 62
7
  6
CONTINUOUS
 10
45.0217334253
 20
203.2759857099
  0
VERTEX
  8
0
 62
7
  6
CONTINUOUS
 10
44.7401083174
 20
203.0050767793
  0
VERTEX
  8
0
 62
7
  6
CONTINUOUS
 10
44.4691993868
 20
202.7234516713
  0
VERTEX
  8
0
 62
7
  6
CONTINUOUS
 10
44.2094203257
 20
202.4315404423
  0
VERTEX
  8
0
 62
7
  6
CONTINUOUS
 10
43.9611678302
 20
202.1297888559
  0
VERTEX
  8
0
 62
7
  6
CONTINUOUS
 10
43.724820995
 20
201.8186577025
  0
VERTEX
  8
0
 62
7
  6
CONTINUOUS
 10
43.500740734
 20
201.4986220957
  0
VERTEX
  8
0
 62
7
  6
CONTINUOUS
 10
43.2892692294
 20
201.1701707467
  0
VERTEX
  8
0
 62
7
  6
CONTINUOUS
 10
43.0907294094
 20
200.8338052177
  0
VERTEX
  8
0
 62
7
  6
CONTINUOUS
 10
42.9054244546
 20
200.4900391566
  0
VERTEX
  8
0
 62
7
  6
CONTINUOUS
 10
42.7336373353
 20
200.1393975121
  0
VERTEX
  8
0
 62
7
  6
CONTINUOUS
 10
42.5756303795
 20
199.7824157323
  0
VERTEX
  8
0
 62
7
  6
CONTINUOUS
 10
42.4316448721
 20
199.4196389471
  0
VERTEX
  8
0
 62
7
  6
CONTINUOUS
 10
42.3019006864
 20
199.0516211355
  0
VERTEX
  8
0
 62
7
  6
CONTINUOUS
 10
42.1865959486
 20
198.6789242801
  0
VERTEX
  8
0
 62
7
  6
CONTINUOUS
 10
42.0859067352
 20
198.3021175085
  0
VERTEX
  8
0
 62
7
  6
CONTINUOUS
 10
41.9999868036
 20
197.9217762241
  0
VERTEX
  8
0
 62
7
  6
CONTINUOUS
 10
41.9289673583
 20
197.5384812282
  0
VERTEX
  8
0
 62
7
  6
CONTINUOUS
 10
41.8729568496
 20
197.1528178322
  0
VERTEX
  8
0
 62
7
  6
CONTINUOUS
 10
41.8320408085
 20
196.7653749642
  0
VERTEX
  8
0
 62
7
  6
CONTINUOUS
 10
41.8062817159
 20
196.3767442699
  0
VERTEX
  8
0
 62
7
  6
CONTINUOUS
 10
41.7957189073
 20
195.9875192085
  0
SEQEND
  0
LINE
  8
0
 62
7
  6
CONTINUOUS
 10
31.4510485135
 20
201.3512161118
 11
36.4320220039
 21
201.3512161118
  0
LINE
  8
0
 62
7
  6
CONTINUOUS
 10
335.6333867632
 20
201.3512161118
 11
340.6143602537
 21
201.3512161118
  0
LINE
  8
0
 62
7
  6
CONTINUOUS
 10
51.7576658882
 20
205.9494661894
 11
320.307742879
 21
205.9494661894
  0
LINE
  8
0
 62
7
  6
CONTINUOUS
 10
46.3939689849
 20
211.3131630927
 11
325.6714397823
 21
211.3131630927
  0
LINE
  8
0
 62
7
  6
CONTINUOUS
 10
335.6333867632
 20
201.3512161118
 11
330.2696898599
 21
195.9875192085
  0
LINE
  8
0
 62
7
  6
CONTINUOUS
 10
46.3939689849
 20
216.2941365832
 11
325.6714397823
 21
216.2941365832
  0
POLYLINE
  8
0
 62
7
  6
CONTINUOUS
 66
1
 70
0
  0
VERTEX
  8
0
 62
7
  6
CONTINUOUS
 10
325.6714397823
 20
211.3131630927
  0
VERTEX
  8
0
 62
7
  6
CONTINUOUS
 10
326.0276674036
 20
211.3082019854
  0
VERTEX
  8
0
 62
7
  6
CONTINUOUS
 10
326.3840108087
 20
211.2905897561
  0
VERTEX
  8
0
 62
7
  6
CONTINUOUS
 10
326.7401083796
 20
211.2602726674
  0
VERTEX
  8
0
 62
7
  6
CONTINUOUS
 10
327.0952538979
 20
211.217236592
  0
VERTEX
  8
0
 62
7
  6
CONTINUOUS
 10
327.4488289671
 20
211.1615057361
  0
VERTEX
  8
0
 62
7
  6
CONTINUOUS
 10
327.8002090383
 20
211.0931473147
  0
VERTEX
  8
0
 62
7
  6
CONTINUOUS
 10
328.1487698207
 20
211.0122687866
  0
VERTEX
  8
0
 62
7
  6
CONTINUOUS
 10
328.4939254213
 20
210.9190120845
  0
VERTEX
  8
0
 62
7
  6
CONTINUOUS
 10
328.8350170891
 20
210.8135807956
  0
VERTEX
  8
0
 62
7
  6
CONTINUOUS
 10
329.1717006901
 20
210.6961173634
  0
VERTEX
  8
0
 62
7
  6
CONTINUOUS
 10
329.5035143372
 20
210.5668166522
  0
VERTEX
  8
0
 62
7
  6
CONTINUOUS
 10
329.8301939391
 20
210.4258101793
  0
VERTEX
  8
0
 62
7
  6
CONTINUOUS
 10
330.1514540775
 20
210.2732329564
  0
VERTEX
  8
0
 62
7
  6
CONTINUOUS
 10
330.4669065111
 20
210.1092727984
  0
VERTEX
  8
0
 62
7
  6
CONTINUOUS
 10
330.7762263484
 20
209.9340952582
  0
VERTEX
  8
0
 62
7
  6
CONTINUOUS
 10
331.0789638279
 20
209.7479517157
  0
VERTEX
  8
0
 62
7
  6
CONTINUOUS
 10
331.374707748
 20
209.5510966994
  0
VERTEX
  8
0
 62
7
  6
CONTINUOUS
 10
331.6630785689
 20
209.3437891349
  0
VERTEX
  8
0
 62
7
  6
CONTINUOUS
 10
331.9436894488
 20
209.1263151028
  0
VERTEX
  8
0
 62
7
  6
CONTINUOUS
 10
332.2162153091
 20
208.8989363501
  0
VERTEX
  8
0
 62
7
  6
CONTINUOUS
 10
332.4803247712
 20
208.6619352678
  0
VERTEX
  8
0
 62
7
  6
CONTINUOUS
 10
332.7357035415
 20
208.4155988344
  0
VERTEX
  8
0
 62
7
  6
CONTINUOUS
 10
332.9820440416
 20
208.1602245887
  0
VERTEX
  8
0
 62
7
  6
CONTINUOUS
 10
333.2190488612
 20
207.8961200912
  0
VERTEX
  8
0
 62
7
  6
CONTINUOUS
 10
333.4464309826
 20
207.6235998046
  0
VERTEX
  8
0
 62
7
  6
CONTINUOUS
 10
333.6639084901
 20
207.3429946217
  0
VERTEX
  8
0
 62
7
  6
CONTINUOUS
 10
333.8712196652
 20
207.0546296199
  0
VERTEX
  8
0
 62
7
  6
CONTINUOUS
 10
334.0680794285
 20
206.7588900993
  0
VERTEX
  8
0
 62
7
  6
CONTINUOUS
 10
334.2542299014
 20
206.4561534805
  0
VERTEX
  8
0
 62
7
  6
CONTINUOUS
 10
334.4294154502
 20
206.1468320945
  0
VERTEX
  8
0
 62
7
  6
CONTINUOUS
 10
334.5933849501
 20
205.8313745715
  0
VERTEX
  8
0
 62
7
  6
CONTINUOUS
 10
334.74597017
 20
205.5101108064
  0
VERTEX
  8
0
 62
7
  6
CONTINUOUS
 10
334.8869813345
 20
205.1834343594
  0
VERTEX
  8
0
 62
7
  6
CONTINUOUS
 10
335.0162845664
 20
204.8516299814
  0
VERTEX
  8
0
 62
7
  6
CONTINUOUS
 10
335.1337477267
 20
204.5149659576
  0
VERTEX
  8
0
 62
7
  6
CONTINUOUS
 10
335.2391798477
 20
204.1738948285
  0
VERTEX
  8
0
 62
7
  6
CONTINUOUS
 10
335.3324406769
 20
203.8287524245
  0
VERTEX
  8
0
 62
7
  6
CONTINUOUS
 10
335.4133259045
 20
203.4801967924
  0
VERTEX
  8
0
 62
7
  6
CONTINUOUS
 10
335.481693358
 20
203.1288100889
  0
VERTEX
  8
0
 62
7
  6
CONTINUOUS
 10
335.5374342018
 20
202.7752172446
  0
VERTEX
  8
0
 62
7
  6
CONTINUOUS
 10
335.580480082
 20
202.4200423557
  0
VERTEX
  8
0
 62
7
  6
CONTINUOUS
 10
335.6108055816
 20
202.0639038176
  0
VERTEX
  8
0
 62
7
  6
CONTINUOUS
 10
335.6284236218
 20
201.7075078083
  0
VERTEX
  8
0
 62
7
  6
CONTINUOUS
 10
335.6333867632
 20
201.3512161118
  0
SEQEND
  0
POLYLINE
  8
0
 62
7
  6
CONTINUOUS
 66
1
 70
0
  0
VERTEX
  8
0
 62
7
  6
CONTINUOUS
 10
325.6714397823
 20
216.2941365832
  0
VERTEX
  8
0
 62
7
  6
CONTINUOUS
 10
326.2041444375
 20
216.2847550909
  0
VERTEX
  8
0
 62
7
  6
CONTINUOUS
 10
326.7364242017
 20
216.2564043284
  0
VERTEX
  8
0
 62
7
  6
CONTINUOUS
 10
327.2687423432
 20
216.2090785012
  0
VERTEX
  8
0
 62
7
  6
CONTINUOUS
 10
327.7997090571
 20
216.1427949927
  0
VERTEX
  8
0
 62
7
  6
CONTINUOUS
 10
328.328397187
 20
216.0575049709
  0
VERTEX
  8
0
 62
7
  6
CONTINUOUS
 10
328.8538820561
 20
215.9534012877
  0
VERTEX
  8
0
 62
7
  6
CONTINUOUS
 10
329.375215366
 20
215.8305607929
  0
VERTEX
  8
0
 62
7
  6
CONTINUOUS
 10
329.8915408246
 20
215.6892826607
  0
VERTEX
  8
0
 62
7
  6
CONTINUOUS
 10
330.4018520017
 20
215.5298052951
  0
VERTEX
  8
0
 62
7
  6
CONTINUOUS
 10
330.9056510124
 20
215.3523878566
  0
VERTEX
  8
0
 62
7
  6
CONTINUOUS
 10
331.4022341123
 20
215.1573000037
  0
VERTEX
  8
0
 62
7
  6
CONTINUOUS
 10
331.8912124497
 20
214.944748646
  0
VERTEX
  8
0
 62
7
  6
CONTINUOUS
 10
332.3721536529
 20
214.7149315686
  0
VERTEX
  8
0
 62
7
  6
CONTINUOUS
 10
332.8444845369
 20
214.4681458032
  0
VERTEX
  8
0
 62
7
  6
CONTINUOUS
 10
333.307705844
 20
214.2046171265
  0
VERTEX
  8
0
 62
7
  6
CONTINUOUS
 10
333.7611634214
 20
213.9247570884
  0
VERTEX
  8
0
 62
7
  6
CONTINUOUS
 10
334.2042183865
 20
213.6289113551
  0
VERTEX
  8
0
 62
7
  6
CONTINUOUS
 10
334.6363256708
 20
213.3175033551
  0
VERTEX
  8
0
 62
7
  6
CONTINUOUS
 10
335.0568826884
 20
212.9909321438
  0
VERTEX
  8
0
 62
7
  6
CONTINUOUS
 10
335.4654231093
 20
212.649616506
  0
VERTEX
  8
0
 62
7
  6
CONTINUOUS
 10
335.8614301404
 20
212.293957464
  0
VERTEX
  8
0
 62
7
  6
CONTINUOUS
 10
336.2444525859
 20
211.9244073606
  0
VERTEX
  8
0
 62
7
  6
CONTINUOUS
 10
336.6140087421
 20
211.5413916586
  0
VERTEX
  8
0
 62
7
  6
CONTINUOUS
 10
336.9696733404
 20
211.1453920206
  0
VERTEX
  8
0
 62
7
  6
CONTINUOUS
 10
337.310994009
 20
210.7368599339
  0
VERTEX
  8
0
 62
7
  6
CONTINUOUS
 10
337.6375703539
 20
210.3163113865
  0
VERTEX
  8
0
 62
7
  6
CONTINUOUS
 10
337.9489838098
 20
209.8842128338
  0
VERTEX
  8
0
 62
7
  6
CONTINUOUS
 10
338.2448365194
 20
209.4411643608
  0
VERTEX
  8
0
 62
7
  6
CONTINUOUS
 10
338.5247068762
 20
208.9877079991
  0
VERTEX
  8
0
 62
7
  6
CONTINUOUS
 10
338.7882475627
 20
208.5244843644
  0
VERTEX
  8
0
 62
7
  6
CONTINUOUS
 10
339.0350470344
 20
208.0521456917
  0
VERTEX
  8
0
 62
7
  6
CONTINUOUS
 10
339.2648763655
 20
207.5711991547
  0
VERTEX
  8
0
 62
7
  6
CONTINUOUS
 10
339.4774346616
 20
207.0822255134
  0
VERTEX
  8
0
 62
7
  6
CONTINUOUS
 10
339.6725262843
 20
206.5856562431
  0
VERTEX
  8
0
 62
7
  6
CONTINUOUS
 10
339.8499436933
 20
206.0818866533
  0
VERTEX
  8
0
 62
7
  6
CONTINUOUS
 10
340.0094217004
 20
205.571606001
  0
VERTEX
  8
0
 62
7
  6
CONTINUOUS
 10
340.150706124
 20
205.0553002535
  0
VERTEX
  8
0
 62
7
  6
CONTINUOUS
 10
340.2735564037
 20
204.5339745889
  0
VERTEX
  8
0
 62
7
  6
CONTINUOUS
 10
340.3776736457
 20
204.0084797151
  0
VERTEX
  8
0
 62
7
  6
CONTINUOUS
 10
340.4629786688
 20
203.4797650092
  0
VERTEX
  8
0
 62
7
  6
CONTINUOUS
 10
340.5292769966
 20
202.9487543024
  0
VERTEX
  8
0
 62
7
  6
CONTINUOUS
 10
340.5766156205
 20
202.4163749396
  0
VERTEX
  8
0
 62
7
  6
CONTINUOUS
 10
340.6049744769
 20
201.8840166204
  0
VERTEX
  8
0
 62
7
  6
CONTINUOUS
 10
340.6143602537
 20
201.3512161118
  0
SEQEND
  0
POLYLINE
  8
0
 62
7
  6
CONTINUOUS
 66
1
 70
0
  0
VERTEX
  8
0
 62
7
  6
CONTINUOUS
 10
330.2696898599
 20
195.9875192085
  0
VERTEX
  8
0
 62
7
  6
CONTINUOUS
 10
330.2591268706
 20
196.3767481381
  0
VERTEX
  8
0
 62
7
  6
CONTINUOUS
 10
330.2333672953
 20
196.7653826852
  0
VERTEX
  8
0
 62
7
  6
CONTINUOUS
 10
330.1924504705
 20
197.1528293739
  0
VERTEX
  8
0
 62
7
  6
CONTINUOUS
 10
330.1364388798
 20
197.5384965371
  0
VERTEX
  8
0
 62
7
  6
CONTINUOUS
 10
330.0654180583
 20
197.9217952261
  0
VERTEX
  8
0
 62
7
  6
CONTINUOUS
 10
329.9794964612
 20
198.3021401112
  0
VERTEX
  8
0
 62
7
  6
CONTINUOUS
 10
329.8788052988
 20
198.6789503734
  0
VERTEX
  8
0
 62
7
  6
CONTINUOUS
 10
329.7634983362
 20
199.0516505903
  0
VERTEX
  8
0
 62
7
  6
CONTINUOUS
 10
329.6337516582
 20
199.4196716165
  0
VERTEX
  8
0
 62
7
  6
CONTINUOUS
 10
329.4897634006
 20
199.7824514517
  0
VERTEX
  8
0
 62
7
  6
CONTINUOUS
 10
329.3317534475
 20
200.1394361001
  0
VERTEX
  8
0
 62
7
  6
CONTINUOUS
 10
329.1599630959
 20
200.4900804148
  0
VERTEX
  8
0
 62
7
  6
CONTINUOUS
 10
328.9746546867
 20
200.8338489319
  0
VERTEX
  8
0
 62
7
  6
CONTINUOUS
 10
328.7761112049
 20
201.170216687
  0
VERTEX
  8
0
 62
7
  6
CONTINUOUS
 10
328.5646358464
 20
201.4986700179
  0
VERTEX
  8
0
 62
7
  6
CONTINUOUS
 10
328.340551556
 20
201.8187073482
  0
VERTEX
  8
0
 62
7
  6
CONTINUOUS
 10
328.1042005337
 20
202.1298399543
  0
VERTEX
  8
0
 62
7
  6
CONTINUOUS
 10
327.8559437122
 20
202.4315927106
  0
VERTEX
  8
0
 62
7
  6
CONTINUOUS
 10
327.5961602057
 20
202.7235048161
  0
VERTEX
  8
0
 62
7
  6
CONTINUOUS
 10
327.3252467304
 20
203.0051304983
  0
VERTEX
  8
0
 62
7
  6
CONTINUOUS
 10
327.0436169994
 20
203.2760396931
  0
VERTEX
  8
0
 62
7
  6
CONTINUOUS
 10
326.7517010895
 20
203.5358187032
  0
VERTEX
  8
0
 62
7
  6
CONTINUOUS
 10
326.4499447869
 20
203.7840708268
  0
VERTEX
  8
0
 62
7
  6
CONTINUOUS
 10
326.1388088983
 20
204.0204169704
  0
VERTEX
  8
0
 62
7
  6
CONTINUOUS
 10
325.8187685548
 20
204.2444962206
  0
VERTEX
  8
0
 62
7
  6
CONTINUOUS
 10
325.4903124849
 20
204.4559663966
  0
VERTEX
  8
0
 62
7
  6
CONTINUOUS
 10
325.1539422815
 20
204.6545045647
  0
VERTEX
  8
0
 62
7
  6
CONTINUOUS
 10
324.8101715683
 20
204.8398075704
  0
VERTEX
  8
0
 62
7
  6
CONTINUOUS
 10
324.4595252456
 20
205.011592473
  0
VERTEX
  8
0
 62
7
  6
CONTINUOUS
 10
324.1025388501
 20
205.1695969058
  0
VERTEX
  8
0
 62
7
  6
CONTINUOUS
 10
323.7397576388
 20
205.3135795452
  0
VERTEX
  8
0
 62
7
  6
CONTINUOUS
 10
323.3717354434
 20
205.4433205897
  0
VERTEX
  8
0
 62
7
  6
CONTINUOUS
 10
322.9990336968
 20
205.5586220733
  0
VERTEX
  8
0
 62
7
  6
CONTINUOUS
 10
322.6222228288
 20
205.6593075297
  0
VERTEX
  8
0
 62
7
  6
CONTINUOUS
 10
322.2418799309
 20
205.7452229467
  0
VERTEX
  8
0
 62
7
  6
CONTINUOUS
 10
321.8585842769
 20
205.816237664
  0
VERTEX
  8
0
 62
7
  6
CONTINUOUS
 10
321.4729123917
 20
205.8722444332
  0
VERTEX
  8
0
 62
7
  6
CONTINUOUS
 10
321.0854764823
 20
205.9131547819
  0
VERTEX
  8
0
 62
7
  6
CONTINUOUS
 10
320.6968913679
 20
205.938906956
  0
VERTEX
  8
0
 62
7
  6
CONTINUOUS
 10
320.307742879
 20
205.9494661894
  0
SEQEND
  0
LINE
  8
0
 62
7
  6
CONTINUOUS
 10
320.307742879
 20
205.9494661894
 11
320.307742879
 21
27.4754952368
  0
LINE
  8
0
 62
7
  6
CONTINUOUS
 10
325.6714397823
 20
216.2941365832
 11
325.6714397823
 21
211.3131630927
  0
LINE
  8
0
 62
7
  6
CONTINUOUS
 10
325.6714397823
 20
22.1117983335
 11
325.6714397823
 21
17.130824843
  0
LINE
  8
0
 62
7
  6
CONTINUOUS
 10
330.2696898599
 20
195.9875192085
 11
330.2696898599
 21
37.4374422177
  0
LINE
  8
0
 62
7
  6
CONTINUOUS
 10
21.0327043836
 20
291.7124807131
 11
351.0327043836
 21
291.7124807131
  0
LINE
  8
0
 62
7
  6
CONTINUOUS
 10
346.0327043836
 20
296.7124807131
 11
26.0327043836
 21
296.7124807131
  0
LINE
  8
0
 62
7
  6
CONTINUOUS
 10
335.6333867632
 20
201.3512161118
 11
335.6333867632
 21
32.0737453144
  0
LINE
  8
0
 62
7
  6
CONTINUOUS
 10
340.6143602537
 20
201.3512161118
 11
340.6143602537
 21
32.0737453144
  0
LINE
  8
0
 62
7
  6
CONTINUOUS
 10
346.0327043836
 20
6.7124807131
 11
346.0327043836
 21
296.7124807131
  0
POLYLINE
  8
0
 62
7
  6
CONTINUOUS
 66
1
 70
0
  0
VERTEX
  8
0
 62
7
  6
CONTINUOUS
 10
335.6333867632
 20
32.0737453144
  0
VERTEX
  8
0
 62
7
  6
CONTINUOUS
 10
335.6284256559
 20
31.7175176931
  0
VERTEX
  8
0
 62
7
  6
CONTINUOUS
 10
335.6108134266
 20
31.361174288
  0
VERTEX
  8
0
 62
7
  6
CONTINUOUS
 10
335.5804963379
 20
31.0050767171
  0
VERTEX
  8
0
 62
7
  6
CONTINUOUS
 10
335.5374602625
 20
30.6499311988
  0
VERTEX
  8
0
 62
7
  6
CONTINUOUS
 10
335.4817294066
 20
30.2963561296
  0
VERTEX
  8
0
 62
7
  6
CONTINUOUS
 10
335.4133709851
 20
29.9449760583
  0
VERTEX
  8
0
 62
7
  6
CONTINUOUS
 10
335.3324924571
 20
29.596415276
  0
VERTEX
  8
0
 62
7
  6
CONTINUOUS
 10
335.239235755
 20
29.2512596754
  0
VERTEX
  8
0
 62
7
  6
CONTINUOUS
 10
335.133804466
 20
28.9101680076
  0
VERTEX
  8
0
 62
7
  6
CONTINUOUS
 10
335.0163410339
 20
28.5734844066
  0
VERTEX
  8
0
 62
7
  6
CONTINUOUS
 10
334.8870403226
 20
28.2416707594
  0
VERTEX
  8
0
 62
7
  6
CONTINUOUS
 10
334.7460338498
 20
27.9149911576
  0
VERTEX
  8
0
 62
7
  6
CONTINUOUS
 10
334.5934566269
 20
27.5937310192
  0
VERTEX
  8
0
 62
7
  6
CONTINUOUS
 10
334.4294964689
 20
27.2782785855
  0
VERTEX
  8
0
 62
7
  6
CONTINUOUS
 10
334.2543189286
 20
26.9689587483
  0
VERTEX
  8
0
 62
7
  6
CONTINUOUS
 10
334.0681753862
 20
26.6662212688
  0
VERTEX
  8
0
 62
7
  6
CONTINUOUS
 10
333.8713203699
 20
26.3704773486
  0
VERTEX
  8
0
 62
7
  6
CONTINUOUS
 10
333.6640128054
 20
26.0821065278
  0
VERTEX
  8
0
 62
7
  6
CONTINUOUS
 10
333.4465387733
 20
25.8014956479
  0
VERTEX
  8
0
 62
7
  6
CONTINUOUS
 10
333.2191600206
 20
25.5289697875
  0
VERTEX
  8
0
 62
7
  6
CONTINUOUS
 10
332.9821589383
 20
25.2648603255
  0
VERTEX
  8
0
 62
7
  6
CONTINUOUS
 10
332.7358225049
 20
25.0094815552
  0
VERTEX
  8
0
 62
7
  6
CONTINUOUS
 10
332.4804482591
 20
24.763141055
  0
VERTEX
  8
0
 62
7
  6
CONTINUOUS
 10
332.2163437617
 20
24.5261362354
  0
VERTEX
  8
0
 62
7
  6
CONTINUOUS
 10
331.9438234751
 20
24.2987541141
  0
VERTEX
  8
0
 62
7
  6
CONTINUOUS
 10
331.6632182922
 20
24.0812766065
  0
VERTEX
  8
0
 62
7
  6
CONTINUOUS
 10
331.3748532904
 20
23.8739654314
  0
VERTEX
  8
0
 62
7
  6
CONTINUOUS
 10
331.0791137698
 20
23.6771056682
  0
VERTEX
  8
0
 62
7
  6
CONTINUOUS
 10
330.776377151
 20
23.4909551952
  0
VERTEX
  8
0
 62
7
  6
CONTINUOUS
 10
330.467055765
 20
23.3157696465
  0
VERTEX
  8
0
 62
7
  6
CONTINUOUS
 10
330.151598242
 20
23.1518001466
  0
VERTEX
  8
0
 62
7
  6
CONTINUOUS
 10
329.8303344769
 20
22.9992149266
  0
VERTEX
  8
0
 62
7
  6
CONTINUOUS
 10
329.5036580299
 20
22.8582037622
  0
VERTEX
  8
0
 62
7
  6
CONTINUOUS
 10
329.1718536518
 20
22.7289005303
  0
VERTEX
  8
0
 62
7
  6
CONTINUOUS
 10
328.8351896281
 20
22.6114373699
  0
VERTEX
  8
0
 62
7
  6
CONTINUOUS
 10
328.494118499
 20
22.506005249
  0
VERTEX
  8
0
 62
7
  6
CONTINUOUS
 10
328.148976095
 20
22.4127444197
  0
VERTEX
  8
0
 62
7
  6
CONTINUOUS
 10
327.8004204629
 20
22.3318591922
  0
VERTEX
  8
0
 62
7
  6
CONTINUOUS
 10
327.4490337593
 20
22.2634917386
  0
VERTEX
  8
0
 62
7
  6
CONTINUOUS
 10
327.095440915
 20
22.2077508949
  0
VERTEX
  8
0
 62
7
  6
CONTINUOUS
 10
326.7402660262
 20
22.1647050147
  0
VERTEX
  8
0
 62
7
  6
CONTINUOUS
 10
326.3841274881
 20
22.1343795151
  0
VERTEX
  8
0
 62
7
  6
CONTINUOUS
 10
326.0277314788
 20
22.1167614749
  0
VERTEX
  8
0
 62
7
  6
CONTINUOUS
 10
325.6714397823
 20
22.1117983335
  0
SEQEND
  0
POLYLINE
  8
0
 62
7
  6
CONTINUOUS
 66
1
 70
0
  0
VERTEX
  8
0
 62
7
  6
CONTINUOUS
 10
340.6143602537
 20
32.0737453144
  0
VERTEX
  8
0
 62
7
  6
CONTINUOUS
 10
340.6049787614
 20
31.5410406591
  0
VERTEX
  8
0
 62
7
  6
CONTINUOUS
 10
340.5766279989
 20
31.0087608949
  0
VERTEX
  8
0
 62
7
  6
CONTINUOUS
 10
340.5293021717
 20
30.4764427534
  0
VERTEX
  8
0
 62
7
  6
CONTINUOUS
 10
340.4630186632
 20
29.9454760395
  0
VERTEX
  8
0
 62
7
  6
CONTINUOUS
 10
340.3777286414
 20
29.4167879096
  0
VERTEX
  8
0
 62
7
  6
CONTINUOUS
 10
340.2736249582
 20
28.8913030406
  0
VERTEX
  8
0
 62
7
  6
CONTINUOUS
 10
340.1507844634
 20
28.3699697306
  0
VERTEX
  8
0
 62
7
  6
CONTINUOUS
 10
340.0095063312
 20
27.853644272
  0
VERTEX
  8
0
 62
7
  6
CONTINUOUS
 10
339.8500289656
 20
27.3433330949
  0
VERTEX
  8
0
 62
7
  6
CONTINUOUS
 10
339.672611527
 20
26.8395340842
  0
VERTEX
  8
0
 62
7
  6
CONTINUOUS
 10
339.4775236742
 20
26.3429509843
  0
VERTEX
  8
0
 62
7
  6
CONTINUOUS
 10
339.2649723165
 20
25.853972647
  0
VERTEX
  8
0
 62
7
  6
CONTINUOUS
 10
339.0351552391
 20
25.3730314438
  0
VERTEX
  8
0
 62
7
  6
CONTINUOUS
 10
338.7883694737
 20
24.9007005597
  0
VERTEX
  8
0
 62
7
  6
CONTINUOUS
 10
338.524840797
 20
24.4374792526
  0
VERTEX
  8
0
 62
7
  6
CONTINUOUS
 10
338.2449807589
 20
23.9840216753
  0
VERTEX
  8
0
 62
7
  6
CONTINUOUS
 10
337.9491350256
 20
23.5409667102
  0
VERTEX
  8
0
 62
7
  6
CONTINUOUS
 10
337.6377270256
 20
23.1088594259
  0
VERTEX
  8
0
 62
7
  6
CONTINUOUS
 10
337.3111558143
 20
22.6883024083
  0
VERTEX
  8
0
 62
7
  6
CONTINUOUS
 10
336.9698401765
 20
22.2797619873
  0
VERTEX
  8
0
 62
7
  6
CONTINUOUS
 10
336.6141811345
 20
21.8837549563
  0
VERTEX
  8
0
 62
7
  6
CONTINUOUS
 10
336.2446310311
 20
21.5007325108
  0
VERTEX
  8
0
 62
7
  6
CONTINUOUS
 10
335.8616153291
 20
21.1311763546
  0
VERTEX
  8
0
 62
7
  6
CONTINUOUS
 10
335.4656156911
 20
20.7755117563
  0
VERTEX
  8
0
 62
7
  6
CONTINUOUS
 10
335.0570836044
 20
20.4341910877
  0
VERTEX
  8
0
 62
7
  6
CONTINUOUS
 10
334.636535057
 20
20.1076147427
  0
VERTEX
  8
0
 62
7
  6
CONTINUOUS
 10
334.2044365043
 20
19.7962012869
  0
VERTEX
  8
0
 62
7
  6
CONTINUOUS
 10
333.7613880313
 20
19.5003485773
  0
VERTEX
  8
0
 62
7
  6
CONTINUOUS
 10
333.3079316696
 20
19.2204782204
  0
VERTEX
  8
0
 62
7
  6
CONTINUOUS
 10
332.8447080348
 20
18.9569375339
  0
VERTEX
  8
0
 62
7
  6
CONTINUOUS
 10
332.3723693622
 20
18.7101380623
  0
VERTEX
  8
0
 62
7
  6
CONTINUOUS
 10
331.8914228252
 20
18.4803087312
  0
VERTEX
  8
0
 62
7
  6
CONTINUOUS
 10
331.4024491839
 20
18.2677504351
  0
VERTEX
  8
0
 62
7
  6
CONTINUOUS
 10
330.9058799136
 20
18.0726588123
  0
VERTEX
  8
0
 62
7
  6
CONTINUOUS
 10
330.4021103238
 20
17.8952414033
  0
VERTEX
  8
0
 62
7
  6
CONTINUOUS
 10
329.8918296715
 20
17.7357633962
  0
VERTEX
  8
0
 62
7
  6
CONTINUOUS
 10
329.375523924
 20
17.5944789727
  0
VERTEX
  8
0
 62
7
  6
CONTINUOUS
 10
328.8541982594
 20
17.471628693
  0
VERTEX
  8
0
 62
7
  6
CONTINUOUS
 10
328.3287033856
 20
17.3675114509
  0
VERTEX
  8
0
 62
7
  6
CONTINUOUS
 10
327.7999886796
 20
17.2822064279
  0
VERTEX
  8
0
 62
7
  6
CONTINUOUS
 10
327.2689779728
 20
17.2159081
  0
VERTEX
  8
0
 62
7
  6
CONTINUOUS
 10
326.73659861
 20
17.1685694762
  0
VERTEX
  8
0
 62
7
  6
CONTINUOUS
 10
326.2042402909
 20
17.1402106198
  0
VERTEX
  8
0
 62
7
  6
CONTINUOUS
 10
325.6714397823
 20
17.130824843
  0
SEQEND
  0
LINE
  8
0
 62
7
  6
CONTINUOUS
 10
351.0327043836
 20
11.7124807131
 11
351.0327043836
 21
291.7124807131
  0
CIRCLE
  8
0
 62
7
  6
CONTINUOUS
 10
186.0327043836
 20
116.7124807131
 40
20.0
  0
CIRCLE
  8
0
 62
7
  6
CONTINUOUS
 10
186.0327043836
 20
254.2124807131
 40
17.5
  0
ARC
  8
0
 62
7
  6
CONTINUOUS
 10
26.0327043836
 20
291.7124807131
 40
5.0
 50
90.0
 51
180.0
  0
ARC
  8
0
 62
7
  6
CONTINUOUS
 10
26.0327043836
 20
11.7124807131
 40
5.0
 50
180.0
 51
270.0
  0
ARC
  8
0
 62
7
  6
CONTINUOUS
 10
346.0327043836
 20
291.7124807131
 40
5.0
 50
0.0
 51
90.0
  0
ARC
  8
0
 62
7
  6
CONTINUOUS
 10
346.0327043836
 20
11.7124807131
 40
5.0
 50
270.0
 51
360.0
  0
ENDSEC
  0
EOF
