999
DXF file: K:\Client\125_Heirloom\001\00\Final_Data\Drawings\BASINS\tableau-362130_3.dxf
999
Pro/ENGINEER 2017110 by Parametric Technology Corporation
  0
SECTION
  2
HEADER
  9
$EXTMAX
 10
420.0
 20
297.0
 30
0.0
  9
$EXTMIN
 10
0.0
 20
0.0
 30
0.0
  9
$LIMMIN
 10
0.0
 20
0.0
  9
$LIMMAX
 10
420.0
 20
297.0
  9
$VIEWCTR
 10
210.0
 20
148.5
  9
$VIEWSIZE
 40
297.0
  9
$CLAYER
  8
0
  9
$LTSCALE
 40
23.1
  9
$CELTYPE
  6
BYLAYER
  9
$DIMSCALE
 40
1.0
  9
$DIMASZ
 40
3.0
  9
$DIMEXO
 40
1.0
  9
$DIMDLI
 40
15.96
  9
$DIMEXE
 40
1.0
  9
$DIMCEN
 40
3.78
  9
$DIMLFAC
 40
1.0
  9
$DIMBLK
  1
_FILLED
  9
$DIMALT
 70
0
  9
$DIMALTF
 40
0.0393700787
  9
$DIMTXT
 40
3.0
  9
$AUNITS
 70
0
  9
$PDMODE
 70
3
  9
$PDSIZE
 40
5.0
  9
$TILEMODE
 70
1
  0
ENDSEC
  0
SECTION
  2
TABLES
  0
TABLE
  2
LTYPE
 70
6
  0
LTYPE
  2
BYBLOCK
 70
0
  3

 72
65
 73
0
 40
0.0
  0
LTYPE
  2
BYLAYER
 70
0
  3

 72
65
 73
0
 40
0.0
  0
LTYPE
  2
CONTINUOUS
 70
64
  3
Solid line
 72
65
 73
0
 40
0.0
  0
LTYPE
  2
CENTER
 70
64
  3
____ _ ____ _ ____ _ ____ _ ____ _ ____ _ ____
 72
65
 73
4
 40
0.6
 49
0.375
 49
-0.075
 49
0.075
 49
-0.075
  0
LTYPE
  2
HIDDEN
 70
64
  3
- - - - - - - - - - - - - - - - - - - -
 72
65
 73
2
 40
0.2
 49
0.1
 49
-0.1
  0
LTYPE
  2
PHANTOM
 70
64
  3
_____ _ _ _____ _ _ _____ _ _ _____
 72
65
 73
6
 40
0.8
 49
0.45
 49
-0.05
 49
0.1
 49
-0.05
 49
0.1
 49
-0.05
  0
LTYPE
  2
DOT
 70
64
  3
. . . . . . . . . . . . . . . . . . . .
 72
65
 73
2
 40
0.2
 49
0.1
 49
-0.1
  0
LTYPE
  2
DASHED
 70
64
  3
- - - - - - - - - - - - - - - - - - - -
 72
65
 73
2
 40
0.2
 49
0.1
 49
-0.1
  0
ENDTAB
  0
TABLE
  2
LAYER
 70
36
  0
LAYER
  2
0
 70
0
 62
7
  6
CONTINUOUS
  0
LAYER
  2
DEFAULT_1
 70
0
 62
7
  6
CENTER
  0
LAYER
  2
DEFAULT_2
 70
0
 62
8
  6
HIDDEN
  0
LAYER
  2
DEFAULT_3
 70
0
 62
7
  6
PHANTOM
  0
LAYER
  2
0000_BOM
 70
0
 62
7
  6
CONTINUOUS
  0
LAYER
  2
0000_REV_TABLE
 70
0
 62
7
  6
CONTINUOUS
  0
LAYER
  2
0000_STEVENS_NOTE
 70
0
 62
7
  6
CONTINUOUS
  0
LAYER
  2
01_DATUM_PLANES
 70
0
 62
7
  6
CONTINUOUS
  0
LAYER
  2
01_DEF_PLANES
 70
0
 62
7
  6
CONTINUOUS
  0
LAYER
  2
02_DATUM_COS
 70
0
 62
7
  6
CONTINUOUS
  0
LAYER
  2
99_SOLID
 70
0
 62
7
  6
CONTINUOUS
  0
LAYER
  2
CAD-MASTER_ZINC-PL
 70
0
 62
7
  6
CONTINUOUS
  0
LAYER
  2
CURVE
 70
0
 62
7
  6
CONTINUOUS
  0
LAYER
  2
SKEL
 70
0
 62
7
  6
CONTINUOUS
  0
LAYER
  2
SKETCH
 70
0
 62
7
  6
CONTINUOUS
  0
LAYER
  2
SURFACE
 70
0
 62
7
  6
CONTINUOUS
  0
ENDTAB
  0
TABLE
  2
STYLE
 70
1
  0
STYLE
  2
STANDARD
 70
0
 40
0.0
 41
0.75
 50
0.0
 71
0
 42
0.2
  3
txt
  4

  0
STYLE
  2
TEXTSTYLE_1
 70
0
 40
0.0
 41
0.8
 50
0.0
 71
0
 42
0.2
  3
gdt
  4

  0
ENDTAB
  0
ENDSEC
  0
SECTION
  2
BLOCKS
  0
ENDSEC
  0
SECTION
  2
ENTITIES
  0
POLYLINE
  8
0
 62
7
  6
CONTINUOUS
 66
1
 70
0
  0
VERTEX
  8
0
 62
7
  6
CONTINUOUS
 10
5.1763139529
 20
-39.1058516323
  0
VERTEX
  8
0
 62
7
  6
CONTINUOUS
 10
5.1658097384
 20
-39.0595491537
  0
VERTEX
  8
0
 62
7
  6
CONTINUOUS
 10
5.1553166584
 20
-39.0043526299
  0
VERTEX
  8
0
 62
7
  6
CONTINUOUS
 10
5.1448129056
 20
-38.9402924975
  0
VERTEX
  8
0
 62
7
  6
CONTINUOUS
 10
5.1343100653
 20
-38.867379708
  0
VERTEX
  8
0
 62
7
  6
CONTINUOUS
 10
5.1238192899
 20
-38.7856203343
  0
VERTEX
  8
0
 62
7
  6
CONTINUOUS
 10
5.113318314
 20
-38.6950472617
  0
SEQEND
  0
POLYLINE
  8
0
 62
7
  6
CONTINUOUS
 66
1
 70
0
  0
VERTEX
  8
0
 62
7
  6
CONTINUOUS
 10
-4.6328838861
 20
-28.8941964978
  0
VERTEX
  8
0
 62
7
  6
CONTINUOUS
 10
-4.6166361346
 20
-29.31148818
  0
VERTEX
  8
0
 62
7
  6
CONTINUOUS
 10
-4.5823775809
 20
-29.7280241828
  0
VERTEX
  8
0
 62
7
  6
CONTINUOUS
 10
-4.5301702644
 20
-30.1430501955
  0
VERTEX
  8
0
 62
7
  6
CONTINUOUS
 10
-4.4601087279
 20
-30.5558146419
  0
VERTEX
  8
0
 62
7
  6
CONTINUOUS
 10
-4.3723198469
 20
-30.9655700411
  0
VERTEX
  8
0
 62
7
  6
CONTINUOUS
 10
-4.2669625995
 20
-31.3715743615
  0
VERTEX
  8
0
 62
7
  6
CONTINUOUS
 10
-4.1442277787
 20
-31.7730923644
  0
VERTEX
  8
0
 62
7
  6
CONTINUOUS
 10
-4.0043376465
 20
-32.1693969354
  0
VERTEX
  8
0
 62
7
  6
CONTINUOUS
 10
-3.847545532
 20
-32.5597704012
  0
VERTEX
  8
0
 62
7
  6
CONTINUOUS
 10
-3.6741353722
 20
-32.9435058291
  0
VERTEX
  8
0
 62
7
  6
CONTINUOUS
 10
-3.4844211979
 20
-33.3199083074
  0
VERTEX
  8
0
 62
7
  6
CONTINUOUS
 10
-3.2787465652
 20
-33.6882962038
  0
VERTEX
  8
0
 62
7
  6
CONTINUOUS
 10
-3.057483933
 20
-34.0480023996
  0
VERTEX
  8
0
 62
7
  6
CONTINUOUS
 10
-2.8210339888
 20
-34.3983754981
  0
VERTEX
  8
0
 62
7
  6
CONTINUOUS
 10
-2.5698249232
 20
-34.7387810038
  0
VERTEX
  8
0
 62
7
  6
CONTINUOUS
 10
-2.3043116541
 20
-35.0686024717
  0
VERTEX
  8
0
 62
7
  6
CONTINUOUS
 10
-2.024975003
 20
-35.3872426238
  0
VERTEX
  8
0
 62
7
  6
CONTINUOUS
 10
-1.7323208246
 20
-35.6941244302
  0
VERTEX
  8
0
 62
7
  6
CONTINUOUS
 10
-1.4268790902
 20
-35.9886921546
  0
VERTEX
  8
0
 62
7
  6
CONTINUOUS
 10
-1.1092029286
 20
-36.2704123603
  0
VERTEX
  8
0
 62
7
  6
CONTINUOUS
 10
-0.7798676237
 20
-36.5387748763
  0
VERTEX
  8
0
 62
7
  6
CONTINUOUS
 10
-0.4394695734
 20
-36.7932937214
  0
VERTEX
  8
0
 62
7
  6
CONTINUOUS
 10
-0.0886252092
 20
-37.0335079839
  0
VERTEX
  8
0
 62
7
  6
CONTINUOUS
 10
0.2720301201
 20
-37.2589826566
  0
VERTEX
  8
0
 62
7
  6
CONTINUOUS
 10
0.6418432989
 20
-37.4693094244
  0
VERTEX
  8
0
 62
7
  6
CONTINUOUS
 10
1.0201446275
 20
-37.6641074037
  0
VERTEX
  8
0
 62
7
  6
CONTINUOUS
 10
1.4062490348
 20
-37.8430238323
  0
VERTEX
  8
0
 62
7
  6
CONTINUOUS
 10
1.7994573191
 20
-38.0057347079
  0
VERTEX
  8
0
 62
7
  6
CONTINUOUS
 10
2.1990574143
 20
-38.1519453752
  0
VERTEX
  8
0
 62
7
  6
CONTINUOUS
 10
2.604325679
 20
-38.2813910595
  0
VERTEX
  8
0
 62
7
  6
CONTINUOUS
 10
3.0145282074
 20
-38.3938373458
  0
VERTEX
  8
0
 62
7
  6
CONTINUOUS
 10
3.4289221583
 20
-38.4890806035
  0
VERTEX
  8
0
 62
7
  6
CONTINUOUS
 10
3.8467571
 20
-38.5669483555
  0
VERTEX
  8
0
 62
7
  6
CONTINUOUS
 10
4.2672763695
 20
-38.6272995899
  0
VERTEX
  8
0
 62
7
  6
CONTINUOUS
 10
4.6897184429
 20
-38.670025016
  0
VERTEX
  8
0
 62
7
  6
CONTINUOUS
 10
5.113318314
 20
-38.6950472617
  0
SEQEND
  0
POLYLINE
  8
0
 62
7
  6
CONTINUOUS
 66
1
 70
0
  0
VERTEX
  8
0
 62
7
  6
CONTINUOUS
 10
-4.7856280333
 20
-29.1439047149
  0
VERTEX
  8
0
 62
7
  6
CONTINUOUS
 10
-4.7740880924
 20
-29.5536040442
  0
VERTEX
  8
0
 62
7
  6
CONTINUOUS
 10
-4.7457120481
 20
-29.9626101596
  0
VERTEX
  8
0
 62
7
  6
CONTINUOUS
 10
-4.7005479136
 20
-30.3702310188
  0
VERTEX
  8
0
 62
7
  6
CONTINUOUS
 10
-4.6386721054
 20
-30.7757769373
  0
VERTEX
  8
0
 62
7
  6
CONTINUOUS
 10
-4.5601893114
 20
-31.1785617563
  0
VERTEX
  8
0
 62
7
  6
CONTINUOUS
 10
-4.4652323333
 20
-31.5779039141
  0
VERTEX
  8
0
 62
7
  6
CONTINUOUS
 10
-4.3539618627
 20
-31.9731276509
  0
VERTEX
  8
0
 62
7
  6
CONTINUOUS
 10
-4.2265661461
 20
-32.3635643501
  0
VERTEX
  8
0
 62
7
  6
CONTINUOUS
 10
-4.0832606931
 20
-32.7485535
  0
VERTEX
  8
0
 62
7
  6
CONTINUOUS
 10
-3.9242880068
 20
-33.1274435926
  0
VERTEX
  8
0
 62
7
  6
CONTINUOUS
 10
-3.7499171074
 20
-33.4995934632
  0
VERTEX
  8
0
 62
7
  6
CONTINUOUS
 10
-3.5604430115
 20
-33.8643734876
  0
VERTEX
  8
0
 62
7
  6
CONTINUOUS
 10
-3.3561862952
 20
-34.2211664857
  0
VERTEX
  8
0
 62
7
  6
CONTINUOUS
 10
-3.137492567
 20
-34.5693687507
  0
VERTEX
  8
0
 62
7
  6
CONTINUOUS
 10
-2.9047318591
 20
-34.9083911206
  0
VERTEX
  8
0
 62
7
  6
CONTINUOUS
 10
-2.6582980021
 20
-35.2376599708
  0
VERTEX
  8
0
 62
7
  6
CONTINUOUS
 10
-2.398607962
 20
-35.5566181785
  0
VERTEX
  8
0
 62
7
  6
CONTINUOUS
 10
-2.1261011348
 20
-35.8647260659
  0
VERTEX
  8
0
 62
7
  6
CONTINUOUS
 10
-1.8412386025
 20
-36.1614623139
  0
VERTEX
  8
0
 62
7
  6
CONTINUOUS
 10
-1.5445023528
 20
-36.4463248446
  0
VERTEX
  8
0
 62
7
  6
CONTINUOUS
 10
-1.2363944635
 20
-36.7188316703
  0
VERTEX
  8
0
 62
7
  6
CONTINUOUS
 10
-0.9174362542
 20
-36.9785217086
  0
VERTEX
  8
0
 62
7
  6
CONTINUOUS
 10
-0.5881674037
 20
-37.2249555628
  0
VERTEX
  8
0
 62
7
  6
CONTINUOUS
 10
-0.2491450343
 20
-37.4577162676
  0
VERTEX
  8
0
 62
7
  6
CONTINUOUS
 10
0.0990572299
 20
-37.6764099927
  0
VERTEX
  8
0
 62
7
  6
CONTINUOUS
 10
0.4558502268
 20
-37.880666706
  0
VERTEX
  8
0
 62
7
  6
CONTINUOUS
 10
0.8206302505
 20
-38.0701407992
  0
VERTEX
  8
0
 62
7
  6
CONTINUOUS
 10
1.1927801199
 20
-38.2445116959
  0
VERTEX
  8
0
 62
7
  6
CONTINUOUS
 10
1.5716702105
 20
-38.4034843794
  0
VERTEX
  8
0
 62
7
  6
CONTINUOUS
 10
1.9566593577
 20
-38.5467898296
  0
VERTEX
  8
0
 62
7
  6
CONTINUOUS
 10
2.3470960532
 20
-38.6741855434
  0
VERTEX
  8
0
 62
7
  6
CONTINUOUS
 10
2.7423197857
 20
-38.7854560114
  0
VERTEX
  8
0
 62
7
  6
CONTINUOUS
 10
3.1416619388
 20
-38.8804129872
  0
VERTEX
  8
0
 62
7
  6
CONTINUOUS
 10
3.5444467528
 20
-38.9588957793
  0
VERTEX
  8
0
 62
7
  6
CONTINUOUS
 10
3.9499926669
 20
-39.0207715861
  0
VERTEX
  8
0
 62
7
  6
CONTINUOUS
 10
4.3576135207
 20
-39.0659357195
  0
VERTEX
  8
0
 62
7
  6
CONTINUOUS
 10
4.7666196283
 20
-39.0943117629
  0
VERTEX
  8
0
 62
7
  6
CONTINUOUS
 10
5.1763189477
 20
-39.1058517037
  0
SEQEND
  0
LINE
  8
0
 62
7
  6
CONTINUOUS
 10
-23.9672956164
 20
361.7124807131
 11
-23.9672956164
 21
-42.2875192869
  0
LINE
  8
0
 62
7
  6
CONTINUOUS
 10
-15.9672956164
 20
361.7124807131
 11
-15.9672956164
 21
-42.2875192869
  0
LINE
  8
0
 62
7
  6
CONTINUOUS
 10
-15.2979450086
 20
-31.6866641134
 11
-15.2979450086
 21
221.1116255396
  0
POLYLINE
  8
0
 62
7
  6
CONTINUOUS
 66
1
 70
0
  0
VERTEX
  8
0
 62
7
  6
CONTINUOUS
 10
-15.2979450086
 20
221.1116255396
  0
VERTEX
  8
0
 62
7
  6
CONTINUOUS
 10
-15.2861297541
 20
221.7596804912
  0
VERTEX
  8
0
 62
7
  6
CONTINUOUS
 10
-15.2517346201
 20
222.4026678659
  0
VERTEX
  8
0
 62
7
  6
CONTINUOUS
 10
-15.1947629786
 20
223.039954869
  0
VERTEX
  8
0
 62
7
  6
CONTINUOUS
 10
-15.1152047131
 20
223.6734398843
  0
VERTEX
  8
0
 62
7
  6
CONTINUOUS
 10
-15.0129548663
 20
224.3056612725
  0
VERTEX
  8
0
 62
7
  6
CONTINUOUS
 10
-14.888301332
 20
224.934066308
  0
VERTEX
  8
0
 62
7
  6
CONTINUOUS
 10
-14.7413921887
 20
225.5572078655
  0
VERTEX
  8
0
 62
7
  6
CONTINUOUS
 10
-14.5725419248
 20
226.1743075048
  0
VERTEX
  8
0
 62
7
  6
CONTINUOUS
 10
-14.3820088786
 20
226.7843211743
  0
VERTEX
  8
0
 62
7
  6
CONTINUOUS
 10
-14.1701095794
 20
227.386598582
  0
VERTEX
  8
0
 62
7
  6
CONTINUOUS
 10
-13.9371625973
 20
227.9802992514
  0
VERTEX
  8
0
 62
7
  6
CONTINUOUS
 10
-13.6834201487
 20
228.5649496843
  0
VERTEX
  8
0
 62
7
  6
CONTINUOUS
 10
-13.4091284342
 20
229.1400127862
  0
VERTEX
  8
0
 62
7
  6
CONTINUOUS
 10
-13.1146240715
 20
229.7048388685
  0
VERTEX
  8
0
 62
7
  6
CONTINUOUS
 10
-12.8001712747
 20
230.2588499605
  0
VERTEX
  8
0
 62
7
  6
CONTINUOUS
 10
-12.4662334555
 20
230.801293814
  0
VERTEX
  8
0
 62
7
  6
CONTINUOUS
 10
-12.1131896124
 20
231.3314537233
  0
VERTEX
  8
0
 62
7
  6
CONTINUOUS
 10
-11.7415571992
 20
231.8486450896
  0
VERTEX
  8
0
 62
7
  6
CONTINUOUS
 10
-11.3518143163
 20
232.3521305798
  0
VERTEX
  8
0
 62
7
  6
CONTINUOUS
 10
-10.9444580213
 20
232.8413516915
  0
VERTEX
  8
0
 62
7
  6
CONTINUOUS
 10
-10.5199768362
 20
233.3156745118
  0
VERTEX
  8
0
 62
7
  6
CONTINUOUS
 10
-10.0788744679
 20
233.7745879395
  0
VERTEX
  8
0
 62
7
  6
CONTINUOUS
 10
-9.621619414
 20
234.2175491106
  0
VERTEX
  8
0
 62
7
  6
CONTINUOUS
 10
-9.1488058244
 20
234.6440193998
  0
VERTEX
  8
0
 62
7
  6
CONTINUOUS
 10
-8.6609512056
 20
235.0534578128
  0
VERTEX
  8
0
 62
7
  6
CONTINUOUS
 10
-8.1587539852
 20
235.4453285927
  0
VERTEX
  8
0
 62
7
  6
CONTINUOUS
 10
-7.6428564314
 20
235.819060782
  0
VERTEX
  8
0
 62
7
  6
CONTINUOUS
 10
-7.1139445286
 20
236.1742189895
  0
VERTEX
  8
0
 62
7
  6
CONTINUOUS
 10
-6.5727344284
 20
236.5102801907
  0
VERTEX
  8
0
 62
7
  6
CONTINUOUS
 10
-6.0197778972
 20
236.8269363274
  0
VERTEX
  8
0
 62
7
  6
CONTINUOUS
 10
-5.4556868227
 20
237.1238041043
  0
VERTEX
  8
0
 62
7
  6
CONTINUOUS
 10
-4.8809969921
 20
237.4005862086
  0
VERTEX
  8
0
 62
7
  6
CONTINUOUS
 10
-4.296200113
 20
237.6569772389
  0
VERTEX
  8
0
 62
7
  6
CONTINUOUS
 10
-3.7020403117
 20
237.8926181652
  0
VERTEX
  8
0
 62
7
  6
CONTINUOUS
 10
-3.0989747289
 20
238.1071902403
  0
VERTEX
  8
0
 62
7
  6
CONTINUOUS
 10
-2.4883560298
 20
238.300267214
  0
VERTEX
  8
0
 62
7
  6
CONTINUOUS
 10
-1.8723483853
 20
238.4712131339
  0
VERTEX
  8
0
 62
7
  6
CONTINUOUS
 10
-1.2489744194
 20
238.6203383596
  0
VERTEX
  8
0
 62
7
  6
CONTINUOUS
 10
-0.6164104123
 20
238.7480044396
  0
VERTEX
  8
0
 62
7
  6
CONTINUOUS
 10
0.0236404334
 20
238.8534218549
  0
VERTEX
  8
0
 62
7
  6
CONTINUOUS
 10
0.6709018461
 20
238.9360538358
  0
VERTEX
  8
0
 62
7
  6
CONTINUOUS
 10
1.3229167527
 20
238.9955036826
  0
VERTEX
  8
0
 62
7
  6
CONTINUOUS
 10
1.9768173442
 20
239.0311238195
  0
VERTEX
  8
0
 62
7
  6
CONTINUOUS
 10
2.6335595571
 20
239.0431301052
  0
SEQEND
  0
POLYLINE
  8
0
 62
7
  6
CONTINUOUS
 66
1
 70
0
  0
VERTEX
  8
0
 62
7
  6
CONTINUOUS
 10
366.9520903476
 20
-38.6950482384
  0
VERTEX
  8
0
 62
7
  6
CONTINUOUS
 10
367.3756902337
 20
-38.6700260125
  0
VERTEX
  8
0
 62
7
  6
CONTINUOUS
 10
367.7981323226
 20
-38.6273006043
  0
VERTEX
  8
0
 62
7
  6
CONTINUOUS
 10
368.2186516082
 20
-38.5669493858
  0
VERTEX
  8
0
 62
7
  6
CONTINUOUS
 10
368.6364865663
 20
-38.4890816477
  0
VERTEX
  8
0
 62
7
  6
CONTINUOUS
 10
369.050880534
 20
-38.3938384018
  0
VERTEX
  8
0
 62
7
  6
CONTINUOUS
 10
369.4610830794
 20
-38.2813921254
  0
VERTEX
  8
0
 62
7
  6
CONTINUOUS
 10
369.8663513612
 20
-38.151946449
  0
VERTEX
  8
0
 62
7
  6
CONTINUOUS
 10
370.2659514736
 20
-38.0057357875
  0
VERTEX
  8
0
 62
7
  6
CONTINUOUS
 10
370.6591597751
 20
-37.8430249157
  0
VERTEX
  8
0
 62
7
  6
CONTINUOUS
 10
371.0452641995
 20
-37.6641084889
  0
VERTEX
  8
0
 62
7
  6
CONTINUOUS
 10
371.4235655451
 20
-37.4693105094
  0
VERTEX
  8
0
 62
7
  6
CONTINUOUS
 10
371.7933787406
 20
-37.2589837395
  0
VERTEX
  8
0
 62
7
  6
CONTINUOUS
 10
372.1540340863
 20
-37.0335090627
  0
VERTEX
  8
0
 62
7
  6
CONTINUOUS
 10
372.5048784665
 20
-36.7932947942
  0
VERTEX
  8
0
 62
7
  6
CONTINUOUS
 10
372.8452765323
 20
-36.5387759413
  0
VERTEX
  8
0
 62
7
  6
CONTINUOUS
 10
373.1746118521
 20
-36.2704134156
  0
VERTEX
  8
0
 62
7
  6
CONTINUOUS
 10
373.4922880281
 20
-35.9886931985
  0
VERTEX
  8
0
 62
7
  6
CONTINUOUS
 10
373.7977297761
 20
-35.694125461
  0
VERTEX
  8
0
 62
7
  6
CONTINUOUS
 10
374.0903839674
 20
-35.3872436398
  0
VERTEX
  8
0
 62
7
  6
CONTINUOUS
 10
374.3697206306
 20
-35.0686034714
  0
VERTEX
  8
0
 62
7
  6
CONTINUOUS
 10
374.635233911
 20
-34.7387819856
  0
VERTEX
  8
0
 62
7
  6
CONTINUOUS
 10
374.886442987
 20
-34.3983764606
  0
VERTEX
  8
0
 62
7
  6
CONTINUOUS
 10
375.1228929405
 20
-34.0480033415
  0
VERTEX
  8
0
 62
7
  6
CONTINUOUS
 10
375.344155581
 20
-33.6882971237
  0
VERTEX
  8
0
 62
7
  6
CONTINUOUS
 10
375.5498302211
 20
-33.3199092042
  0
VERTEX
  8
0
 62
7
  6
CONTINUOUS
 10
375.7395444016
 20
-32.9435067017
  0
VERTEX
  8
0
 62
7
  6
CONTINUOUS
 10
375.9129545665
 20
-32.5597712486
  0
VERTEX
  8
0
 62
7
  6
CONTINUOUS
 10
376.0697466849
 20
-32.1693977567
  0
VERTEX
  8
0
 62
7
  6
CONTINUOUS
 10
376.2096368198
 20
-31.7730931587
  0
VERTEX
  8
0
 62
7
  6
CONTINUOUS
 10
376.3323716422
 20
-31.3715751281
  0
VERTEX
  8
0
 62
7
  6
CONTINUOUS
 10
376.4377288898
 20
-30.9655707793
  0
VERTEX
  8
0
 62
7
  6
CONTINUOUS
 10
376.5255177699
 20
-30.5558153513
  0
VERTEX
  8
0
 62
7
  6
CONTINUOUS
 10
376.5955793041
 20
-30.1430508757
  0
VERTEX
  8
0
 62
7
  6
CONTINUOUS
 10
376.6477866173
 20
-29.7280248335
  0
VERTEX
  8
0
 62
7
  6
CONTINUOUS
 10
376.6820451662
 20
-29.3114888009
  0
VERTEX
  8
0
 62
7
  6
CONTINUOUS
 10
376.6982929118
 20
-28.8941970888
  0
SEQEND
  0
POLYLINE
  8
0
 62
7
  6
CONTINUOUS
 66
1
 70
0
  0
VERTEX
  8
0
 62
7
  6
CONTINUOUS
 10
366.8890898184
 20
-39.1058517027
  0
VERTEX
  8
0
 62
7
  6
CONTINUOUS
 10
367.2987891428
 20
-39.0943117617
  0
VERTEX
  8
0
 62
7
  6
CONTINUOUS
 10
367.7077952554
 20
-39.0659357176
  0
VERTEX
  8
0
 62
7
  6
CONTINUOUS
 10
368.1154161142
 20
-39.0207715831
  0
VERTEX
  8
0
 62
7
  6
CONTINUOUS
 10
368.5209620331
 20
-38.9588957749
  0
VERTEX
  8
0
 62
7
  6
CONTINUOUS
 10
368.9237468521
 20
-38.8804129809
  0
VERTEX
  8
0
 62
7
  6
CONTINUOUS
 10
369.3230890099
 20
-38.7854560027
  0
VERTEX
  8
0
 62
7
  6
CONTINUOUS
 10
369.7183127467
 20
-38.6741855322
  0
VERTEX
  8
0
 62
7
  6
CONTINUOUS
 10
370.1087494459
 20
-38.5467898156
  0
VERTEX
  8
0
 62
7
  6
CONTINUOUS
 10
370.4937385958
 20
-38.4034843625
  0
VERTEX
  8
0
 62
7
  6
CONTINUOUS
 10
370.8726286884
 20
-38.2445116762
  0
VERTEX
  8
0
 62
7
  6
CONTINUOUS
 10
371.244778559
 20
-38.0701407769
  0
VERTEX
  8
0
 62
7
  6
CONTINUOUS
 10
371.6095585834
 20
-37.880666681
  0
VERTEX
  8
0
 62
7
  6
CONTINUOUS
 10
371.9663515815
 20
-37.6764099647
  0
VERTEX
  8
0
 62
7
  6
CONTINUOUS
 10
372.3145538465
 20
-37.4577162364
  0
VERTEX
  8
0
 62
7
  6
CONTINUOUS
 10
372.6535762163
 20
-37.2249555286
  0
VERTEX
  8
0
 62
7
  6
CONTINUOUS
 10
372.9828450665
 20
-36.9785216716
  0
VERTEX
  8
0
 62
7
  6
CONTINUOUS
 10
373.3018032743
 20
-36.7188316315
  0
VERTEX
  8
0
 62
7
  6
CONTINUOUS
 10
373.6099111617
 20
-36.4463248043
  0
VERTEX
  8
0
 62
7
  6
CONTINUOUS
 10
373.9066474097
 20
-36.161462272
  0
VERTEX
  8
0
 62
7
  6
CONTINUOUS
 10
374.1915099403
 20
-35.8647260222
  0
VERTEX
  8
0
 62
7
  6
CONTINUOUS
 10
374.464016766
 20
-35.5566181329
  0
VERTEX
  8
0
 62
7
  6
CONTINUOUS
 10
374.7237068043
 20
-35.2376599237
  0
VERTEX
  8
0
 62
7
  6
CONTINUOUS
 10
374.9701406586
 20
-34.9083910732
  0
VERTEX
  8
0
 62
7
  6
CONTINUOUS
 10
375.2029013634
 20
-34.5693687037
  0
VERTEX
  8
0
 62
7
  6
CONTINUOUS
 10
375.4215950885
 20
-34.2211664396
  0
VERTEX
  8
0
 62
7
  6
CONTINUOUS
 10
375.6258518018
 20
-33.8643734426
  0
VERTEX
  8
0
 62
7
  6
CONTINUOUS
 10
375.8153258949
 20
-33.499593419
  0
VERTEX
  8
0
 62
7
  6
CONTINUOUS
 10
375.9896967916
 20
-33.1274435496
  0
VERTEX
  8
0
 62
7
  6
CONTINUOUS
 10
376.1486694751
 20
-32.748553459
  0
VERTEX
  8
0
 62
7
  6
CONTINUOUS
 10
376.2919749253
 20
-32.3635643118
  0
VERTEX
  8
0
 62
7
  6
CONTINUOUS
 10
376.4193706391
 20
-31.9731276163
  0
VERTEX
  8
0
 62
7
  6
CONTINUOUS
 10
376.5306411071
 20
-31.5779038837
  0
VERTEX
  8
0
 62
7
  6
CONTINUOUS
 10
376.6255980829
 20
-31.1785617307
  0
VERTEX
  8
0
 62
7
  6
CONTINUOUS
 10
376.704080875
 20
-30.7757769167
  0
VERTEX
  8
0
 62
7
  6
CONTINUOUS
 10
376.7659566817
 20
-30.3702310029
  0
VERTEX
  8
0
 62
7
  6
CONTINUOUS
 10
376.8111208152
 20
-29.9626101488
  0
VERTEX
  8
0
 62
7
  6
CONTINUOUS
 10
376.8394968587
 20
-29.5536040396
  0
VERTEX
  8
0
 62
7
  6
CONTINUOUS
 10
376.8510367994
 20
-29.1439047177
  0
SEQEND
  0
LINE
  8
0
 62
7
  6
CONTINUOUS
 10
-7.9672956164
 20
-58.2875192869
 11
380.0327043836
 21
-58.2875192869
  0
LINE
  8
0
 62
7
  6
CONTINUOUS
 10
-7.9672956164
 20
-50.2875192869
 11
380.0327043836
 21
-50.2875192869
  0
LINE
  8
0
 62
7
  6
CONTINUOUS
 10
369.4318492101
 20
-49.6181686791
 11
2.6335595571
 21
-49.6181686791
  0
POLYLINE
  8
0
 62
7
  6
CONTINUOUS
 66
1
 70
0
  0
VERTEX
  8
0
 62
7
  6
CONTINUOUS
 10
2.6335595571
 20
-41.6486110943
  0
VERTEX
  8
0
 62
7
  6
CONTINUOUS
 10
2.2716161265
 20
-41.6442910718
  0
VERTEX
  8
0
 62
7
  6
CONTINUOUS
 10
1.9121429882
 20
-41.6271097783
  0
VERTEX
  8
0
 62
7
  6
CONTINUOUS
 10
1.5561541555
 20
-41.5973484145
  0
VERTEX
  8
0
 62
7
  6
CONTINUOUS
 10
1.2023579936
 20
-41.5550599484
  0
VERTEX
  8
0
 62
7
  6
CONTINUOUS
 10
0.849345173
 20
-41.5000502748
  0
VERTEX
  8
0
 62
7
  6
CONTINUOUS
 10
0.4985464318
 20
-41.4324662357
  0
VERTEX
  8
0
 62
7
  6
CONTINUOUS
 10
0.1507578126
 20
-41.3524563991
  0
VERTEX
  8
0
 62
7
  6
CONTINUOUS
 10
-0.1935740371
 20
-41.2601418699
  0
VERTEX
  8
0
 62
7
  6
CONTINUOUS
 10
-0.5338786268
 20
-41.1557011478
  0
VERTEX
  8
0
 62
7
  6
CONTINUOUS
 10
-0.8697825938
 20
-41.0392818746
  0
VERTEX
  8
0
 62
7
  6
CONTINUOUS
 10
-1.2008257755
 20
-40.9110761497
  0
VERTEX
  8
0
 62
7
  6
CONTINUOUS
 10
-1.5267395787
 20
-40.7712163373
  0
VERTEX
  8
0
 62
7
  6
CONTINUOUS
 10
-1.8472281799
 20
-40.6198423781
  0
VERTEX
  8
0
 62
7
  6
CONTINUOUS
 10
-2.1619248543
 20
-40.4571320243
  0
VERTEX
  8
0
 62
7
  6
CONTINUOUS
 10
-2.4705147228
 20
-40.2832443453
  0
VERTEX
  8
0
 62
7
  6
CONTINUOUS
 10
-2.7725677765
 20
-40.0984163013
  0
VERTEX
  8
0
 62
7
  6
CONTINUOUS
 10
-3.0676986533
 20
-39.9028801977
  0
VERTEX
  8
0
 62
7
  6
CONTINUOUS
 10
-3.3555107523
 20
-39.6968995373
  0
VERTEX
  8
0
 62
7
  6
CONTINUOUS
 10
-3.6356094165
 20
-39.4807609047
  0
VERTEX
  8
0
 62
7
  6
CONTINUOUS
 10
-3.9076698229
 20
-39.2547220637
  0
VERTEX
  8
0
 62
7
  6
CONTINUOUS
 10
-4.1713522706
 20
-39.0190692106
  0
VERTEX
  8
0
 62
7
  6
CONTINUOUS
 10
-4.4263610825
 20
-38.7740689892
  0
VERTEX
  8
0
 62
7
  6
CONTINUOUS
 10
-4.672406529
 20
-38.5199942625
  0
VERTEX
  8
0
 62
7
  6
CONTINUOUS
 10
-4.9091753893
 20
-38.2571610161
  0
VERTEX
  8
0
 62
7
  6
CONTINUOUS
 10
-5.1363840149
 20
-37.9858725717
  0
VERTEX
  8
0
 62
7
  6
CONTINUOUS
 10
-5.3537147613
 20
-37.7064998147
  0
VERTEX
  8
0
 62
7
  6
CONTINUOUS
 10
-5.5608728111
 20
-37.4194174627
  0
VERTEX
  8
0
 62
7
  6
CONTINUOUS
 10
-5.7575953509
 20
-37.124991597
  0
VERTEX
  8
0
 62
7
  6
CONTINUOUS
 10
-5.9436110131
 20
-36.8236334779
  0
VERTEX
  8
0
 62
7
  6
CONTINUOUS
 10
-6.118736973
 20
-36.5156421249
  0
VERTEX
  8
0
 62
7
  6
CONTINUOUS
 10
-6.282768951
 20
-36.2013638126
  0
VERTEX
  8
0
 62
7
  6
CONTINUOUS
 10
-6.4355378199
 20
-35.8810925365
  0
VERTEX
  8
0
 62
7
  6
CONTINUOUS
 10
-6.576880919
 20
-35.5551075908
  0
VERTEX
  8
0
 62
7
  6
CONTINUOUS
 10
-6.7065873003
 20
-35.223814991
  0
VERTEX
  8
0
 62
7
  6
CONTINUOUS
 10
-6.8245087347
 20
-34.8874826846
  0
VERTEX
  8
0
 62
7
  6
CONTINUOUS
 10
-6.9303582705
 20
-34.546845243
  0
VERTEX
  8
0
 62
7
  6
CONTINUOUS
 10
-7.0237924603
 20
-34.2031185283
  0
VERTEX
  8
0
 62
7
  6
CONTINUOUS
 10
-7.1050953814
 20
-33.8552196481
  0
VERTEX
  8
0
 62
7
  6
CONTINUOUS
 10
-7.1743359751
 20
-33.5021099736
  0
VERTEX
  8
0
 62
7
  6
CONTINUOUS
 10
-7.2311030287
 20
-33.1447283844
  0
VERTEX
  8
0
 62
7
  6
CONTINUOUS
 10
-7.275156449
 20
-32.7832543237
  0
VERTEX
  8
0
 62
7
  6
CONTINUOUS
 10
-7.3061603493
 20
-32.4190307662
  0
VERTEX
  8
0
 62
7
  6
CONTINUOUS
 10
-7.3239227841
 20
-32.0534457066
  0
VERTEX
  8
0
 62
7
  6
CONTINUOUS
 10
-7.3283874238
 20
-31.6866641134
  0
SEQEND
  0
POLYLINE
  8
0
 62
7
  6
CONTINUOUS
 66
1
 70
0
  0
VERTEX
  8
0
 62
7
  6
CONTINUOUS
 10
2.6335595571
 20
-49.6181686791
  0
VERTEX
  8
0
 62
7
  6
CONTINUOUS
 10
1.9855046055
 20
-49.6063534246
  0
VERTEX
  8
0
 62
7
  6
CONTINUOUS
 10
1.3425172308
 20
-49.5719582906
  0
VERTEX
  8
0
 62
7
  6
CONTINUOUS
 10
0.7052302277
 20
-49.5149866491
  0
VERTEX
  8
0
 62
7
  6
CONTINUOUS
 10
0.0717452123
 20
-49.4354283836
  0
VERTEX
  8
0
 62
7
  6
CONTINUOUS
 10
-0.5604761758
 20
-49.3331785368
  0
VERTEX
  8
0
 62
7
  6
CONTINUOUS
 10
-1.1888812113
 20
-49.2085250025
  0
VERTEX
  8
0
 62
7
  6
CONTINUOUS
 10
-1.8120227689
 20
-49.0616158592
  0
VERTEX
  8
0
 62
7
  6
CONTINUOUS
 10
-2.4291224081
 20
-48.8927655953
  0
VERTEX
  8
0
 62
7
  6
CONTINUOUS
 10
-3.0391360776
 20
-48.702232549
  0
VERTEX
  8
0
 62
7
  6
CONTINUOUS
 10
-3.6414134853
 20
-48.4903332499
  0
VERTEX
  8
0
 62
7
  6
CONTINUOUS
 10
-4.2351141548
 20
-48.2573862678
  0
VERTEX
  8
0
 62
7
  6
CONTINUOUS
 10
-4.8197645876
 20
-48.0036438192
  0
VERTEX
  8
0
 62
7
  6
CONTINUOUS
 10
-5.3948276895
 20
-47.7293521047
  0
VERTEX
  8
0
 62
7
  6
CONTINUOUS
 10
-5.9596537718
 20
-47.4348477419
  0
VERTEX
  8
0
 62
7
  6
CONTINUOUS
 10
-6.5136648639
 20
-47.1203949451
  0
VERTEX
  8
0
 62
7
  6
CONTINUOUS
 10
-7.0561087173
 20
-46.786457126
  0
VERTEX
  8
0
 62
7
  6
CONTINUOUS
 10
-7.5862686266
 20
-46.4334132829
  0
VERTEX
  8
0
 62
7
  6
CONTINUOUS
 10
-8.103459993
 20
-46.0617808697
  0
VERTEX
  8
0
 62
7
  6
CONTINUOUS
 10
-8.6069454831
 20
-45.6720379868
  0
VERTEX
  8
0
 62
7
  6
CONTINUOUS
 10
-9.0961665948
 20
-45.2646816918
  0
VERTEX
  8
0
 62
7
  6
CONTINUOUS
 10
-9.5704894152
 20
-44.8402005067
  0
VERTEX
  8
0
 62
7
  6
CONTINUOUS
 10
-10.0294028428
 20
-44.3990981384
  0
VERTEX
  8
0
 62
7
  6
CONTINUOUS
 10
-10.4723640139
 20
-43.9418430845
  0
VERTEX
  8
0
 62
7
  6
CONTINUOUS
 10
-10.8988343032
 20
-43.4690294949
  0
VERTEX
  8
0
 62
7
  6
CONTINUOUS
 10
-11.3082727161
 20
-42.9811748761
  0
VERTEX
  8
0
 62
7
  6
CONTINUOUS
 10
-11.7001434961
 20
-42.4789776557
  0
VERTEX
  8
0
 62
7
  6
CONTINUOUS
 10
-12.0738756854
 20
-41.9630801019
  0
VERTEX
  8
0
 62
7
  6
CONTINUOUS
 10
-12.4290338928
 20
-41.4341681991
  0
VERTEX
  8
0
 62
7
  6
CONTINUOUS
 10
-12.765095094
 20
-40.8929580989
  0
VERTEX
  8
0
 62
7
  6
CONTINUOUS
 10
-13.0817512308
 20
-40.3400015676
  0
VERTEX
  8
0
 62
7
  6
CONTINUOUS
 10
-13.3786190077
 20
-39.7759104932
  0
VERTEX
  8
0
 62
7
  6
CONTINUOUS
 10
-13.6554011119
 20
-39.2012206626
  0
VERTEX
  8
0
 62
7
  6
CONTINUOUS
 10
-13.9117921423
 20
-38.6164237835
  0
VERTEX
  8
0
 62
7
  6
CONTINUOUS
 10
-14.1474330686
 20
-38.0222639822
  0
VERTEX
  8
0
 62
7
  6
CONTINUOUS
 10
-14.3620051436
 20
-37.4191983994
  0
VERTEX
  8
0
 62
7
  6
CONTINUOUS
 10
-14.5550821173
 20
-36.8085797003
  0
VERTEX
  8
0
 62
7
  6
CONTINUOUS
 10
-14.7260280372
 20
-36.1925720558
  0
VERTEX
  8
0
 62
7
  6
CONTINUOUS
 10
-14.8751532629
 20
-35.5691980899
  0
VERTEX
  8
0
 62
7
  6
CONTINUOUS
 10
-15.0028193429
 20
-34.9366340828
  0
VERTEX
  8
0
 62
7
  6
CONTINUOUS
 10
-15.1082367582
 20
-34.2965832371
  0
VERTEX
  8
0
 62
7
  6
CONTINUOUS
 10
-15.1908687391
 20
-33.6493218244
  0
VERTEX
  8
0
 62
7
  6
CONTINUOUS
 10
-15.2503185859
 20
-32.9973069178
  0
VERTEX
  8
0
 62
7
  6
CONTINUOUS
 10
-15.2859387229
 20
-32.3434063263
  0
VERTEX
  8
0
 62
7
  6
CONTINUOUS
 10
-15.2979450086
 20
-31.6866641134
  0
SEQEND
  0
POLYLINE
  8
0
 62
7
  6
CONTINUOUS
 66
1
 70
0
  0
VERTEX
  8
0
 62
7
  6
CONTINUOUS
 10
5.1133180264
 20
-38.6950446572
  0
VERTEX
  8
0
 62
7
  6
CONTINUOUS
 10
5.1037100402
 20
-38.5370624029
  0
VERTEX
  8
0
 62
7
  6
CONTINUOUS
 10
5.1074283337
 20
-38.3578599343
  0
VERTEX
  8
0
 62
7
  6
CONTINUOUS
 10
5.1245191155
 20
-38.1573959821
  0
VERTEX
  8
0
 62
7
  6
CONTINUOUS
 10
5.1548718697
 20
-37.9367442495
  0
VERTEX
  8
0
 62
7
  6
CONTINUOUS
 10
5.1981693285
 20
-37.6972344506
  0
VERTEX
  8
0
 62
7
  6
CONTINUOUS
 10
5.2541311001
 20
-37.4394069363
  0
VERTEX
  8
0
 62
7
  6
CONTINUOUS
 10
5.3221668916
 20
-37.1650173933
  0
VERTEX
  8
0
 62
7
  6
CONTINUOUS
 10
5.4026503228
 20
-36.8720415554
  0
VERTEX
  8
0
 62
7
  6
CONTINUOUS
 10
5.4963488085
 20
-36.55799004
  0
VERTEX
  8
0
 62
7
  6
CONTINUOUS
 10
5.6032062116
 20
-36.2235197271
  0
VERTEX
  8
0
 62
7
  6
CONTINUOUS
 10
5.7234029891
 20
-35.8684339207
  0
VERTEX
  8
0
 62
7
  6
CONTINUOUS
 10
5.8570490443
 20
-35.4927491588
  0
VERTEX
  8
0
 62
7
  6
CONTINUOUS
 10
6.0042607907
 20
-35.0964536977
  0
VERTEX
  8
0
 62
7
  6
CONTINUOUS
 10
6.1651609868
 20
-34.679506552
  0
VERTEX
  8
0
 62
7
  6
CONTINUOUS
 10
6.3398753104
 20
-34.2418625165
  0
VERTEX
  8
0
 62
7
  6
CONTINUOUS
 10
6.5284878342
 20
-33.7835734407
  0
VERTEX
  8
0
 62
7
  6
CONTINUOUS
 10
6.7310898197
 20
-33.304668294
  0
VERTEX
  8
0
 62
7
  6
CONTINUOUS
 10
6.9477333469
 20
-32.805258363
  0
VERTEX
  8
0
 62
7
  6
CONTINUOUS
 10
7.1784772266
 20
-32.2854320131
  0
VERTEX
  8
0
 62
7
  6
CONTINUOUS
 10
7.4233225134
 20
-31.7453961115
  0
VERTEX
  8
0
 62
7
  6
CONTINUOUS
 10
7.6822733556
 20
-31.1853392383
  0
VERTEX
  8
0
 62
7
  6
CONTINUOUS
 10
7.9552865668
 20
-30.6055391027
  0
VERTEX
  8
0
 62
7
  6
CONTINUOUS
 10
8.2423214415
 20
-30.0062560952
  0
VERTEX
  8
0
 62
7
  6
CONTINUOUS
 10
8.5432714412
 20
-29.3878741785
  0
VERTEX
  8
0
 62
7
  6
CONTINUOUS
 10
8.8580337501
 20
-28.750755386
  0
VERTEX
  8
0
 62
7
  6
CONTINUOUS
 10
9.1864389661
 20
-28.0953818796
  0
VERTEX
  8
0
 62
7
  6
CONTINUOUS
 10
9.5283237445
 20
-27.4222084829
  0
VERTEX
  8
0
 62
7
  6
CONTINUOUS
 10
9.8834401872
 20
-26.7318407034
  0
VERTEX
  8
0
 62
7
  6
CONTINUOUS
 10
10.2515463131
 20
-26.024855207
  0
VERTEX
  8
0
 62
7
  6
CONTINUOUS
 10
10.6323229918
 20
-25.3019607493
  0
VERTEX
  8
0
 62
7
  6
CONTINUOUS
 10
11.0254622087
 20
-24.5638275971
  0
VERTEX
  8
0
 62
7
  6
CONTINUOUS
 10
11.4305460811
 20
-23.811313336
  0
VERTEX
  8
0
 62
7
  6
CONTINUOUS
 10
11.8471533217
 20
-23.0452608378
  0
VERTEX
  8
0
 62
7
  6
CONTINUOUS
 10
12.2748365661
 20
-22.2665475248
  0
VERTEX
  8
0
 62
7
  6
CONTINUOUS
 10
12.7131785046
 20
-21.4759811664
  0
VERTEX
  8
0
 62
7
  6
CONTINUOUS
 10
13.1615269859
 20
-20.6747634109
  0
VERTEX
  8
0
 62
7
  6
CONTINUOUS
 10
13.619184946
 20
-19.8641471206
  0
VERTEX
  8
0
 62
7
  6
CONTINUOUS
 10
14.0857255712
 20
-19.0449094772
  0
VERTEX
  8
0
 62
7
  6
CONTINUOUS
 10
14.5595223216
 20
-18.2198992459
  0
VERTEX
  8
0
 62
7
  6
CONTINUOUS
 10
15.0433181199
 20
-17.384341953
  0
VERTEX
  8
0
 62
7
  6
CONTINUOUS
 10
15.5399354078
 20
-16.5335312809
  0
VERTEX
  8
0
 62
7
  6
CONTINUOUS
 10
16.0483537822
 20
-15.6695690624
  0
SEQEND
  0
LINE
  8
0
 62
7
  6
CONTINUOUS
 10
-3.9684178668
 20
194.3235304669
 11
-4.0150325312
 21
217.7982706469
  0
LINE
  8
0
 62
7
  6
CONTINUOUS
 10
-3.9494586837
 20
182.6667293769
 11
-3.9684178668
 21
194.3235304669
  0
LINE
  8
0
 62
7
  6
CONTINUOUS
 10
-3.9350867507
 20
171.3852380461
 11
-3.9494586837
 21
182.6667293769
  0
LINE
  8
0
 62
7
  6
CONTINUOUS
 10
-3.925625039
 20
160.2475594476
 11
-3.9350867507
 21
171.3852380461
  0
LINE
  8
0
 62
7
  6
CONTINUOUS
 10
-3.9216503369
 20
149.1764964994
 11
-3.925625039
 21
160.2475594476
  0
LINE
  8
0
 62
7
  6
CONTINUOUS
 10
-7.9672956164
 20
-50.2875192869
 11
-7.9672956164
 21
-58.2875192869
  0
LINE
  8
0
 62
7
  6
CONTINUOUS
 10
-7.3283874238
 20
-31.6866641134
 11
-7.3283874238
 21
221.1116255396
  0
LINE
  8
0
 62
7
  6
CONTINUOUS
 10
2.6335595571
 20
239.0431301052
 11
2.6335595571
 21
231.0735725205
  0
LINE
  8
0
 62
7
  6
CONTINUOUS
 10
2.6335595571
 20
-49.6181686791
 11
2.6335595571
 21
-41.6486110943
  0
LINE
  8
0
 62
7
  6
CONTINUOUS
 10
-3.9237303724
 20
138.1207216506
 11
-3.9216503369
 21
149.1764964994
  0
POLYLINE
  8
0
 62
7
  6
CONTINUOUS
 66
1
 70
0
  0
VERTEX
  8
0
 62
7
  6
CONTINUOUS
 10
-3.9702851746
 20
104.8899343625
  0
VERTEX
  8
0
 62
7
  6
CONTINUOUS
 10
-3.9582027276
 20
110.4331320488
  0
VERTEX
  8
0
 62
7
  6
CONTINUOUS
 10
-3.9478427724
 20
115.975570948
  0
VERTEX
  8
0
 62
7
  6
CONTINUOUS
 10
-3.9392353405
 20
121.5161682821
  0
VERTEX
  8
0
 62
7
  6
CONTINUOUS
 10
-3.9323551159
 20
127.0543566661
  0
VERTEX
  8
0
 62
7
  6
CONTINUOUS
 10
-3.9237303724
 20
138.1207216506
  0
SEQEND
  0
LINE
  8
0
 62
7
  6
CONTINUOUS
 10
-3.9995527666
 20
93.8050783465
 11
-3.9702851746
 21
104.8899343625
  0
LINE
  8
0
 62
7
  6
CONTINUOUS
 10
-4.0353334115
 20
82.7265634153
 11
-3.9995527666
 21
93.8050783465
  0
LINE
  8
0
 62
7
  6
CONTINUOUS
 10
-4.0771971849
 20
71.6515201008
 11
-4.0353334115
 21
82.7265634153
  0
LINE
  8
0
 62
7
  6
CONTINUOUS
 10
-4.1246452248
 20
60.5698546569
 11
-4.0771971849
 21
71.6515201008
  0
LINE
  8
0
 62
7
  6
CONTINUOUS
 10
-4.1770775622
 20
49.4798581745
 11
-4.1246452248
 21
60.5698546569
  0
LINE
  8
0
 62
7
  6
CONTINUOUS
 10
-4.2337655053
 20
38.3952411834
 11
-4.1770775622
 21
49.4798581745
  0
LINE
  8
0
 62
7
  6
CONTINUOUS
 10
-4.3251519313
 20
21.7993117023
 11
-4.2337655053
 21
38.3952411834
  0
LINE
  8
0
 62
7
  6
CONTINUOUS
 10
-4.3894859675
 20
10.7304293155
 11
-4.3251519313
 21
21.7993117023
  0
LINE
  8
0
 62
7
  6
CONTINUOUS
 10
-4.4561587479
 20
-0.394049252
 11
-4.3894859675
 21
10.7304293155
  0
POLYLINE
  8
0
 62
7
  6
CONTINUOUS
 66
1
 70
0
  0
VERTEX
  8
0
 62
7
  6
CONTINUOUS
 10
-4.6328828196
 20
-28.8941942971
  0
VERTEX
  8
0
 62
7
  6
CONTINUOUS
 10
-4.5964233882
 20
-23.0966541321
  0
VERTEX
  8
0
 62
7
  6
CONTINUOUS
 10
-4.560514708
 20
-17.3482369459
  0
VERTEX
  8
0
 62
7
  6
CONTINUOUS
 10
-4.5251467936
 20
-11.6504434402
  0
VERTEX
  8
0
 62
7
  6
CONTINUOUS
 10
-4.4561587479
 20
-0.394049252
  0
SEQEND
  0
POLYLINE
  8
0
 62
7
  6
CONTINUOUS
 66
1
 70
0
  0
VERTEX
  8
0
 62
7
  6
CONTINUOUS
 10
-7.3283874238
 20
221.1116255396
  0
VERTEX
  8
0
 62
7
  6
CONTINUOUS
 10
-7.3240674013
 20
221.4735689702
  0
VERTEX
  8
0
 62
7
  6
CONTINUOUS
 10
-7.3068861078
 20
221.8330421085
  0
VERTEX
  8
0
 62
7
  6
CONTINUOUS
 10
-7.277124744
 20
222.1890309412
  0
VERTEX
  8
0
 62
7
  6
CONTINUOUS
 10
-7.2348362779
 20
222.542827103
  0
VERTEX
  8
0
 62
7
  6
CONTINUOUS
 10
-7.1798266043
 20
222.8958399237
  0
VERTEX
  8
0
 62
7
  6
CONTINUOUS
 10
-7.1122425653
 20
223.2466386648
  0
VERTEX
  8
0
 62
7
  6
CONTINUOUS
 10
-7.0322327286
 20
223.594427284
  0
VERTEX
  8
0
 62
7
  6
CONTINUOUS
 10
-6.9399181994
 20
223.9387591337
  0
VERTEX
  8
0
 62
7
  6
CONTINUOUS
 10
-6.8354774773
 20
224.2790637235
  0
VERTEX
  8
0
 62
7
  6
CONTINUOUS
 10
-6.7190582041
 20
224.6149676905
  0
VERTEX
  8
0
 62
7
  6
CONTINUOUS
 10
-6.5908524792
 20
224.9460108722
  0
VERTEX
  8
0
 62
7
  6
CONTINUOUS
 10
-6.4509926668
 20
225.2719246754
  0
VERTEX
  8
0
 62
7
  6
CONTINUOUS
 10
-6.2996187076
 20
225.5924132765
  0
VERTEX
  8
0
 62
7
  6
CONTINUOUS
 10
-6.1369083538
 20
225.907109951
  0
VERTEX
  8
0
 62
7
  6
CONTINUOUS
 10
-5.9630206748
 20
226.2156998194
  0
VERTEX
  8
0
 62
7
  6
CONTINUOUS
 10
-5.7781926308
 20
226.5177528731
  0
VERTEX
  8
0
 62
7
  6
CONTINUOUS
 10
-5.5826565272
 20
226.81288375
  0
VERTEX
  8
0
 62
7
  6
CONTINUOUS
 10
-5.3766758668
 20
227.100695849
  0
VERTEX
  8
0
 62
7
  6
CONTINUOUS
 10
-5.1605372342
 20
227.3807945131
  0
VERTEX
  8
0
 62
7
  6
CONTINUOUS
 10
-4.9344983932
 20
227.6528549196
  0
VERTEX
  8
0
 62
7
  6
CONTINUOUS
 10
-4.6988455401
 20
227.9165373672
  0
VERTEX
  8
0
 62
7
  6
CONTINUOUS
 10
-4.4538453187
 20
228.1715461792
  0
VERTEX
  8
0
 62
7
  6
CONTINUOUS
 10
-4.199770592
 20
228.4175916257
  0
VERTEX
  8
0
 62
7
  6
CONTINUOUS
 10
-3.9369373456
 20
228.654360486
  0
VERTEX
  8
0
 62
7
  6
CONTINUOUS
 10
-3.6656489012
 20
228.8815691116
  0
VERTEX
  8
0
 62
7
  6
CONTINUOUS
 10
-3.3862761442
 20
229.098899858
  0
VERTEX
  8
0
 62
7
  6
CONTINUOUS
 10
-3.0991937922
 20
229.3060579078
  0
VERTEX
  8
0
 62
7
  6
CONTINUOUS
 10
-2.8047679266
 20
229.5027804476
  0
VERTEX
  8
0
 62
7
  6
CONTINUOUS
 10
-2.5034098074
 20
229.6887961097
  0
VERTEX
  8
0
 62
7
  6
CONTINUOUS
 10
-2.1954184544
 20
229.8639220696
  0
VERTEX
  8
0
 62
7
  6
CONTINUOUS
 10
-1.8811401421
 20
230.0279540477
  0
VERTEX
  8
0
 62
7
  6
CONTINUOUS
 10
-1.560868866
 20
230.1807229166
  0
VERTEX
  8
0
 62
7
  6
CONTINUOUS
 10
-1.2348839203
 20
230.3220660157
  0
VERTEX
  8
0
 62
7
  6
CONTINUOUS
 10
-0.9035913205
 20
230.451772397
  0
VERTEX
  8
0
 62
7
  6
CONTINUOUS
 10
-0.5672590141
 20
230.5696938313
  0
VERTEX
  8
0
 62
7
  6
CONTINUOUS
 10
-0.2266215725
 20
230.6755433671
  0
VERTEX
  8
0
 62
7
  6
CONTINUOUS
 10
0.1171051422
 20
230.768977557
  0
VERTEX
  8
0
 62
7
  6
CONTINUOUS
 10
0.4650040224
 20
230.850280478
  0
VERTEX
  8
0
 62
7
  6
CONTINUOUS
 10
0.8181136969
 20
230.9195210718
  0
VERTEX
  8
0
 62
7
  6
CONTINUOUS
 10
1.1754952861
 20
230.9762881253
  0
VERTEX
  8
0
 62
7
  6
CONTINUOUS
 10
1.5369693468
 20
231.0203415457
  0
VERTEX
  8
0
 62
7
  6
CONTINUOUS
 10
1.9011929043
 20
231.0513454459
  0
VERTEX
  8
0
 62
7
  6
CONTINUOUS
 10
2.2667779639
 20
231.0691078807
  0
VERTEX
  8
0
 62
7
  6
CONTINUOUS
 10
2.6335595571
 20
231.0735725205
  0
SEQEND
  0
LINE
  8
0
 62
7
  6
CONTINUOUS
 10
-15.9672956164
 20
-42.2875192869
 11
-23.9672956164
 21
-42.2875192869
  0
LINE
  8
0
 62
7
  6
CONTINUOUS
 10
388.0327043836
 20
-42.2875192869
 11
396.0327043836
 21
-42.2875192869
  0
LINE
  8
0
 62
7
  6
CONTINUOUS
 10
369.4318492101
 20
-41.6486110943
 11
2.6335595571
 21
-41.6486110943
  0
LINE
  8
0
 62
7
  6
CONTINUOUS
 10
387.3633537757
 20
-31.6866641134
 11
379.393796191
 21
-31.6866641134
  0
LINE
  8
0
 62
7
  6
CONTINUOUS
 10
-15.2979450086
 20
-31.6866641134
 11
-7.3283874238
 21
-31.6866641134
  0
POLYLINE
  8
0
 62
7
  6
CONTINUOUS
 66
1
 70
0
  0
VERTEX
  8
0
 62
7
  6
CONTINUOUS
 10
366.889085963
 20
-39.1058478473
  0
VERTEX
  8
0
 62
7
  6
CONTINUOUS
 10
358.0085956526
 20
-38.9591693455
  0
VERTEX
  8
0
 62
7
  6
CONTINUOUS
 10
349.1078535225
 20
-38.8198704071
  0
VERTEX
  8
0
 62
7
  6
CONTINUOUS
 10
340.1862121875
 20
-38.6879392695
  0
VERTEX
  8
0
 62
7
  6
CONTINUOUS
 10
331.2456138038
 20
-38.56341122
  0
VERTEX
  8
0
 62
7
  6
CONTINUOUS
 10
322.2874407963
 20
-38.4463128121
  0
VERTEX
  8
0
 62
7
  6
CONTINUOUS
 10
313.3127249741
 20
-38.3366584838
  0
VERTEX
  8
0
 62
7
  6
CONTINUOUS
 10
304.3225845603
 20
-38.2344669659
  0
VERTEX
  8
0
 62
7
  6
CONTINUOUS
 10
295.3181427381
 20
-38.1397519346
  0
VERTEX
  8
0
 62
7
  6
CONTINUOUS
 10
286.3005156168
 20
-38.0525295459
  0
VERTEX
  8
0
 62
7
  6
CONTINUOUS
 10
277.2708426407
 20
-37.9728110925
  0
VERTEX
  8
0
 62
7
  6
CONTINUOUS
 10
268.2302533192
 20
-37.9006103337
  0
VERTEX
  8
0
 62
7
  6
CONTINUOUS
 10
259.1798935658
 20
-37.8359360259
  0
VERTEX
  8
0
 62
7
  6
CONTINUOUS
 10
250.1209019939
 20
-37.7787994459
  0
VERTEX
  8
0
 62
7
  6
CONTINUOUS
 10
241.0544300129
 20
-37.7292067922
  0
VERTEX
  8
0
 62
7
  6
CONTINUOUS
 10
231.9816241867
 20
-37.6871668177
  0
VERTEX
  8
0
 62
7
  6
CONTINUOUS
 10
222.903637665
 20
-37.6526831353
  0
VERTEX
  8
0
 62
7
  6
CONTINUOUS
 10
213.8216212062
 20
-37.6257619323
  0
VERTEX
  8
0
 62
7
  6
CONTINUOUS
 10
204.7367285476
 20
-37.6064042385
  0
VERTEX
  8
0
 62
7
  6
CONTINUOUS
 10
195.6501127207
 20
-37.5946136625
  0
VERTEX
  8
0
 62
7
  6
CONTINUOUS
 10
186.5629266008
 20
-37.5903886549
  0
VERTEX
  8
0
 62
7
  6
CONTINUOUS
 10
177.4763241828
 20
-37.5937302413
  0
VERTEX
  8
0
 62
7
  6
CONTINUOUS
 10
168.3914551392
 20
-37.6046343048
  0
VERTEX
  8
0
 62
7
  6
CONTINUOUS
 10
159.3094711701
 20
-37.623099296
  0
VERTEX
  8
0
 62
7
  6
CONTINUOUS
 10
150.2315201872
 20
-37.6491185384
  0
VERTEX
  8
0
 62
7
  6
CONTINUOUS
 10
141.1587581499
 20
-37.6826878794
  0
VERTEX
  8
0
 62
7
  6
CONTINUOUS
 10
132.0923126153
 20
-37.723798198
  0
VERTEX
  8
0
 62
7
  6
CONTINUOUS
 10
123.0333086737
 20
-37.7724429499
  0
VERTEX
  8
0
 62
7
  6
CONTINUOUS
 10
113.9829096861
 20
-37.8286102524
  0
VERTEX
  8
0
 62
7
  6
CONTINUOUS
 10
104.942262221
 20
-37.8922909671
  0
VERTEX
  8
0
 62
7
  6
CONTINUOUS
 10
95.9125417466
 20
-37.9634703166
  0
VERTEX
  8
0
 62
7
  6
CONTINUOUS
 10
86.8944929176
 20
-38.0421412911
  0
VERTEX
  8
0
 62
7
  6
CONTINUOUS
 10
77.8905547427
 20
-38.1282714494
  0
VERTEX
  8
0
 62
7
  6
CONTINUOUS
 10
68.9135353071
 20
-38.2216945214
  0
VERTEX
  8
0
 62
7
  6
CONTINUOUS
 10
59.9330720366
 20
-38.3228049847
  0
VERTEX
  8
0
 62
7
  6
CONTINUOUS
 10
50.9327617308
 20
-38.4317386158
  0
VERTEX
  8
0
 62
7
  6
CONTINUOUS
 10
41.8835343539
 20
-38.5491052481
  0
VERTEX
  8
0
 62
7
  6
CONTINUOUS
 10
32.7284300898
 20
-38.6758242599
  0
VERTEX
  8
0
 62
7
  6
CONTINUOUS
 10
23.5347150792
 20
-38.8111027931
  0
VERTEX
  8
0
 62
7
  6
CONTINUOUS
 10
14.3567037993
 20
-38.954393649
  0
VERTEX
  8
0
 62
7
  6
CONTINUOUS
 10
5.1762914244
 20
-39.105879227
  0
SEQEND
  0
LINE
  8
0
 62
7
  6
CONTINUOUS
 10
18.2832588916
 20
192.900296877
 11
18.5230158467
 21
218.6333406452
  0
LINE
  8
0
 62
7
  6
CONTINUOUS
 10
18.0703117443
 20
170.4945422261
 11
18.2832588916
 21
192.900296877
  0
LINE
  8
0
 62
7
  6
CONTINUOUS
 10
17.7868499503
 20
141.5622236485
 11
18.0703117443
 21
170.4945422261
  0
LINE
  8
0
 62
7
  6
CONTINUOUS
 10
17.6076515293
 20
123.8488344706
 11
17.7868499503
 21
141.5622236485
  0
LINE
  8
0
 62
7
  6
CONTINUOUS
 10
17.42654349
 20
106.3936534906
 11
17.6076515293
 21
123.8488344706
  0
LINE
  8
0
 62
7
  6
CONTINUOUS
 10
17.2370092763
 20
88.5784782136
 11
17.42654349
 21
106.3936534906
  0
LINE
  8
0
 62
7
  6
CONTINUOUS
 10
17.031906464
 20
69.7723103504
 11
17.2370092763
 21
88.5784782136
  0
LINE
  8
0
 62
7
  6
CONTINUOUS
 10
16.8004990549
 20
49.068456884
 11
17.031906464
 21
69.7723103504
  0
POLYLINE
  8
0
 62
7
  6
CONTINUOUS
 66
1
 70
0
  0
VERTEX
  8
0
 62
7
  6
CONTINUOUS
 10
16.3782667522
 20
12.367943753
  0
VERTEX
  8
0
 62
7
  6
CONTINUOUS
 10
16.5297174641
 20
25.404739881
  0
VERTEX
  8
0
 62
7
  6
CONTINUOUS
 10
16.8004990549
 20
49.068456884
  0
SEQEND
  0
LINE
  8
0
 62
7
  6
CONTINUOUS
 10
16.0482837267
 20
-15.6696345329
 11
16.3782667522
 21
12.367943753
  0
POLYLINE
  8
0
 62
7
  6
CONTINUOUS
 66
1
 70
0
  0
VERTEX
  8
0
 62
7
  6
CONTINUOUS
 10
19.2802389297
 20
226.4101458328
  0
VERTEX
  8
0
 62
7
  6
CONTINUOUS
 10
19.2454929738
 20
226.370201832
  0
VERTEX
  8
0
 62
7
  6
CONTINUOUS
 10
19.2108193169
 20
226.3137579874
  0
VERTEX
  8
0
 62
7
  6
CONTINUOUS
 10
19.1762901075
 20
226.2409317467
  0
VERTEX
  8
0
 62
7
  6
CONTINUOUS
 10
19.1419771936
 20
226.1518746459
  0
VERTEX
  8
0
 62
7
  6
CONTINUOUS
 10
19.1079519731
 20
226.0467719939
  0
VERTEX
  8
0
 62
7
  6
CONTINUOUS
 10
19.0742852452
 20
225.9258424872
  0
VERTEX
  8
0
 62
7
  6
CONTINUOUS
 10
19.0410470633
 20
225.7893377544
  0
VERTEX
  8
0
 62
7
  6
CONTINUOUS
 10
19.0083065889
 20
225.6375418328
  0
VERTEX
  8
0
 62
7
  6
CONTINUOUS
 10
18.9761319481
 20
225.4707705778
  0
VERTEX
  8
0
 62
7
  6
CONTINUOUS
 10
18.9445900894
 20
225.2893710048
  0
VERTEX
  8
0
 62
7
  6
CONTINUOUS
 10
18.9137466448
 20
225.0937205679
  0
VERTEX
  8
0
 62
7
  6
CONTINUOUS
 10
18.8836657929
 20
224.8842263742
  0
VERTEX
  8
0
 62
7
  6
CONTINUOUS
 10
18.8544101256
 20
224.6613243367
  0
VERTEX
  8
0
 62
7
  6
CONTINUOUS
 10
18.8260405177
 20
224.4254782672
  0
VERTEX
  8
0
 62
7
  6
CONTINUOUS
 10
18.7986160004
 20
224.1771789115
  0
VERTEX
  8
0
 62
7
  6
CONTINUOUS
 10
18.7721936383
 20
223.9169429277
  0
VERTEX
  8
0
 62
7
  6
CONTINUOUS
 10
18.7468284106
 20
223.6453118118
  0
VERTEX
  8
0
 62
7
  6
CONTINUOUS
 10
18.7225730971
 20
223.3628507704
  0
VERTEX
  8
0
 62
7
  6
CONTINUOUS
 10
18.6994781679
 20
223.0701475452
  0
VERTEX
  8
0
 62
7
  6
CONTINUOUS
 10
18.6775916786
 20
222.7678111894
  0
VERTEX
  8
0
 62
7
  6
CONTINUOUS
 10
18.6569591704
 20
222.4564708008
  0
VERTEX
  8
0
 62
7
  6
CONTINUOUS
 10
18.6376235752
 20
222.1367742127
  0
VERTEX
  8
0
 62
7
  6
CONTINUOUS
 10
18.6196251262
 20
221.8093866458
  0
VERTEX
  8
0
 62
7
  6
CONTINUOUS
 10
18.6030012743
 20
221.4749893243
  0
VERTEX
  8
0
 62
7
  6
CONTINUOUS
 10
18.5877866104
 20
221.134278058
  0
VERTEX
  8
0
 62
7
  6
CONTINUOUS
 10
18.5740127928
 20
220.7879617947
  0
VERTEX
  8
0
 62
7
  6
CONTINUOUS
 10
18.5617084821
 20
220.4367611452
  0
VERTEX
  8
0
 62
7
  6
CONTINUOUS
 10
18.5508992807
 20
220.0814068834
  0
VERTEX
  8
0
 62
7
  6
CONTINUOUS
 10
18.5416076804
 20
219.7226384261
  0
VERTEX
  8
0
 62
7
  6
CONTINUOUS
 10
18.533853015
 20
219.3612022944
  0
VERTEX
  8
0
 62
7
  6
CONTINUOUS
 10
18.5230158007
 20
218.6333392812
  0
SEQEND
  0
POLYLINE
  8
0
 62
7
  6
CONTINUOUS
 66
1
 70
0
  0
VERTEX
  8
0
 62
7
  6
CONTINUOUS
 10
356.0170503366
 20
-15.6695653486
  0
VERTEX
  8
0
 62
7
  6
CONTINUOUS
 10
347.1968593514
 20
-15.4950799659
  0
VERTEX
  8
0
 62
7
  6
CONTINUOUS
 10
338.3587586339
 20
-15.3298539716
  0
VERTEX
  8
0
 62
7
  6
CONTINUOUS
 10
329.5033359987
 20
-15.1738727532
  0
VERTEX
  8
0
 62
7
  6
CONTINUOUS
 10
320.6317621257
 20
-15.0271801351
  0
VERTEX
  8
0
 62
7
  6
CONTINUOUS
 10
311.7450645523
 20
-14.8898074768
  0
VERTEX
  8
0
 62
7
  6
CONTINUOUS
 10
302.844271162
 20
-14.7617775618
  0
VERTEX
  8
0
 62
7
  6
CONTINUOUS
 10
293.9304085469
 20
-14.6431171875
  0
VERTEX
  8
0
 62
7
  6
CONTINUOUS
 10
285.0045170906
 20
-14.5338456728
  0
VERTEX
  8
0
 62
7
  6
CONTINUOUS
 10
276.0676329358
 20
-14.433986104
  0
VERTEX
  8
0
 62
7
  6
CONTINUOUS
 10
267.1208029186
 20
-14.3435539786
  0
VERTEX
  8
0
 62
7
  6
CONTINUOUS
 10
258.1650705113
 20
-14.2625686069
  0
VERTEX
  8
0
 62
7
  6
CONTINUOUS
 10
249.2014879621
 20
-14.1910416383
  0
VERTEX
  8
0
 62
7
  6
CONTINUOUS
 10
240.2311053067
 20
-14.128988569
  0
VERTEX
  8
0
 62
7
  6
CONTINUOUS
 10
231.2549771284
 20
-14.0764171694
  0
VERTEX
  8
0
 62
7
  6
CONTINUOUS
 10
222.2741571048
 20
-14.0333390778
  0
VERTEX
  8
0
 62
7
  6
CONTINUOUS
 10
213.2897008878
 20
-13.9997581881
  0
VERTEX
  8
0
 62
7
  6
CONTINUOUS
 10
204.3026638142
 20
-13.9756822659
  0
VERTEX
  8
0
 62
7
  6
CONTINUOUS
 10
195.3141018253
 20
-13.9611113355
  0
VERTEX
  8
0
 62
7
  6
CONTINUOUS
 10
186.3250713867
 20
-13.9560492878
  0
VERTEX
  8
0
 62
7
  6
CONTINUOUS
 10
177.3366260068
 20
-13.9604922895
  0
VERTEX
  8
0
 62
7
  6
CONTINUOUS
 10
168.3498186969
 20
-13.9744403691
  0
VERTEX
  8
0
 62
7
  6
CONTINUOUS
 10
159.3657055939
 20
-13.9978858327
  0
VERTEX
  8
0
 62
7
  6
CONTINUOUS
 10
150.3853489096
 20
-14.0308247956
  0
VERTEX
  8
0
 62
7
  6
CONTINUOUS
 10
141.409780045
 20
-14.0732458591
  0
VERTEX
  8
0
 62
7
  6
CONTINUOUS
 10
132.4400158414
 20
-14.1251415778
  0
VERTEX
  8
0
 62
7
  6
CONTINUOUS
 10
123.4771573859
 20
-14.1864962086
  0
VERTEX
  8
0
 62
7
  6
CONTINUOUS
 10
114.5224274441
 20
-14.2572964667
  0
VERTEX
  8
0
 62
7
  6
CONTINUOUS
 10
105.5764709338
 20
-14.337527533
  0
VERTEX
  8
0
 62
7
  6
CONTINUOUS
 10
96.6388197457
 20
-14.4271930703
  0
VERTEX
  8
0
 62
7
  6
CONTINUOUS
 10
87.7140323721
 20
-14.5262243502
  0
VERTEX
  8
0
 62
7
  6
CONTINUOUS
 10
78.8093743285
 20
-14.6345191293
  0
VERTEX
  8
0
 62
7
  6
CONTINUOUS
 10
69.9161965073
 20
-14.7521816174
  0
VERTEX
  8
0
 62
7
  6
CONTINUOUS
 10
61.0396829905
 20
-14.8790653189
  0
VERTEX
  8
0
 62
7
  6
CONTINUOUS
 10
52.1457295915
 20
-15.0158201078
  0
VERTEX
  8
0
 62
7
  6
CONTINUOUS
 10
43.2018835627
 20
-15.1629549695
  0
VERTEX
  8
0
 62
7
  6
CONTINUOUS
 10
34.2091740838
 20
-15.3207460766
  0
VERTEX
  8
0
 62
7
  6
CONTINUOUS
 10
25.1562148009
 20
-15.4896949918
  0
VERTEX
  8
0
 62
7
  6
CONTINUOUS
 10
16.0482837267
 20
-15.6696345329
  0
SEQEND
  0
POLYLINE
  8
0
 62
7
  6
CONTINUOUS
 66
1
 70
0
  0
VERTEX
  8
0
 62
7
  6
CONTINUOUS
 10
-4.6328828196
 20
-28.8941942971
  0
VERTEX
  8
0
 62
7
  6
CONTINUOUS
 10
-4.6581579198
 20
-28.9490811842
  0
VERTEX
  8
0
 62
7
  6
CONTINUOUS
 10
-4.6835085001
 20
-28.9986651539
  0
VERTEX
  8
0
 62
7
  6
CONTINUOUS
 10
-4.7089365569
 20
-29.04295005
  0
VERTEX
  8
0
 62
7
  6
CONTINUOUS
 10
-4.7344361007
 20
-29.0819243411
  0
VERTEX
  8
0
 62
7
  6
CONTINUOUS
 10
-4.7600011418
 20
-29.115576496
  0
VERTEX
  8
0
 62
7
  6
CONTINUOUS
 10
-4.7856336769
 20
-29.1439103585
  0
SEQEND
  0
LINE
  8
0
 62
7
  6
CONTINUOUS
 10
-4.0150325312
 20
217.7982706469
 11
-7.3283874238
 21
221.1116255396
  0
LINE
  8
0
 62
7
  6
CONTINUOUS
 10
6.6239341336
 20
227.0831979439
 11
2.6335595571
 21
231.0735725205
  0
POLYLINE
  8
0
 62
7
  6
CONTINUOUS
 66
1
 70
0
  0
VERTEX
  8
0
 62
7
  6
CONTINUOUS
 10
158.0427385257
 20
229.2124807131
  0
VERTEX
  8
0
 62
7
  6
CONTINUOUS
 10
158.0330443052
 20
229.179652496
  0
VERTEX
  8
0
 62
7
  6
CONTINUOUS
 10
158.0329676249
 20
229.1753094694
  0
SEQEND
  0
LINE
  8
0
 62
7
  6
CONTINUOUS
 10
357.7891525261
 20
-16.7411758413
 11
356.0170549853
 21
-15.6695690625
  0
LINE
  8
0
 62
7
  6
CONTINUOUS
 10
359.4912424353
 20
-17.7753181834
 11
357.7891525261
 21
-16.7411758413
  0
LINE
  8
0
 62
7
  6
CONTINUOUS
 10
361.1467949766
 20
-18.7859651103
 11
359.4912424353
 21
-17.7753181834
  0
LINE
  8
0
 62
7
  6
CONTINUOUS
 10
362.7457858041
 20
-19.7670649
 11
361.1467949766
 21
-18.7859651103
  0
LINE
  8
0
 62
7
  6
CONTINUOUS
 10
364.2793923629
 20
-20.7131672381
 11
362.7457858041
 21
-19.7670649
  0
LINE
  8
0
 62
7
  6
CONTINUOUS
 10
365.7399002527
 20
-21.6194700046
 11
364.2793923629
 21
-20.7131672381
  0
LINE
  8
0
 62
7
  6
CONTINUOUS
 10
367.1207292672
 20
-22.4817993669
 11
365.7399002527
 21
-21.6194700046
  0
LINE
  8
0
 62
7
  6
CONTINUOUS
 10
368.4165388979
 20
-23.2966985084
 11
367.1207292672
 21
-22.4817993669
  0
LINE
  8
0
 62
7
  6
CONTINUOUS
 10
369.623116678
 20
-24.0613621577
 11
368.4165388979
 21
-23.2966985084
  0
LINE
  8
0
 62
7
  6
CONTINUOUS
 10
370.737381022
 20
-24.7736507931
 11
369.623116678
 21
-24.0613621577
  0
LINE
  8
0
 62
7
  6
CONTINUOUS
 10
371.7571789942
 20
-25.431963018
 11
370.737381022
 21
-24.7736507931
  0
LINE
  8
0
 62
7
  6
CONTINUOUS
 10
372.6813160887
 20
-26.0352710258
 11
371.7571789942
 21
-25.431963018
  0
LINE
  8
0
 62
7
  6
CONTINUOUS
 10
167.0327043836
 20
229.9627074426
 11
167.0327043836
 21
226.7124807131
  0
LINE
  8
0
 62
7
  6
CONTINUOUS
 10
-4.7856336769
 20
-29.1439103585
 11
-7.3283874238
 21
-31.6866641134
  0
LINE
  8
0
 62
7
  6
CONTINUOUS
 10
366.889085963
 20
-39.1058478473
 11
369.4318492101
 21
-41.6486110943
  0
LINE
  8
0
 62
7
  6
CONTINUOUS
 10
205.0327043836
 20
226.7124807131
 11
205.0327043836
 21
229.9627074426
  0
LINE
  8
0
 62
7
  6
CONTINUOUS
 10
5.1762914244
 20
-39.105879227
 11
2.6335595571
 21
-41.6486110943
  0
POLYLINE
  8
0
 62
7
  6
CONTINUOUS
 66
1
 70
0
  0
VERTEX
  8
0
 62
7
  6
CONTINUOUS
 10
376.6982921449
 20
-28.8941953404
  0
VERTEX
  8
0
 62
7
  6
CONTINUOUS
 10
376.6184784234
 20
-28.8161142021
  0
VERTEX
  8
0
 62
7
  6
CONTINUOUS
 10
376.5149443303
 20
-28.7232550151
  0
VERTEX
  8
0
 62
7
  6
CONTINUOUS
 10
376.3876048811
 20
-28.6167061374
  0
VERTEX
  8
0
 62
7
  6
CONTINUOUS
 10
376.2372588104
 20
-28.4965773005
  0
VERTEX
  8
0
 62
7
  6
CONTINUOUS
 10
376.065139294
 20
-28.3639253703
  0
VERTEX
  8
0
 62
7
  6
CONTINUOUS
 10
375.8715112622
 20
-28.2188771994
  0
VERTEX
  8
0
 62
7
  6
CONTINUOUS
 10
375.6574712424
 20
-28.0620324073
  0
VERTEX
  8
0
 62
7
  6
CONTINUOUS
 10
375.4215661376
 20
-27.8926098983
  0
VERTEX
  8
0
 62
7
  6
CONTINUOUS
 10
375.1616335863
 20
-27.7088072413
  0
VERTEX
  8
0
 62
7
  6
CONTINUOUS
 10
374.8782915757
 20
-27.5112159151
  0
VERTEX
  8
0
 62
7
  6
CONTINUOUS
 10
374.5716459422
 20
-27.299964577
  0
VERTEX
  8
0
 62
7
  6
CONTINUOUS
 10
374.2413901481
 20
-27.0749049774
  0
VERTEX
  8
0
 62
7
  6
CONTINUOUS
 10
373.8872706512
 20
-26.8358796753
  0
VERTEX
  8
0
 62
7
  6
CONTINUOUS
 10
373.5092499829
 20
-26.5829329451
  0
VERTEX
  8
0
 62
7
  6
CONTINUOUS
 10
372.6813160887
 20
-26.0352710258
  0
SEQEND
  0
LINE
  8
0
 62
7
  6
CONTINUOUS
 10
376.8510408223
 20
-29.1439087406
 11
379.393796191
 21
-31.6866641134
  0
POLYLINE
  8
0
 62
7
  6
CONTINUOUS
 66
1
 70
0
  0
VERTEX
  8
0
 62
7
  6
CONTINUOUS
 10
214.0324411422
 20
229.1753094694
  0
VERTEX
  8
0
 62
7
  6
CONTINUOUS
 10
214.0323644512
 20
229.1796527093
  0
VERTEX
  8
0
 62
7
  6
CONTINUOUS
 10
214.0226702415
 20
229.2124807131
  0
SEQEND
  0
POLYLINE
  8
0
 62
7
  6
CONTINUOUS
 66
1
 70
0
  0
VERTEX
  8
0
 62
7
  6
CONTINUOUS
 10
-2.042080323
 20
-26.9842604217
  0
VERTEX
  8
0
 62
7
  6
CONTINUOUS
 10
-2.3658686814
 20
-27.2040296804
  0
VERTEX
  8
0
 62
7
  6
CONTINUOUS
 10
-2.6681938282
 20
-27.4112355801
  0
VERTEX
  8
0
 62
7
  6
CONTINUOUS
 10
-2.9491414831
 20
-27.6059127223
  0
VERTEX
  8
0
 62
7
  6
CONTINUOUS
 10
-3.2087987594
 20
-27.7880652799
  0
VERTEX
  8
0
 62
7
  6
CONTINUOUS
 10
-3.4474001422
 20
-27.9578318884
  0
VERTEX
  8
0
 62
7
  6
CONTINUOUS
 10
-3.6645768132
 20
-28.1147843036
  0
VERTEX
  8
0
 62
7
  6
CONTINUOUS
 10
-3.8621973614
 20
-28.2605355816
  0
VERTEX
  8
0
 62
7
  6
CONTINUOUS
 10
-4.0416545754
 20
-28.3958804864
  0
VERTEX
  8
0
 62
7
  6
CONTINUOUS
 10
-4.2015502176
 20
-28.5199270862
  0
VERTEX
  8
0
 62
7
  6
CONTINUOUS
 10
-4.3413812262
 20
-28.6324119401
  0
VERTEX
  8
0
 62
7
  6
CONTINUOUS
 10
-4.4602015508
 20
-28.7324832132
  0
VERTEX
  8
0
 62
7
  6
CONTINUOUS
 10
-4.5573374696
 20
-28.8200474432
  0
VERTEX
  8
0
 62
7
  6
CONTINUOUS
 10
-4.6328831943
 20
-28.8941949205
  0
SEQEND
  0
LINE
  8
0
 62
7
  6
CONTINUOUS
 10
-1.3296151206
 20
-26.5068829484
 11
-2.042080323
 21
-26.9842604217
  0
LINE
  8
0
 62
7
  6
CONTINUOUS
 10
-0.5301425977
 20
-25.9789532049
 11
-1.3296151206
 21
-26.5068829484
  0
LINE
  8
0
 62
7
  6
CONTINUOUS
 10
0.3564920435
 20
-25.4006391518
 11
-0.5301425977
 21
-25.9789532049
  0
LINE
  8
0
 62
7
  6
CONTINUOUS
 10
1.3298527616
 20
-24.7724711721
 11
0.3564920435
 21
-25.4006391518
  0
LINE
  8
0
 62
7
  6
CONTINUOUS
 10
2.3888399651
 20
-24.0953807482
 11
1.3298527616
 21
-24.7724711721
  0
LINE
  8
0
 62
7
  6
CONTINUOUS
 10
3.5316465731
 20
-23.3707158427
 11
2.3888399651
 21
-24.0953807482
  0
LINE
  8
0
 62
7
  6
CONTINUOUS
 10
4.7556571967
 20
-22.6002991633
 11
3.5316465731
 21
-23.3707158427
  0
LINE
  8
0
 62
7
  6
CONTINUOUS
 10
6.0573644545
 20
-21.7864771985
 11
4.7556571967
 21
-22.6002991633
  0
LINE
  8
0
 62
7
  6
CONTINUOUS
 10
7.432327998
 20
-20.9321369223
 11
6.0573644545
 21
-21.7864771985
  0
LINE
  8
0
 62
7
  6
CONTINUOUS
 10
8.8750514592
 20
-20.0407775647
 11
7.432327998
 21
-20.9321369223
  0
LINE
  8
0
 62
7
  6
CONTINUOUS
 10
10.3792621304
 20
-19.116322586
 11
8.8750514592
 21
-20.0407775647
  0
LINE
  8
0
 62
7
  6
CONTINUOUS
 10
11.9372855966
 20
-18.1635276993
 11
10.3792621304
 21
-19.116322586
  0
LINE
  8
0
 62
7
  6
CONTINUOUS
 10
13.5393534654
 20
-17.1883102924
 11
11.9372855966
 21
-18.1635276993
  0
POLYLINE
  8
0
 62
7
  6
CONTINUOUS
 66
1
 70
0
  0
VERTEX
  8
0
 62
7
  6
CONTINUOUS
 10
16.0483537822
 20
-15.6695690624
  0
VERTEX
  8
0
 62
7
  6
CONTINUOUS
 10
15.1951524928
 20
-16.1848822165
  0
VERTEX
  8
0
 62
7
  6
CONTINUOUS
 10
13.5393534654
 20
-17.1883102924
  0
SEQEND
  0
POLYLINE
  8
0
 62
7
  6
CONTINUOUS
 66
1
 70
0
  0
VERTEX
  8
0
 62
7
  6
CONTINUOUS
 10
365.4414746411
 20
227.0831979515
  0
VERTEX
  8
0
 62
7
  6
CONTINUOUS
 10
365.1340354058
 20
227.0430923441
  0
VERTEX
  8
0
 62
7
  6
CONTINUOUS
 10
364.8139627156
 20
227.0040821712
  0
VERTEX
  8
0
 62
7
  6
CONTINUOUS
 10
364.4814713615
 20
226.9661985065
  0
VERTEX
  8
0
 62
7
  6
CONTINUOUS
 10
364.1359169705
 20
226.9293481294
  0
VERTEX
  8
0
 62
7
  6
CONTINUOUS
 10
363.7763942351
 20
226.8934121269
  0
VERTEX
  8
0
 62
7
  6
CONTINUOUS
 10
363.4039007489
 20
226.8584986502
  0
VERTEX
  8
0
 62
7
  6
CONTINUOUS
 10
363.019036538
 20
226.8246697836
  0
VERTEX
  8
0
 62
7
  6
CONTINUOUS
 10
362.6220889968
 20
226.7919448146
  0
VERTEX
  8
0
 62
7
  6
CONTINUOUS
 10
362.2133869147
 20
226.7603525775
  0
VERTEX
  8
0
 62
7
  6
CONTINUOUS
 10
361.7934061315
 20
226.7299265163
  0
VERTEX
  8
0
 62
7
  6
CONTINUOUS
 10
361.3625823969
 20
226.700700755
  0
VERTEX
  8
0
 62
7
  6
CONTINUOUS
 10
360.9213647714
 20
226.6727020887
  0
VERTEX
  8
0
 62
7
  6
CONTINUOUS
 10
360.4701858648
 20
226.6459602241
  0
VERTEX
  8
0
 62
7
  6
CONTINUOUS
 10
360.0095307798
 20
226.6205005512
  0
VERTEX
  8
0
 62
7
  6
CONTINUOUS
 10
359.5398676239
 20
226.5963511163
  0
VERTEX
  8
0
 62
7
  6
CONTINUOUS
 10
359.0616799918
 20
226.5735336574
  0
SEQEND
  0
POLYLINE
  8
0
 62
7
  6
CONTINUOUS
 66
1
 70
0
  0
VERTEX
  8
0
 62
7
  6
CONTINUOUS
 10
372.1537132762
 20
219.205811071
  0
VERTEX
  8
0
 62
7
  6
CONTINUOUS
 10
371.7020378361
 20
219.1712593367
  0
VERTEX
  8
0
 62
7
  6
CONTINUOUS
 10
371.2310049178
 20
219.1376836492
  0
VERTEX
  8
0
 62
7
  6
CONTINUOUS
 10
370.7420251566
 20
219.1050907516
  0
VERTEX
  8
0
 62
7
  6
CONTINUOUS
 10
370.2339764847
 20
219.073409677
  0
VERTEX
  8
0
 62
7
  6
CONTINUOUS
 10
369.7053329109
 20
219.0425344543
  0
VERTEX
  8
0
 62
7
  6
CONTINUOUS
 10
369.1575748211
 20
219.0125586865
  0
VERTEX
  8
0
 62
7
  6
CONTINUOUS
 10
368.5916461376
 20
218.9835374955
  0
VERTEX
  8
0
 62
7
  6
CONTINUOUS
 10
368.0079389566
 20
218.9554865448
  0
VERTEX
  8
0
 62
7
  6
CONTINUOUS
 10
367.4069549172
 20
218.928431031
  0
SEQEND
  0
LINE
  8
0
 62
7
  6
CONTINUOUS
 10
367.4069549172
 20
218.928431031
 11
366.1558488961
 21
218.8774208873
  0
LINE
  8
0
 62
7
  6
CONTINUOUS
 10
366.1558488961
 20
218.8774208873
 11
364.8435731472
 21
218.8307185624
  0
LINE
  8
0
 62
7
  6
CONTINUOUS
 10
364.8435731472
 20
218.8307185624
 11
363.4755228917
 21
218.7885126458
  0
LINE
  8
0
 62
7
  6
CONTINUOUS
 10
8.6492040418
 20
218.7868220471
 11
7.2784213325
 21
218.8288488592
  0
LINE
  8
0
 62
7
  6
CONTINUOUS
 10
7.2784213325
 20
218.8288488592
 11
5.9632551699
 21
218.875381323
  0
POLYLINE
  8
0
 62
7
  6
CONTINUOUS
 66
1
 70
0
  0
VERTEX
  8
0
 62
7
  6
CONTINUOUS
 10
5.9632551699
 20
218.875381323
  0
VERTEX
  8
0
 62
7
  6
CONTINUOUS
 10
4.7088313426
 20
218.926244576
  0
VERTEX
  8
0
 62
7
  6
CONTINUOUS
 10
4.1061470133
 20
218.9532298964
  0
VERTEX
  8
0
 62
7
  6
CONTINUOUS
 10
3.5217061468
 20
218.9811612314
  0
VERTEX
  8
0
 62
7
  6
CONTINUOUS
 10
2.9540953747
 20
219.0101161978
  0
VERTEX
  8
0
 62
7
  6
CONTINUOUS
 10
2.4024502682
 20
219.0401446823
  0
VERTEX
  8
0
 62
7
  6
CONTINUOUS
 10
1.8675358663
 20
219.0712371797
  0
VERTEX
  8
0
 62
7
  6
CONTINUOUS
 10
1.3492839985
 20
219.1034324484
  0
VERTEX
  8
0
 62
7
  6
CONTINUOUS
 10
0.8496818302
 20
219.1366331025
  0
VERTEX
  8
0
 62
7
  6
CONTINUOUS
 10
0.3703463531
 20
219.1707423486
  0
VERTEX
  8
0
 62
7
  6
CONTINUOUS
 10
-0.088304506
 20
219.2058123633
  0
SEQEND
  0
POLYLINE
  8
0
 62
7
  6
CONTINUOUS
 66
1
 70
0
  0
VERTEX
  8
0
 62
7
  6
CONTINUOUS
 10
-0.088304506
 20
219.2058123633
  0
VERTEX
  8
0
 62
7
  6
CONTINUOUS
 10
-0.2344395572
 20
219.2156679598
  0
VERTEX
  8
0
 62
7
  6
CONTINUOUS
 10
-0.3802955981
 20
219.2221857503
  0
VERTEX
  8
0
 62
7
  6
CONTINUOUS
 10
-0.5255974367
 20
219.2253520408
  0
VERTEX
  8
0
 62
7
  6
CONTINUOUS
 10
-0.6706273688
 20
219.2252053897
  0
VERTEX
  8
0
 62
7
  6
CONTINUOUS
 10
-0.8156738583
 20
219.221777331
  0
VERTEX
  8
0
 62
7
  6
CONTINUOUS
 10
-0.9602944999
 20
219.2150740067
  0
VERTEX
  8
0
 62
7
  6
CONTINUOUS
 10
-1.1042239951
 20
219.2051010787
  0
VERTEX
  8
0
 62
7
  6
CONTINUOUS
 10
-1.2472336987
 20
219.1918924409
  0
VERTEX
  8
0
 62
7
  6
CONTINUOUS
 10
-1.389086341
 20
219.1754689049
  0
VERTEX
  8
0
 62
7
  6
CONTINUOUS
 10
-1.529552064
 20
219.1558762257
  0
VERTEX
  8
0
 62
7
  6
CONTINUOUS
 10
-1.6684000395
 20
219.1331484199
  0
VERTEX
  8
0
 62
7
  6
CONTINUOUS
 10
-1.8054075955
 20
219.1073423625
  0
VERTEX
  8
0
 62
7
  6
CONTINUOUS
 10
-1.9403557892
 20
219.0785028942
  0
VERTEX
  8
0
 62
7
  6
CONTINUOUS
 10
-2.0730160177
 20
219.0467009746
  0
VERTEX
  8
0
 62
7
  6
CONTINUOUS
 10
-2.2031741839
 20
219.0119927835
  0
VERTEX
  8
0
 62
7
  6
CONTINUOUS
 10
-2.330589201
 20
218.9744683755
  0
VERTEX
  8
0
 62
7
  6
CONTINUOUS
 10
-2.4550362009
 20
218.93420233
  0
VERTEX
  8
0
 62
7
  6
CONTINUOUS
 10
-2.5762900496
 20
218.8912981954
  0
VERTEX
  8
0
 62
7
  6
CONTINUOUS
 10
-2.6941312489
 20
218.8458480055
  0
VERTEX
  8
0
 62
7
  6
CONTINUOUS
 10
-2.8083635107
 20
218.7979617958
  0
VERTEX
  8
0
 62
7
  6
CONTINUOUS
 10
-2.9187933851
 20
218.7477402335
  0
VERTEX
  8
0
 62
7
  6
CONTINUOUS
 10
-3.0252357414
 20
218.6953042587
  0
VERTEX
  8
0
 62
7
  6
CONTINUOUS
 10
-3.1275147136
 20
218.6407642426
  0
VERTEX
  8
0
 62
7
  6
CONTINUOUS
 10
-3.225455559
 20
218.5842532846
  0
VERTEX
  8
0
 62
7
  6
CONTINUOUS
 10
-3.3188984913
 20
218.5258919215
  0
VERTEX
  8
0
 62
7
  6
CONTINUOUS
 10
-3.4076772808
 20
218.4658288698
  0
VERTEX
  8
0
 62
7
  6
CONTINUOUS
 10
-3.4916430736
 20
218.4042008756
  0
VERTEX
  8
0
 62
7
  6
CONTINUOUS
 10
-3.5706530343
 20
218.3411649736
  0
VERTEX
  8
0
 62
7
  6
CONTINUOUS
 10
-3.6445769489
 20
218.2768716373
  0
VERTEX
  8
0
 62
7
  6
CONTINUOUS
 10
-3.7133054024
 20
218.21147776
  0
VERTEX
  8
0
 62
7
  6
CONTINUOUS
 10
-3.7766207706
 20
218.1452694576
  0
VERTEX
  8
0
 62
7
  6
CONTINUOUS
 10
-3.8347909017
 20
218.0780098376
  0
VERTEX
  8
0
 62
7
  6
CONTINUOUS
 10
-3.8879580265
 20
218.0094717434
  0
VERTEX
  8
0
 62
7
  6
CONTINUOUS
 10
-3.9358364127
 20
217.939911915
  0
VERTEX
  8
0
 62
7
  6
CONTINUOUS
 10
-3.9782481672
 20
217.8695330846
  0
VERTEX
  8
0
 62
7
  6
CONTINUOUS
 10
-4.0150325314
 20
217.7982707456
  0
SEQEND
  0
POLYLINE
  8
0
 62
7
  6
CONTINUOUS
 66
1
 70
0
  0
VERTEX
  8
0
 62
7
  6
CONTINUOUS
 10
356.0170549853
 20
-15.6695690625
  0
VERTEX
  8
0
 62
7
  6
CONTINUOUS
 10
356.5501247278
 20
-16.5755494864
  0
VERTEX
  8
0
 62
7
  6
CONTINUOUS
 10
357.0705919547
 20
-17.4677635666
  0
VERTEX
  8
0
 62
7
  6
CONTINUOUS
 10
357.5774119148
 20
-18.3439844061
  0
VERTEX
  8
0
 62
7
  6
CONTINUOUS
 10
358.0734287153
 20
-19.2089464546
  0
VERTEX
  8
0
 62
7
  6
CONTINUOUS
 10
358.5614687901
 20
-20.0675897401
  0
VERTEX
  8
0
 62
7
  6
CONTINUOUS
 10
359.0395818793
 20
-20.9164955898
  0
VERTEX
  8
0
 62
7
  6
CONTINUOUS
 10
359.5070499017
 20
-21.7543583754
  0
VERTEX
  8
0
 62
7
  6
CONTINUOUS
 10
359.9632456579
 20
-22.5800367766
  0
VERTEX
  8
0
 62
7
  6
CONTINUOUS
 10
360.4075297319
 20
-23.39234088
  0
VERTEX
  8
0
 62
7
  6
CONTINUOUS
 10
360.8393735136
 20
-24.1902459087
  0
VERTEX
  8
0
 62
7
  6
CONTINUOUS
 10
361.2582422665
 20
-24.9726941536
  0
VERTEX
  8
0
 62
7
  6
CONTINUOUS
 10
361.6636971876
 20
-25.73878871
  0
VERTEX
  8
0
 62
7
  6
CONTINUOUS
 10
362.0552914828
 20
-26.4875937283
  0
VERTEX
  8
0
 62
7
  6
CONTINUOUS
 10
362.4326920181
 20
-27.2183655283
  0
VERTEX
  8
0
 62
7
  6
CONTINUOUS
 10
362.7955562363
 20
-27.9303212989
  0
VERTEX
  8
0
 62
7
  6
CONTINUOUS
 10
363.1436378489
 20
-28.622845412
  0
VERTEX
  8
0
 62
7
  6
CONTINUOUS
 10
363.4766828095
 20
-29.2952866234
  0
VERTEX
  8
0
 62
7
  6
CONTINUOUS
 10
363.7945355505
 20
-29.9471711041
  0
VERTEX
  8
0
 62
7
  6
CONTINUOUS
 10
364.0970347568
 20
-30.5779957507
  0
VERTEX
  8
0
 62
7
  6
CONTINUOUS
 10
364.3840922808
 20
-31.1873899017
  0
VERTEX
  8
0
 62
7
  6
CONTINUOUS
 10
364.655615866
 20
-31.7749574317
  0
VERTEX
  8
0
 62
7
  6
CONTINUOUS
 10
364.9115939253
 20
-32.3404573796
  0
VERTEX
  8
0
 62
7
  6
CONTINUOUS
 10
365.1520123144
 20
-32.8836303906
  0
VERTEX
  8
0
 62
7
  6
CONTINUOUS
 10
365.3769012878
 20
-33.4042994686
  0
VERTEX
  8
0
 62
7
  6
CONTINUOUS
 10
365.5862840294
 20
-33.9022573952
  0
VERTEX
  8
0
 62
7
  6
CONTINUOUS
 10
365.7802734518
 20
-34.377492983
  0
VERTEX
  8
0
 62
7
  6
CONTINUOUS
 10
365.9589752718
 20
-34.8299764977
  0
VERTEX
  8
0
 62
7
  6
CONTINUOUS
 10
366.1224904357
 20
-35.2596532347
  0
VERTEX
  8
0
 62
7
  6
CONTINUOUS
 10
366.2709102991
 20
-35.6664297681
  0
VERTEX
  8
0
 62
7
  6
CONTINUOUS
 10
366.4044412123
 20
-36.0505122031
  0
VERTEX
  8
0
 62
7
  6
CONTINUOUS
 10
366.5232913437
 20
-36.4121487586
  0
VERTEX
  8
0
 62
7
  6
CONTINUOUS
 10
366.6275063442
 20
-36.7510865379
  0
VERTEX
  8
0
 62
7
  6
CONTINUOUS
 10
366.7169533274
 20
-37.0663121462
  0
VERTEX
  8
0
 62
7
  6
CONTINUOUS
 10
366.7925614277
 20
-37.3606398041
  0
VERTEX
  8
0
 62
7
  6
CONTINUOUS
 10
366.8547655678
 20
-37.6361049154
  0
VERTEX
  8
0
 62
7
  6
CONTINUOUS
 10
366.9030809216
 20
-37.8913830157
  0
VERTEX
  8
0
 62
7
  6
CONTINUOUS
 10
366.9372669565
 20
-38.1263147673
  0
VERTEX
  8
0
 62
7
  6
CONTINUOUS
 10
366.9568985533
 20
-38.3391891196
  0
VERTEX
  8
0
 62
7
  6
CONTINUOUS
 10
366.9618264753
 20
-38.5287595356
  0
VERTEX
  8
0
 62
7
  6
CONTINUOUS
 10
366.9520906664
 20
-38.6950453512
  0
SEQEND
  0
LINE
  8
0
 62
7
  6
CONTINUOUS
 10
365.4414746411
 20
227.0831979515
 11
369.4318492101
 21
231.0735725205
  0
POLYLINE
  8
0
 62
7
  6
CONTINUOUS
 66
1
 70
0
  0
VERTEX
  8
0
 62
7
  6
CONTINUOUS
 10
163.3432788447
 20
229.8935063513
  0
VERTEX
  8
0
 62
7
  6
CONTINUOUS
 10
162.999732319
 20
229.879225948
  0
VERTEX
  8
0
 62
7
  6
CONTINUOUS
 10
162.6633279067
 20
229.8636876507
  0
VERTEX
  8
0
 62
7
  6
CONTINUOUS
 10
162.3347080016
 20
229.8469162084
  0
VERTEX
  8
0
 62
7
  6
CONTINUOUS
 10
162.014418881
 20
229.8289429533
  0
VERTEX
  8
0
 62
7
  6
CONTINUOUS
 10
161.7030348322
 20
229.8097948217
  0
VERTEX
  8
0
 62
7
  6
CONTINUOUS
 10
161.4011142187
 20
229.7895097502
  0
VERTEX
  8
0
 62
7
  6
CONTINUOUS
 10
161.1092459894
 20
229.7681215821
  0
VERTEX
  8
0
 62
7
  6
CONTINUOUS
 10
160.8279126754
 20
229.7456695332
  0
VERTEX
  8
0
 62
7
  6
CONTINUOUS
 10
160.5576340215
 20
229.7221888989
  0
VERTEX
  8
0
 62
7
  6
CONTINUOUS
 10
160.2988873357
 20
229.6977252841
  0
VERTEX
  8
0
 62
7
  6
CONTINUOUS
 10
160.0521879132
 20
229.6723205738
  0
VERTEX
  8
0
 62
7
  6
CONTINUOUS
 10
159.8179415368
 20
229.6460212228
  0
VERTEX
  8
0
 62
7
  6
CONTINUOUS
 10
159.5965992385
 20
229.6188703898
  0
VERTEX
  8
0
 62
7
  6
CONTINUOUS
 10
159.3885405654
 20
229.5909198481
  0
VERTEX
  8
0
 62
7
  6
CONTINUOUS
 10
159.1941904512
 20
229.5622181832
  0
VERTEX
  8
0
 62
7
  6
CONTINUOUS
 10
159.0138637688
 20
229.5328181167
  0
VERTEX
  8
0
 62
7
  6
CONTINUOUS
 10
158.8479270379
 20
229.502769806
  0
VERTEX
  8
0
 62
7
  6
CONTINUOUS
 10
158.6966502508
 20
229.4721295288
  0
VERTEX
  8
0
 62
7
  6
CONTINUOUS
 10
158.5603555114
 20
229.4409510964
  0
VERTEX
  8
0
 62
7
  6
CONTINUOUS
 10
158.4392530049
 20
229.4092920647
  0
VERTEX
  8
0
 62
7
  6
CONTINUOUS
 10
158.3336091687
 20
229.3772082261
  0
VERTEX
  8
0
 62
7
  6
CONTINUOUS
 10
158.2435773505
 20
229.3447586833
  0
VERTEX
  8
0
 62
7
  6
CONTINUOUS
 10
158.1693681789
 20
229.3120009781
  0
VERTEX
  8
0
 62
7
  6
CONTINUOUS
 10
158.1110762488
 20
229.2789955864
  0
VERTEX
  8
0
 62
7
  6
CONTINUOUS
 10
158.0688869649
 20
229.2458321218
  0
VERTEX
  8
0
 62
7
  6
CONTINUOUS
 10
158.0427385257
 20
229.2124807131
  0
SEQEND
  0
LINE
  8
0
 62
7
  6
CONTINUOUS
 10
359.0616799918
 20
226.5735336574
 11
358.0816501908
 21
226.5319879267
  0
LINE
  8
0
 62
7
  6
CONTINUOUS
 10
358.0816501908
 20
226.5319879267
 11
357.0735246168
 21
226.4960331143
  0
LINE
  8
0
 62
7
  6
CONTINUOUS
 10
164.0493247781
 20
229.9181878975
 11
163.3432788447
 21
229.8935063513
  0
LINE
  8
0
 62
7
  6
CONTINUOUS
 10
357.0735246168
 20
226.4960331143
 11
356.0415031741
 21
226.4658147314
  0
LINE
  8
0
 62
7
  6
CONTINUOUS
 10
363.4755228917
 20
218.7885126458
 11
362.0572945342
 21
218.7509735074
  0
LINE
  8
0
 62
7
  6
CONTINUOUS
 10
164.7765281982
 20
229.9375645576
 11
164.0493247781
 21
229.9181878975
  0
LINE
  8
0
 62
7
  6
CONTINUOUS
 10
356.0415031741
 20
226.4658147314
 11
354.9786176418
 21
226.4412263543
  0
LINE
  8
0
 62
7
  6
CONTINUOUS
 10
362.0572945342
 20
218.7509735074
 11
360.5947055218
 21
218.7182528477
  0
LINE
  8
0
 62
7
  6
CONTINUOUS
 10
360.5947055218
 20
218.7182528477
 11
359.0948681556
 21
218.6904942693
  0
LINE
  8
0
 62
7
  6
CONTINUOUS
 10
165.5196552214
 20
229.9515005028
 11
164.7765281982
 21
229.9375645576
  0
LINE
  8
0
 62
7
  6
CONTINUOUS
 10
354.9786176418
 20
226.4412263543
 11
353.8898570022
 21
226.4225709914
  0
LINE
  8
0
 62
7
  6
CONTINUOUS
 10
359.0948681556
 20
218.6904942693
 11
357.5547532732
 21
218.6677011323
  0
LINE
  8
0
 62
7
  6
CONTINUOUS
 10
357.5547532732
 20
218.6677011323
 11
355.9713218381
 21
218.6499420009
  0
LINE
  8
0
 62
7
  6
CONTINUOUS
 10
353.8898570022
 20
226.4225709914
 11
352.7851699348
 21
226.4101458485
  0
LINE
  8
0
 62
7
  6
CONTINUOUS
 10
166.2735027515
 20
229.9599009221
 11
165.5196552214
 21
229.9515005028
  0
POLYLINE
  8
0
 62
7
  6
CONTINUOUS
 66
1
 70
0
  0
VERTEX
  8
0
 62
7
  6
CONTINUOUS
 10
352.7851699348
 20
226.4101458485
  0
VERTEX
  8
0
 62
7
  6
CONTINUOUS
 10
339.8575140029
 20
226.3065838995
  0
VERTEX
  8
0
 62
7
  6
CONTINUOUS
 10
326.9953713628
 20
226.2117082048
  0
VERTEX
  8
0
 62
7
  6
CONTINUOUS
 10
314.215493908
 20
226.1256559365
  0
VERTEX
  8
0
 62
7
  6
CONTINUOUS
 10
301.4676259581
 20
226.0480155782
  0
VERTEX
  8
0
 62
7
  6
CONTINUOUS
 10
288.7008607901
 20
225.9783713196
  0
VERTEX
  8
0
 62
7
  6
CONTINUOUS
 10
275.9339034258
 20
225.9168732142
  0
VERTEX
  8
0
 62
7
  6
CONTINUOUS
 10
263.1688480976
 20
225.8635349106
  0
VERTEX
  8
0
 62
7
  6
CONTINUOUS
 10
250.4046204511
 20
225.8183498121
  0
VERTEX
  8
0
 62
7
  6
CONTINUOUS
 10
237.640871608
 20
225.7813158093
  0
VERTEX
  8
0
 62
7
  6
CONTINUOUS
 10
224.8775193719
 20
225.7524330882
  0
VERTEX
  8
0
 62
7
  6
CONTINUOUS
 10
212.1145772168
 20
225.7317009696
  0
VERTEX
  8
0
 62
7
  6
CONTINUOUS
 10
199.3514092527
 20
225.7191199401
  0
VERTEX
  8
0
 62
7
  6
CONTINUOUS
 10
186.5875059959
 20
225.7146892392
  0
VERTEX
  8
0
 62
7
  6
CONTINUOUS
 10
173.8225017019
 20
225.7184119294
  0
VERTEX
  8
0
 62
7
  6
CONTINUOUS
 10
161.0560631942
 20
225.7302890602
  0
VERTEX
  8
0
 62
7
  6
CONTINUOUS
 10
148.2875832846
 20
225.7503259097
  0
VERTEX
  8
0
 62
7
  6
CONTINUOUS
 10
135.5154511808
 20
225.7785302748
  0
VERTEX
  8
0
 62
7
  6
CONTINUOUS
 10
122.7423445183
 20
225.8148956478
  0
VERTEX
  8
0
 62
7
  6
CONTINUOUS
 10
109.9858624037
 20
225.8593317944
  0
VERTEX
  8
0
 62
7
  6
CONTINUOUS
 10
97.1996296328
 20
225.9120976903
  0
VERTEX
  8
0
 62
7
  6
CONTINUOUS
 10
84.3375039781
 20
225.9733974941
  0
VERTEX
  8
0
 62
7
  6
CONTINUOUS
 10
71.4163856159
 20
226.0433054216
  0
VERTEX
  8
0
 62
7
  6
CONTINUOUS
 10
58.4301977252
 20
226.1219910844
  0
VERTEX
  8
0
 62
7
  6
CONTINUOUS
 10
45.4017290692
 20
226.2093724532
  0
VERTEX
  8
0
 62
7
  6
CONTINUOUS
 10
32.3543381986
 20
226.3054208495
  0
SEQEND
  0
LINE
  8
0
 62
7
  6
CONTINUOUS
 10
355.9713218381
 20
218.6499420009
 11
354.357162097
 21
218.6375124207
  0
POLYLINE
  8
0
 62
7
  6
CONTINUOUS
 66
1
 70
0
  0
VERTEX
  8
0
 62
7
  6
CONTINUOUS
 10
354.357162097
 20
218.6375124207
  0
VERTEX
  8
0
 62
7
  6
CONTINUOUS
 10
340.5565233919
 20
218.5751229781
  0
VERTEX
  8
0
 62
7
  6
CONTINUOUS
 10
327.6356126038
 20
218.5217441055
  0
VERTEX
  8
0
 62
7
  6
CONTINUOUS
 10
314.7976893891
 20
218.4732750246
  0
VERTEX
  8
0
 62
7
  6
CONTINUOUS
 10
301.9919636879
 20
218.4295013219
  0
VERTEX
  8
0
 62
7
  6
CONTINUOUS
 10
289.1672142219
 20
218.3902010104
  0
VERTEX
  8
0
 62
7
  6
CONTINUOUS
 10
276.3422624738
 20
218.3554682817
  0
VERTEX
  8
0
 62
7
  6
CONTINUOUS
 10
263.519220337
 20
218.32532198
  0
VERTEX
  8
0
 62
7
  6
CONTINUOUS
 10
250.6970093369
 20
218.2997661595
  0
VERTEX
  8
0
 62
7
  6
CONTINUOUS
 10
237.8752811938
 20
218.2788094679
  0
VERTEX
  8
0
 62
7
  6
CONTINUOUS
 10
225.0539534265
 20
218.2624569685
  0
VERTEX
  8
0
 62
7
  6
CONTINUOUS
 10
212.2330401678
 20
218.2507159213
  0
VERTEX
  8
0
 62
7
  6
CONTINUOUS
 10
199.4119017697
 20
218.2435883835
  0
VERTEX
  8
0
 62
7
  6
CONTINUOUS
 10
186.5900259894
 20
218.2410787607
  0
VERTEX
  8
0
 62
7
  6
CONTINUOUS
 10
173.7670439434
 20
218.2431872684
  0
VERTEX
  8
0
 62
7
  6
CONTINUOUS
 10
160.9426205624
 20
218.2499161647
  0
VERTEX
  8
0
 62
7
  6
CONTINUOUS
 10
148.116144291
 20
218.2612637263
  0
VERTEX
  8
0
 62
7
  6
CONTINUOUS
 10
135.2859964915
 20
218.277232727
  0
VERTEX
  8
0
 62
7
  6
CONTINUOUS
 10
122.4548686888
 20
218.2978119329
  0
VERTEX
  8
0
 62
7
  6
CONTINUOUS
 10
109.6404566553
 20
218.3229455954
  0
VERTEX
  8
0
 62
7
  6
CONTINUOUS
 10
96.7961226247
 20
218.3527700321
  0
VERTEX
  8
0
 62
7
  6
CONTINUOUS
 10
83.8755774905
 20
218.3873930712
  0
VERTEX
  8
0
 62
7
  6
CONTINUOUS
 10
70.8957656333
 20
218.426844432
  0
VERTEX
  8
0
 62
7
  6
CONTINUOUS
 10
57.8505982778
 20
218.4712094472
  0
VERTEX
  8
0
 62
7
  6
CONTINUOUS
 10
44.7629932683
 20
218.5204291049
  0
VERTEX
  8
0
 62
7
  6
CONTINUOUS
 10
31.6560123673
 20
218.5744690167
  0
SEQEND
  0
LINE
  8
0
 62
7
  6
CONTINUOUS
 10
167.0327043836
 20
229.9627074426
 11
166.2735027515
 21
229.9599009221
  0
LINE
  8
0
 62
7
  6
CONTINUOUS
 10
387.3633537757
 20
221.1116255396
 11
379.393796191
 21
221.1116255396
  0
LINE
  8
0
 62
7
  6
CONTINUOUS
 10
-15.2979450086
 20
221.1116255396
 11
-7.3283874238
 21
221.1116255396
  0
LINE
  8
0
 62
7
  6
CONTINUOUS
 10
211.5327043832
 20
226.7124807131
 11
160.5327043839
 21
226.7124807131
  0
LINE
  8
0
 62
7
  6
CONTINUOUS
 10
214.0226702415
 20
229.2124807131
 11
158.0427385257
 21
229.2124807131
  0
LINE
  8
0
 62
7
  6
CONTINUOUS
 10
2.6335595571
 20
231.0735725205
 11
369.4318492101
 21
231.0735725205
  0
LINE
  8
0
 62
7
  6
CONTINUOUS
 10
205.4129744624
 20
229.9620034197
 11
167.0327043836
 21
229.9627074426
  0
LINE
  8
0
 62
7
  6
CONTINUOUS
 10
31.6560123673
 20
218.5744690167
 11
17.7177383361
 21
218.6374659073
  0
POLYLINE
  8
0
 62
7
  6
CONTINUOUS
 66
1
 70
0
  0
VERTEX
  8
0
 62
7
  6
CONTINUOUS
 10
6.6239341336
 20
227.0831979439
  0
VERTEX
  8
0
 62
7
  6
CONTINUOUS
 10
6.207134419
 20
227.0854374587
  0
VERTEX
  8
0
 62
7
  6
CONTINUOUS
 10
5.7919547406
 20
227.0717054978
  0
VERTEX
  8
0
 62
7
  6
CONTINUOUS
 10
5.3795191445
 20
227.0422373157
  0
VERTEX
  8
0
 62
7
  6
CONTINUOUS
 10
4.969024081
 20
226.9971113779
  0
VERTEX
  8
0
 62
7
  6
CONTINUOUS
 10
4.5596764085
 20
226.9362085515
  0
VERTEX
  8
0
 62
7
  6
CONTINUOUS
 10
4.152643417
 20
226.8596160753
  0
VERTEX
  8
0
 62
7
  6
CONTINUOUS
 10
3.7486004868
 20
226.7674058502
  0
VERTEX
  8
0
 62
7
  6
CONTINUOUS
 10
3.34823246
 20
226.6596834098
  0
VERTEX
  8
0
 62
7
  6
CONTINUOUS
 10
2.9522298348
 20
226.5365888431
  0
VERTEX
  8
0
 62
7
  6
CONTINUOUS
 10
2.5612345988
 20
226.3982752413
  0
VERTEX
  8
0
 62
7
  6
CONTINUOUS
 10
2.1759012568
 20
226.2449288213
  0
VERTEX
  8
0
 62
7
  6
CONTINUOUS
 10
1.7968578738
 20
226.0767528777
  0
VERTEX
  8
0
 62
7
  6
CONTINUOUS
 10
1.4247300429
 20
225.8939772923
  0
VERTEX
  8
0
 62
7
  6
CONTINUOUS
 10
1.0601465839
 20
225.6968603409
  0
VERTEX
  8
0
 62
7
  6
CONTINUOUS
 10
0.7037113054
 20
225.4856769507
  0
VERTEX
  8
0
 62
7
  6
CONTINUOUS
 10
0.3560773852
 20
225.2607618429
  0
VERTEX
  8
0
 62
7
  6
CONTINUOUS
 10
0.0178607401
 20
225.0224663651
  0
VERTEX
  8
0
 62
7
  6
CONTINUOUS
 10
-0.3103034291
 20
224.7711934969
  0
VERTEX
  8
0
 62
7
  6
CONTINUOUS
 10
-0.6278018735
 20
224.5073776748
  0
VERTEX
  8
0
 62
7
  6
CONTINUOUS
 10
-0.9340646573
 20
224.2314605796
  0
VERTEX
  8
0
 62
7
  6
CONTINUOUS
 10
-1.2285292757
 20
223.943923164
  0
VERTEX
  8
0
 62
7
  6
CONTINUOUS
 10
-1.5106803358
 20
223.6452437674
  0
VERTEX
  8
0
 62
7
  6
CONTINUOUS
 10
-1.7800166644
 20
223.3359298354
  0
VERTEX
  8
0
 62
7
  6
CONTINUOUS
 10
-2.036054658
 20
223.0165130691
  0
VERTEX
  8
0
 62
7
  6
CONTINUOUS
 10
-2.2783395941
 20
222.687539387
  0
VERTEX
  8
0
 62
7
  6
CONTINUOUS
 10
-2.5064198617
 20
222.3496020166
  0
VERTEX
  8
0
 62
7
  6
CONTINUOUS
 10
-2.7198833867
 20
222.0032982536
  0
VERTEX
  8
0
 62
7
  6
CONTINUOUS
 10
-2.9183202939
 20
221.6492858087
  0
VERTEX
  8
0
 62
7
  6
CONTINUOUS
 10
-3.1013660729
 20
221.2882224048
  0
VERTEX
  8
0
 62
7
  6
CONTINUOUS
 10
-3.2686713293
 20
220.9208221617
  0
VERTEX
  8
0
 62
7
  6
CONTINUOUS
 10
-3.4198978109
 20
220.5478956635
  0
VERTEX
  8
0
 62
7
  6
CONTINUOUS
 10
-3.5548797306
 20
220.169912017
  0
VERTEX
  8
0
 62
7
  6
CONTINUOUS
 10
-3.6732425037
 20
219.7880450887
  0
VERTEX
  8
0
 62
7
  6
CONTINUOUS
 10
-3.7753288001
 20
219.4010185632
  0
VERTEX
  8
0
 62
7
  6
CONTINUOUS
 10
-3.8611747526
 20
219.0074533301
  0
VERTEX
  8
0
 62
7
  6
CONTINUOUS
 10
-3.9300679793
 20
218.6086718242
  0
VERTEX
  8
0
 62
7
  6
CONTINUOUS
 10
-3.9815058268
 20
218.2053595308
  0
VERTEX
  8
0
 62
7
  6
CONTINUOUS
 10
-4.0150326083
 20
217.798270724
  0
SEQEND
  0
LINE
  8
0
 62
7
  6
CONTINUOUS
 10
17.7177383361
 20
218.6374659073
 11
16.1312861189
 21
218.6495816819
  0
LINE
  8
0
 62
7
  6
CONTINUOUS
 10
206.1698344438
 20
229.9563963015
 11
205.4129744624
 21
229.9620034197
  0
LINE
  8
0
 62
7
  6
CONTINUOUS
 10
32.3543381986
 20
226.3054208495
 11
18.7323847295
 21
226.4155140357
  0
LINE
  8
0
 62
7
  6
CONTINUOUS
 10
16.1312861189
 20
218.6495816819
 11
14.572152241
 21
218.6669068338
  0
POLYLINE
  8
0
 62
7
  6
CONTINUOUS
 66
1
 70
0
  0
VERTEX
  8
0
 62
7
  6
CONTINUOUS
 10
369.4318492101
 20
231.0735725205
  0
VERTEX
  8
0
 62
7
  6
CONTINUOUS
 10
369.7937926407
 20
231.0692524979
  0
VERTEX
  8
0
 62
7
  6
CONTINUOUS
 10
370.153265779
 20
231.0520712045
  0
VERTEX
  8
0
 62
7
  6
CONTINUOUS
 10
370.5092546116
 20
231.0223098407
  0
VERTEX
  8
0
 62
7
  6
CONTINUOUS
 10
370.8630507735
 20
230.9800213746
  0
VERTEX
  8
0
 62
7
  6
CONTINUOUS
 10
371.2160635941
 20
230.925011701
  0
VERTEX
  8
0
 62
7
  6
CONTINUOUS
 10
371.5668623353
 20
230.8574276619
  0
VERTEX
  8
0
 62
7
  6
CONTINUOUS
 10
371.9146509545
 20
230.7774178253
  0
VERTEX
  8
0
 62
7
  6
CONTINUOUS
 10
372.2589828042
 20
230.6851032961
  0
VERTEX
  8
0
 62
7
  6
CONTINUOUS
 10
372.599287394
 20
230.580662574
  0
VERTEX
  8
0
 62
7
  6
CONTINUOUS
 10
372.935191361
 20
230.4642433008
  0
VERTEX
  8
0
 62
7
  6
CONTINUOUS
 10
373.2662345427
 20
230.3360375759
  0
VERTEX
  8
0
 62
7
  6
CONTINUOUS
 10
373.5921483459
 20
230.1961777634
  0
VERTEX
  8
0
 62
7
  6
CONTINUOUS
 10
373.912636947
 20
230.0448038042
  0
VERTEX
  8
0
 62
7
  6
CONTINUOUS
 10
374.2273336214
 20
229.8820934504
  0
VERTEX
  8
0
 62
7
  6
CONTINUOUS
 10
374.5359234899
 20
229.7082057714
  0
VERTEX
  8
0
 62
7
  6
CONTINUOUS
 10
374.8379765436
 20
229.5233777274
  0
VERTEX
  8
0
 62
7
  6
CONTINUOUS
 10
375.1331074205
 20
229.3278416239
  0
VERTEX
  8
0
 62
7
  6
CONTINUOUS
 10
375.4209195195
 20
229.1218609635
  0
VERTEX
  8
0
 62
7
  6
CONTINUOUS
 10
375.7010181836
 20
228.9057223309
  0
VERTEX
  8
0
 62
7
  6
CONTINUOUS
 10
375.9730785901
 20
228.6796834899
  0
VERTEX
  8
0
 62
7
  6
CONTINUOUS
 10
376.2367610377
 20
228.4440306367
  0
VERTEX
  8
0
 62
7
  6
CONTINUOUS
 10
376.4917698497
 20
228.1990304153
  0
VERTEX
  8
0
 62
7
  6
CONTINUOUS
 10
376.7378152961
 20
227.9449556887
  0
VERTEX
  8
0
 62
7
  6
CONTINUOUS
 10
376.9745841565
 20
227.6821224422
  0
VERTEX
  8
0
 62
7
  6
CONTINUOUS
 10
377.2017927821
 20
227.4108339978
  0
VERTEX
  8
0
 62
7
  6
CONTINUOUS
 10
377.4191235285
 20
227.1314612409
  0
VERTEX
  8
0
 62
7
  6
CONTINUOUS
 10
377.6262815783
 20
226.8443788889
  0
VERTEX
  8
0
 62
7
  6
CONTINUOUS
 10
377.823004118
 20
226.5499530232
  0
VERTEX
  8
0
 62
7
  6
CONTINUOUS
 10
378.0090197802
 20
226.2485949041
  0
VERTEX
  8
0
 62
7
  6
CONTINUOUS
 10
378.1841457401
 20
225.9406035511
  0
VERTEX
  8
0
 62
7
  6
CONTINUOUS
 10
378.3481777182
 20
225.6263252388
  0
VERTEX
  8
0
 62
7
  6
CONTINUOUS
 10
378.5009465871
 20
225.3060539627
  0
VERTEX
  8
0
 62
7
  6
CONTINUOUS
 10
378.6422896861
 20
224.9800690169
  0
VERTEX
  8
0
 62
7
  6
CONTINUOUS
 10
378.7719960675
 20
224.6487764172
  0
VERTEX
  8
0
 62
7
  6
CONTINUOUS
 10
378.8899175018
 20
224.3124441108
  0
VERTEX
  8
0
 62
7
  6
CONTINUOUS
 10
378.9957670376
 20
223.9718066692
  0
VERTEX
  8
0
 62
7
  6
CONTINUOUS
 10
379.0892012274
 20
223.6280799544
  0
VERTEX
  8
0
 62
7
  6
CONTINUOUS
 10
379.1705041485
 20
223.2801810743
  0
VERTEX
  8
0
 62
7
  6
CONTINUOUS
 10
379.2397447423
 20
222.9270713997
  0
VERTEX
  8
0
 62
7
  6
CONTINUOUS
 10
379.2965117958
 20
222.5696898106
  0
VERTEX
  8
0
 62
7
  6
CONTINUOUS
 10
379.3405652161
 20
222.2082157498
  0
VERTEX
  8
0
 62
7
  6
CONTINUOUS
 10
379.3715691164
 20
221.8439921924
  0
VERTEX
  8
0
 62
7
  6
CONTINUOUS
 10
379.3893315512
 20
221.4784071328
  0
VERTEX
  8
0
 62
7
  6
CONTINUOUS
 10
379.393796191
 20
221.1116255396
  0
SEQEND
  0
LINE
  8
0
 62
7
  6
CONTINUOUS
 10
14.572152241
 20
218.6669068338
 11
13.0373978873
 21
218.6893962017
  0
LINE
  8
0
 62
7
  6
CONTINUOUS
 10
18.7323847295
 20
226.4155140357
 11
17.6538333725
 21
226.4306975459
  0
LINE
  8
0
 62
7
  6
CONTINUOUS
 10
206.9189823143
 20
229.9452185453
 11
206.1698344438
 21
229.9563963015
  0
LINE
  8
0
 62
7
  6
CONTINUOUS
 10
13.0373978873
 20
218.6893962017
 11
11.5346073831
 21
218.7169552719
  0
LINE
  8
0
 62
7
  6
CONTINUOUS
 10
17.6538333725
 20
226.4306975459
 11
16.5936134003
 21
226.451834829
  0
LINE
  8
0
 62
7
  6
CONTINUOUS
 10
11.5346073831
 20
218.7169552719
 11
10.0698748685
 21
218.7494741787
  0
LINE
  8
0
 62
7
  6
CONTINUOUS
 10
207.6547998471
 20
229.9285478276
 11
206.9189823143
 21
229.9452185453
  0
LINE
  8
0
 62
7
  6
CONTINUOUS
 10
10.0698748685
 20
218.7494741787
 11
8.6492040418
 21
218.7868220471
  0
LINE
  8
0
 62
7
  6
CONTINUOUS
 10
16.5936134003
 20
226.451834829
 11
15.5499552797
 21
226.4788941595
  0
LINE
  8
0
 62
7
  6
CONTINUOUS
 10
15.5499552797
 20
226.4788941595
 11
14.5280279029
 21
226.5117587469
  0
POLYLINE
  8
0
 62
7
  6
CONTINUOUS
 66
1
 70
0
  0
VERTEX
  8
0
 62
7
  6
CONTINUOUS
 10
14.5280279029
 20
226.5117587469
  0
VERTEX
  8
0
 62
7
  6
CONTINUOUS
 10
13.531975175
 20
226.5502982891
  0
VERTEX
  8
0
 62
7
  6
CONTINUOUS
 10
13.0449266526
 20
226.5716484664
  0
VERTEX
  8
0
 62
7
  6
CONTINUOUS
 10
12.5658793829
 20
226.5943586734
  0
VERTEX
  8
0
 62
7
  6
CONTINUOUS
 10
12.0953090588
 20
226.6184042987
  0
VERTEX
  8
0
 62
7
  6
CONTINUOUS
 10
11.6337034262
 20
226.6437637822
  0
VERTEX
  8
0
 62
7
  6
CONTINUOUS
 10
11.1815418993
 20
226.6704084892
  0
VERTEX
  8
0
 62
7
  6
CONTINUOUS
 10
10.7393399853
 20
226.6983111271
  0
VERTEX
  8
0
 62
7
  6
CONTINUOUS
 10
10.3074771513
 20
226.7274461098
  0
VERTEX
  8
0
 62
7
  6
CONTINUOUS
 10
9.8862867387
 20
226.757796076
  0
VERTEX
  8
0
 62
7
  6
CONTINUOUS
 10
9.4764226327
 20
226.7893090591
  0
VERTEX
  8
0
 62
7
  6
CONTINUOUS
 10
9.0789373181
 20
226.8218983795
  0
VERTEX
  8
0
 62
7
  6
CONTINUOUS
 10
8.6929683376
 20
226.8556508145
  0
VERTEX
  8
0
 62
7
  6
CONTINUOUS
 10
8.3178035419
 20
226.8906285364
  0
VERTEX
  8
0
 62
7
  6
CONTINUOUS
 10
7.9540444928
 20
226.9268186808
  0
VERTEX
  8
0
 62
7
  6
CONTINUOUS
 10
7.6016264693
 20
226.9642661073
  0
VERTEX
  8
0
 62
7
  6
CONTINUOUS
 10
7.2618361716
 20
227.0028598164
  0
VERTEX
  8
0
 62
7
  6
CONTINUOUS
 10
6.9360968672
 20
227.0424917562
  0
VERTEX
  8
0
 62
7
  6
CONTINUOUS
 10
6.6239341336
 20
227.0831979439
  0
SEQEND
  0
POLYLINE
  8
0
 62
7
  6
CONTINUOUS
 66
1
 70
0
  0
VERTEX
  8
0
 62
7
  6
CONTINUOUS
 10
214.0226702415
 20
229.2124807131
  0
VERTEX
  8
0
 62
7
  6
CONTINUOUS
 10
213.9965218023
 20
229.2458321218
  0
VERTEX
  8
0
 62
7
  6
CONTINUOUS
 10
213.9543325184
 20
229.2789955864
  0
VERTEX
  8
0
 62
7
  6
CONTINUOUS
 10
213.8960405882
 20
229.3120009781
  0
VERTEX
  8
0
 62
7
  6
CONTINUOUS
 10
213.8218314167
 20
229.3447586833
  0
VERTEX
  8
0
 62
7
  6
CONTINUOUS
 10
213.7317995984
 20
229.3772082261
  0
VERTEX
  8
0
 62
7
  6
CONTINUOUS
 10
213.6261557622
 20
229.4092920647
  0
VERTEX
  8
0
 62
7
  6
CONTINUOUS
 10
213.5050532557
 20
229.4409510964
  0
VERTEX
  8
0
 62
7
  6
CONTINUOUS
 10
213.3687585163
 20
229.4721295288
  0
VERTEX
  8
0
 62
7
  6
CONTINUOUS
 10
213.2174817293
 20
229.502769806
  0
VERTEX
  8
0
 62
7
  6
CONTINUOUS
 10
213.0515449984
 20
229.5328181167
  0
VERTEX
  8
0
 62
7
  6
CONTINUOUS
 10
212.8712183159
 20
229.5622181832
  0
VERTEX
  8
0
 62
7
  6
CONTINUOUS
 10
212.6768682017
 20
229.5909198481
  0
VERTEX
  8
0
 62
7
  6
CONTINUOUS
 10
212.4688095287
 20
229.6188703898
  0
VERTEX
  8
0
 62
7
  6
CONTINUOUS
 10
212.2474672304
 20
229.6460212228
  0
VERTEX
  8
0
 62
7
  6
CONTINUOUS
 10
212.0132208539
 20
229.6723205738
  0
VERTEX
  8
0
 62
7
  6
CONTINUOUS
 10
211.7665214315
 20
229.6977252841
  0
VERTEX
  8
0
 62
7
  6
CONTINUOUS
 10
211.5077747457
 20
229.7221888989
  0
VERTEX
  8
0
 62
7
  6
CONTINUOUS
 10
211.2374960918
 20
229.7456695332
  0
VERTEX
  8
0
 62
7
  6
CONTINUOUS
 10
210.9561627778
 20
229.7681215821
  0
VERTEX
  8
0
 62
7
  6
CONTINUOUS
 10
210.6642945484
 20
229.7895097502
  0
VERTEX
  8
0
 62
7
  6
CONTINUOUS
 10
210.362373935
 20
229.8097948217
  0
VERTEX
  8
0
 62
7
  6
CONTINUOUS
 10
210.0509898862
 20
229.8289429533
  0
VERTEX
  8
0
 62
7
  6
CONTINUOUS
 10
209.7307007655
 20
229.8469162084
  0
VERTEX
  8
0
 62
7
  6
CONTINUOUS
 10
209.4020808604
 20
229.8636876507
  0
VERTEX
  8
0
 62
7
  6
CONTINUOUS
 10
209.0656764482
 20
229.879225948
  0
VERTEX
  8
0
 62
7
  6
CONTINUOUS
 10
208.7221299225
 20
229.8935063513
  0
VERTEX
  8
0
 62
7
  6
CONTINUOUS
 10
208.3720602359
 20
229.906499752
  0
VERTEX
  8
0
 62
7
  6
CONTINUOUS
 10
207.6547998471
 20
229.9285478276
  0
SEQEND
  0
LINE
  8
0
 62
7
  6
CONTINUOUS
 10
376.0804413289
 20
217.7982706775
 11
379.393796191
 21
221.1116255396
  0
POLYLINE
  8
0
 62
7
  6
CONTINUOUS
 66
1
 70
0
  0
VERTEX
  8
0
 62
7
  6
CONTINUOUS
 10
6.6239341336
 20
227.0831979439
  0
VERTEX
  8
0
 62
7
  6
CONTINUOUS
 10
6.325041271
 20
227.0585265625
  0
VERTEX
  8
0
 62
7
  6
CONTINUOUS
 10
6.0267393135
 20
227.0181482957
  0
VERTEX
  8
0
 62
7
  6
CONTINUOUS
 10
5.7296179982
 20
226.9621429706
  0
VERTEX
  8
0
 62
7
  6
CONTINUOUS
 10
5.4342647283
 20
226.8906213085
  0
VERTEX
  8
0
 62
7
  6
CONTINUOUS
 10
5.1412634115
 20
226.8037247064
  0
VERTEX
  8
0
 62
7
  6
CONTINUOUS
 10
4.8511933056
 20
226.7016249571
  0
VERTEX
  8
0
 62
7
  6
CONTINUOUS
 10
4.5646278735
 20
226.5845239097
  0
VERTEX
  8
0
 62
7
  6
CONTINUOUS
 10
4.2821336497
 20
226.4526530708
  0
VERTEX
  8
0
 62
7
  6
CONTINUOUS
 10
4.0042691197
 20
226.3062731464
  0
VERTEX
  8
0
 62
7
  6
CONTINUOUS
 10
3.7315836162
 20
226.1456735267
  0
VERTEX
  8
0
 62
7
  6
CONTINUOUS
 10
3.4646162333
 20
225.9711717141
  0
VERTEX
  8
0
 62
7
  6
CONTINUOUS
 10
3.2038947603
 20
225.7831126951
  0
VERTEX
  8
0
 62
7
  6
CONTINUOUS
 10
2.9499346385
 20
225.5818682587
  0
VERTEX
  8
0
 62
7
  6
CONTINUOUS
 10
2.7032379421
 20
225.3678362614
  0
VERTEX
  8
0
 62
7
  6
CONTINUOUS
 10
2.4642923857
 20
225.1414398402
  0
VERTEX
  8
0
 62
7
  6
CONTINUOUS
 10
2.2335703601
 20
224.9031265763
  0
VERTEX
  8
0
 62
7
  6
CONTINUOUS
 10
2.0115279982
 20
224.6533676104
  0
VERTEX
  8
0
 62
7
  6
CONTINUOUS
 10
1.7986042736
 20
224.3926567113
  0
VERTEX
  8
0
 62
7
  6
CONTINUOUS
 10
1.5952201323
 20
224.1215092991
  0
VERTEX
  8
0
 62
7
  6
CONTINUOUS
 10
1.4017776608
 20
223.8404614271
  0
VERTEX
  8
0
 62
7
  6
CONTINUOUS
 10
1.2186592912
 20
223.5500687215
  0
VERTEX
  8
0
 62
7
  6
CONTINUOUS
 10
1.0462270449
 20
223.250905283
  0
VERTEX
  8
0
 62
7
  6
CONTINUOUS
 10
0.8848218171
 20
222.9435625519
  0
VERTEX
  8
0
 62
7
  6
CONTINUOUS
 10
0.734762703
 20
222.6286481388
  0
VERTEX
  8
0
 62
7
  6
CONTINUOUS
 10
0.5963463664
 20
222.3067846235
  0
VERTEX
  8
0
 62
7
  6
CONTINUOUS
 10
0.4698464539
 20
221.9786083237
  0
VERTEX
  8
0
 62
7
  6
CONTINUOUS
 10
0.3555130532
 20
221.6447680377
  0
VERTEX
  8
0
 62
7
  6
CONTINUOUS
 10
0.2535721993
 20
221.3059237613
  0
VERTEX
  8
0
 62
7
  6
CONTINUOUS
 10
0.1642254274
 20
220.9627453831
  0
VERTEX
  8
0
 62
7
  6
CONTINUOUS
 10
0.0876493743
 20
220.61591136
  0
VERTEX
  8
0
 62
7
  6
CONTINUOUS
 10
0.0239954293
 20
220.2661073762
  0
VERTEX
  8
0
 62
7
  6
CONTINUOUS
 10
-0.0266105649
 20
219.9140249874
  0
VERTEX
  8
0
 62
7
  6
CONTINUOUS
 10
-0.0640685613
 20
219.5603602536
  0
VERTEX
  8
0
 62
7
  6
CONTINUOUS
 10
-0.088304506
 20
219.2058123633
  0
SEQEND
  0
LINE
  8
0
 62
7
  6
CONTINUOUS
 10
2.6335595571
 20
239.0431301052
 11
369.4318492101
 21
239.0431301052
  0
POLYLINE
  8
0
 62
7
  6
CONTINUOUS
 66
1
 70
0
  0
VERTEX
  8
0
 62
7
  6
CONTINUOUS
 10
369.4318492101
 20
239.0431301052
  0
VERTEX
  8
0
 62
7
  6
CONTINUOUS
 10
370.0799041617
 20
239.0313148508
  0
VERTEX
  8
0
 62
7
  6
CONTINUOUS
 10
370.7228915363
 20
238.9969197167
  0
VERTEX
  8
0
 62
7
  6
CONTINUOUS
 10
371.3601785395
 20
238.9399480753
  0
VERTEX
  8
0
 62
7
  6
CONTINUOUS
 10
371.9936635548
 20
238.8603898098
  0
VERTEX
  8
0
 62
7
  6
CONTINUOUS
 10
372.625884943
 20
238.758139963
  0
VERTEX
  8
0
 62
7
  6
CONTINUOUS
 10
373.2542899785
 20
238.6334864287
  0
VERTEX
  8
0
 62
7
  6
CONTINUOUS
 10
373.877431536
 20
238.4865772853
  0
VERTEX
  8
0
 62
7
  6
CONTINUOUS
 10
374.4945311753
 20
238.3177270215
  0
VERTEX
  8
0
 62
7
  6
CONTINUOUS
 10
375.1045448448
 20
238.1271939752
  0
VERTEX
  8
0
 62
7
  6
CONTINUOUS
 10
375.7068222524
 20
237.915294676
  0
VERTEX
  8
0
 62
7
  6
CONTINUOUS
 10
376.3005229219
 20
237.682347694
  0
VERTEX
  8
0
 62
7
  6
CONTINUOUS
 10
376.8851733548
 20
237.4286052454
  0
VERTEX
  8
0
 62
7
  6
CONTINUOUS
 10
377.4602364567
 20
237.1543135308
  0
VERTEX
  8
0
 62
7
  6
CONTINUOUS
 10
378.025062539
 20
236.8598091681
  0
VERTEX
  8
0
 62
7
  6
CONTINUOUS
 10
378.579073631
 20
236.5453563713
  0
VERTEX
  8
0
 62
7
  6
CONTINUOUS
 10
379.1215174845
 20
236.2114185521
  0
VERTEX
  8
0
 62
7
  6
CONTINUOUS
 10
379.6516773938
 20
235.8583747091
  0
VERTEX
  8
0
 62
7
  6
CONTINUOUS
 10
380.1688687601
 20
235.4867422958
  0
VERTEX
  8
0
 62
7
  6
CONTINUOUS
 10
380.6723542503
 20
235.096999413
  0
VERTEX
  8
0
 62
7
  6
CONTINUOUS
 10
381.161575362
 20
234.689643118
  0
VERTEX
  8
0
 62
7
  6
CONTINUOUS
 10
381.6358981823
 20
234.2651619329
  0
VERTEX
  8
0
 62
7
  6
CONTINUOUS
 10
382.09481161
 20
233.8240595645
  0
VERTEX
  8
0
 62
7
  6
CONTINUOUS
 10
382.5377727811
 20
233.3668045107
  0
VERTEX
  8
0
 62
7
  6
CONTINUOUS
 10
382.9642430703
 20
232.8939909211
  0
VERTEX
  8
0
 62
7
  6
CONTINUOUS
 10
383.3736814833
 20
232.4061363023
  0
VERTEX
  8
0
 62
7
  6
CONTINUOUS
 10
383.7655522632
 20
231.9039390818
  0
VERTEX
  8
0
 62
7
  6
CONTINUOUS
 10
384.1392844525
 20
231.388041528
  0
VERTEX
  8
0
 62
7
  6
CONTINUOUS
 10
384.49444266
 20
230.8591296252
  0
VERTEX
  8
0
 62
7
  6
CONTINUOUS
 10
384.8305038612
 20
230.317919525
  0
VERTEX
  8
0
 62
7
  6
CONTINUOUS
 10
385.1471599979
 20
229.7649629938
  0
VERTEX
  8
0
 62
7
  6
CONTINUOUS
 10
385.4440277748
 20
229.2008719194
  0
VERTEX
  8
0
 62
7
  6
CONTINUOUS
 10
385.720809879
 20
228.6261820888
  0
VERTEX
  8
0
 62
7
  6
CONTINUOUS
 10
385.9772009094
 20
228.0413852096
  0
VERTEX
  8
0
 62
7
  6
CONTINUOUS
 10
386.2128418357
 20
227.4472254084
  0
VERTEX
  8
0
 62
7
  6
CONTINUOUS
 10
386.4274139108
 20
226.8441598255
  0
VERTEX
  8
0
 62
7
  6
CONTINUOUS
 10
386.6204908845
 20
226.2335411264
  0
VERTEX
  8
0
 62
7
  6
CONTINUOUS
 10
386.7914368044
 20
225.6175334819
  0
VERTEX
  8
0
 62
7
  6
CONTINUOUS
 10
386.9405620301
 20
224.994159516
  0
VERTEX
  8
0
 62
7
  6
CONTINUOUS
 10
387.0682281101
 20
224.3615955089
  0
VERTEX
  8
0
 62
7
  6
CONTINUOUS
 10
387.1736455254
 20
223.7215446632
  0
VERTEX
  8
0
 62
7
  6
CONTINUOUS
 10
387.2562775063
 20
223.0742832506
  0
VERTEX
  8
0
 62
7
  6
CONTINUOUS
 10
387.3157273531
 20
222.422268344
  0
VERTEX
  8
0
 62
7
  6
CONTINUOUS
 10
387.35134749
 20
221.7683677524
  0
VERTEX
  8
0
 62
7
  6
CONTINUOUS
 10
387.3633537757
 20
221.1116255396
  0
SEQEND
  0
POLYLINE
  8
0
 62
7
  6
CONTINUOUS
 66
1
 70
0
  0
VERTEX
  8
0
 62
7
  6
CONTINUOUS
 10
365.4414746411
 20
227.0831979515
  0
VERTEX
  8
0
 62
7
  6
CONTINUOUS
 10
365.7403675122
 20
227.0585265683
  0
VERTEX
  8
0
 62
7
  6
CONTINUOUS
 10
366.0386694794
 20
227.0181482981
  0
VERTEX
  8
0
 62
7
  6
CONTINUOUS
 10
366.3357908055
 20
226.962142968
  0
VERTEX
  8
0
 62
7
  6
CONTINUOUS
 10
366.6311440874
 20
226.890621299
  0
VERTEX
  8
0
 62
7
  6
CONTINUOUS
 10
366.9241454172
 20
226.8037246879
  0
VERTEX
  8
0
 62
7
  6
CONTINUOUS
 10
367.2142155369
 20
226.7016249275
  0
VERTEX
  8
0
 62
7
  6
CONTINUOUS
 10
367.5007809835
 20
226.5845238666
  0
VERTEX
  8
0
 62
7
  6
CONTINUOUS
 10
367.7832752224
 20
226.4526530117
  0
VERTEX
  8
0
 62
7
  6
CONTINUOUS
 10
368.0611397679
 20
226.3062730687
  0
VERTEX
  8
0
 62
7
  6
CONTINUOUS
 10
368.3338252871
 20
226.1456734276
  0
VERTEX
  8
0
 62
7
  6
CONTINUOUS
 10
368.6007926857
 20
225.9711715908
  0
VERTEX
  8
0
 62
7
  6
CONTINUOUS
 10
368.8615141742
 20
225.7831125447
  0
VERTEX
  8
0
 62
7
  6
CONTINUOUS
 10
369.1154743111
 20
225.5818680785
  0
VERTEX
  8
0
 62
7
  6
CONTINUOUS
 10
369.3621710219
 20
225.3678360483
  0
VERTEX
  8
0
 62
7
  6
CONTINUOUS
 10
369.6011165918
 20
225.1414395912
  0
VERTEX
  8
0
 62
7
  6
CONTINUOUS
 10
369.8318386298
 20
224.9031262887
  0
VERTEX
  8
0
 62
7
  6
CONTINUOUS
 10
370.0538810027
 20
224.6533672813
  0
VERTEX
  8
0
 62
7
  6
CONTINUOUS
 10
370.2668047367
 20
224.3926563379
  0
VERTEX
  8
0
 62
7
  6
CONTINUOUS
 10
370.4701888857
 20
224.1215088788
  0
VERTEX
  8
0
 62
7
  6
CONTINUOUS
 10
370.6636313627
 20
223.8404609574
  0
VERTEX
  8
0
 62
7
  6
CONTINUOUS
 10
370.8467497355
 20
223.5500682001
  0
VERTEX
  8
0
 62
7
  6
CONTINUOUS
 10
371.0191819824
 20
223.2509047076
  0
VERTEX
  8
0
 62
7
  6
CONTINUOUS
 10
371.180587208
 20
222.9435619207
  0
VERTEX
  8
0
 62
7
  6
CONTINUOUS
 10
371.330646317
 20
222.62864745
  0
VERTEX
  8
0
 62
7
  6
CONTINUOUS
 10
371.4690626452
 20
222.3067838756
  0
VERTEX
  8
0
 62
7
  6
CONTINUOUS
 10
371.5955625462
 20
221.9786075156
  0
VERTEX
  8
0
 62
7
  6
CONTINUOUS
 10
371.7098959317
 20
221.6447671686
  0
VERTEX
  8
0
 62
7
  6
CONTINUOUS
 10
371.8118367667
 20
221.3059228305
  0
VERTEX
  8
0
 62
7
  6
CONTINUOUS
 10
371.901183516
 20
220.9627443905
  0
VERTEX
  8
0
 62
7
  6
CONTINUOUS
 10
371.9777595426
 20
220.6159103057
  0
VERTEX
  8
0
 62
7
  6
CONTINUOUS
 10
372.041413457
 20
220.2661062607
  0
VERTEX
  8
0
 62
7
  6
CONTINUOUS
 10
372.0920194166
 20
219.9140238115
  0
VERTEX
  8
0
 62
7
  6
CONTINUOUS
 10
372.1294773743
 20
219.5603590188
  0
VERTEX
  8
0
 62
7
  6
CONTINUOUS
 10
372.1537132762
 20
219.205811071
  0
SEQEND
  0
POLYLINE
  8
0
 62
7
  6
CONTINUOUS
 66
1
 70
0
  0
VERTEX
  8
0
 62
7
  6
CONTINUOUS
 10
376.698291919
 20
-28.8941950402
  0
VERTEX
  8
0
 62
7
  6
CONTINUOUS
 10
376.723566522
 20
-28.9490809135
  0
VERTEX
  8
0
 62
7
  6
CONTINUOUS
 10
376.7489168155
 20
-28.9986643267
  0
VERTEX
  8
0
 62
7
  6
CONTINUOUS
 10
376.774344929
 20
-29.0429493197
  0
VERTEX
  8
0
 62
7
  6
CONTINUOUS
 10
376.7998444741
 20
-29.0819237728
  0
VERTEX
  8
0
 62
7
  6
CONTINUOUS
 10
376.825409062
 20
-29.1155755665
  0
VERTEX
  8
0
 62
7
  6
CONTINUOUS
 10
376.8510408223
 20
-29.1439087406
  0
SEQEND
  0
LINE
  8
0
 62
7
  6
CONTINUOUS
 10
353.5315558398
 20
219.3612031524
 11
353.5423930618
 21
218.6333401795
  0
POLYLINE
  8
0
 62
7
  6
CONTINUOUS
 66
1
 70
0
  0
VERTEX
  8
0
 62
7
  6
CONTINUOUS
 10
355.6918129707
 20
11.9678151082
  0
VERTEX
  8
0
 62
7
  6
CONTINUOUS
 10
355.754622647
 20
6.5987621718
  0
VERTEX
  8
0
 62
7
  6
CONTINUOUS
 10
355.8185271995
 20
1.1536966928
  0
VERTEX
  8
0
 62
7
  6
CONTINUOUS
 10
356.0170503366
 20
-15.6695653486
  0
SEQEND
  0
POLYLINE
  8
0
 62
7
  6
CONTINUOUS
 66
1
 70
0
  0
VERTEX
  8
0
 62
7
  6
CONTINUOUS
 10
355.5074696959
 20
27.843469195
  0
VERTEX
  8
0
 62
7
  6
CONTINUOUS
 10
355.5683833403
 20
22.5763176474
  0
VERTEX
  8
0
 62
7
  6
CONTINUOUS
 10
355.6918129707
 20
11.9678151082
  0
SEQEND
  0
POLYLINE
  8
0
 62
7
  6
CONTINUOUS
 66
1
 70
0
  0
VERTEX
  8
0
 62
7
  6
CONTINUOUS
 10
355.3270664701
 20
43.5877083725
  0
VERTEX
  8
0
 62
7
  6
CONTINUOUS
 10
355.3868678212
 20
38.3428561502
  0
VERTEX
  8
0
 62
7
  6
CONTINUOUS
 10
355.5074696959
 20
27.843469195
  0
SEQEND
  0
POLYLINE
  8
0
 62
7
  6
CONTINUOUS
 66
1
 70
0
  0
VERTEX
  8
0
 62
7
  6
CONTINUOUS
 10
355.1492798739
 20
59.3527280051
  0
VERTEX
  8
0
 62
7
  6
CONTINUOUS
 10
355.2082867673
 20
54.090068572
  0
VERTEX
  8
0
 62
7
  6
CONTINUOUS
 10
355.3270664701
 20
43.5877083725
  0
SEQEND
  0
LINE
  8
0
 62
7
  6
CONTINUOUS
 10
355.032065829
 20
69.9044244137
 11
355.1492798739
 21
59.3527280051
  0
LINE
  8
0
 62
7
  6
CONTINUOUS
 10
354.9161508853
 20
80.4772981324
 11
355.032065829
 21
69.9044244137
  0
LINE
  8
0
 62
7
  6
CONTINUOUS
 10
354.6331345994
 20
106.9405502656
 11
354.9161508853
 21
80.4772981324
  0
LINE
  8
0
 62
7
  6
CONTINUOUS
 10
354.3598903486
 20
133.4688481909
 11
354.6331345994
 21
106.9405502656
  0
LINE
  8
0
 62
7
  6
CONTINUOUS
 10
353.8939152377
 20
181.0762345796
 11
354.3598903486
 21
133.4688481909
  0
LINE
  8
0
 62
7
  6
CONTINUOUS
 10
353.5423930456
 20
218.6333401711
 11
353.8939152377
 21
181.0762345796
  0
POLYLINE
  8
0
 62
7
  6
CONTINUOUS
 66
1
 70
0
  0
VERTEX
  8
0
 62
7
  6
CONTINUOUS
 10
352.7851699348
 20
226.4101458485
  0
VERTEX
  8
0
 62
7
  6
CONTINUOUS
 10
352.8199158864
 20
226.3702018535
  0
VERTEX
  8
0
 62
7
  6
CONTINUOUS
 10
352.8545895393
 20
226.3137580185
  0
VERTEX
  8
0
 62
7
  6
CONTINUOUS
 10
352.8891187448
 20
226.2409317909
  0
VERTEX
  8
0
 62
7
  6
CONTINUOUS
 10
352.9234316551
 20
226.1518747065
  0
VERTEX
  8
0
 62
7
  6
CONTINUOUS
 10
352.9574568722
 20
226.046772074
  0
VERTEX
  8
0
 62
7
  6
CONTINUOUS
 10
352.9911235969
 20
225.9258425895
  0
VERTEX
  8
0
 62
7
  6
CONTINUOUS
 10
353.024361776
 20
225.7893378814
  0
VERTEX
  8
0
 62
7
  6
CONTINUOUS
 10
353.0571022477
 20
225.637541987
  0
VERTEX
  8
0
 62
7
  6
CONTINUOUS
 10
353.0892768862
 20
225.4707707609
  0
VERTEX
  8
0
 62
7
  6
CONTINUOUS
 10
353.1208187429
 20
225.2893712188
  0
VERTEX
  8
0
 62
7
  6
CONTINUOUS
 10
353.1516621858
 20
225.0937208142
  0
VERTEX
  8
0
 62
7
  6
CONTINUOUS
 10
353.1817430363
 20
224.884226654
  0
VERTEX
  8
0
 62
7
  6
CONTINUOUS
 10
353.2109987025
 20
224.6613246511
  0
VERTEX
  8
0
 62
7
  6
CONTINUOUS
 10
353.2393683096
 20
224.4254786169
  0
VERTEX
  8
0
 62
7
  6
CONTINUOUS
 10
353.2667928265
 20
224.177179297
  0
VERTEX
  8
0
 62
7
  6
CONTINUOUS
 10
353.2932151885
 20
223.9169433493
  0
VERTEX
  8
0
 62
7
  6
CONTINUOUS
 10
353.3185804164
 20
223.6453122696
  0
VERTEX
  8
0
 62
7
  6
CONTINUOUS
 10
353.3428357304
 20
223.3628512643
  0
VERTEX
  8
0
 62
7
  6
CONTINUOUS
 10
353.3659306605
 20
223.0701480748
  0
VERTEX
  8
0
 62
7
  6
CONTINUOUS
 10
353.3878171508
 20
222.7678117542
  0
VERTEX
  8
0
 62
7
  6
CONTINUOUS
 10
353.4084496604
 20
222.4564714002
  0
VERTEX
  8
0
 62
7
  6
CONTINUOUS
 10
353.4277852573
 20
222.1367748458
  0
VERTEX
  8
0
 62
7
  6
CONTINUOUS
 10
353.4457837083
 20
221.8093873117
  0
VERTEX
  8
0
 62
7
  6
CONTINUOUS
 10
353.4624075623
 20
221.4749900219
  0
VERTEX
  8
0
 62
7
  6
CONTINUOUS
 10
353.4776222287
 20
221.134278786
  0
VERTEX
  8
0
 62
7
  6
CONTINUOUS
 10
353.4913960489
 20
220.7879625518
  0
VERTEX
  8
0
 62
7
  6
CONTINUOUS
 10
353.5037003627
 20
220.4367619299
  0
VERTEX
  8
0
 62
7
  6
CONTINUOUS
 10
353.5145095672
 20
220.0814076941
  0
VERTEX
  8
0
 62
7
  6
CONTINUOUS
 10
353.5238011709
 20
219.7226392613
  0
VERTEX
  8
0
 62
7
  6
CONTINUOUS
 10
353.5315558398
 20
219.3612031524
  0
SEQEND
  0
POLYLINE
  8
0
 62
7
  6
CONTINUOUS
 66
1
 70
0
  0
VERTEX
  8
0
 62
7
  6
CONTINUOUS
 10
376.0804413754
 20
217.798270724
  0
VERTEX
  8
0
 62
7
  6
CONTINUOUS
 10
376.0471329296
 20
218.2032796698
  0
VERTEX
  8
0
 62
7
  6
CONTINUOUS
 10
375.9961589637
 20
218.6041220424
  0
VERTEX
  8
0
 62
7
  6
CONTINUOUS
 10
375.9281700254
 20
218.9993156408
  0
VERTEX
  8
0
 62
7
  6
CONTINUOUS
 10
375.8432821019
 20
219.3904317203
  0
VERTEX
  8
0
 62
7
  6
CONTINUOUS
 10
375.7412427362
 20
219.7789930697
  0
VERTEX
  8
0
 62
7
  6
CONTINUOUS
 10
375.6223867541
 20
220.1636106014
  0
VERTEX
  8
0
 62
7
  6
CONTINUOUS
 10
375.4869125915
 20
220.5436791839
  0
VERTEX
  8
0
 62
7
  6
CONTINUOUS
 10
375.3351116658
 20
220.9184237181
  0
VERTEX
  8
0
 62
7
  6
CONTINUOUS
 10
375.1673011878
 20
221.2871279397
  0
VERTEX
  8
0
 62
7
  6
CONTINUOUS
 10
374.9838254742
 20
221.6491051134
  0
VERTEX
  8
0
 62
7
  6
CONTINUOUS
 10
374.7850720916
 20
222.0036724441
  0
VERTEX
  8
0
 62
7
  6
CONTINUOUS
 10
374.5714311539
 20
222.3502179679
  0
VERTEX
  8
0
 62
7
  6
CONTINUOUS
 10
374.3433308169
 20
222.6881314153
  0
VERTEX
  8
0
 62
7
  6
CONTINUOUS
 10
374.1012063502
 20
223.0168475823
  0
VERTEX
  8
0
 62
7
  6
CONTINUOUS
 10
373.8455205494
 20
223.3358160612
  0
VERTEX
  8
0
 62
7
  6
CONTINUOUS
 10
373.5767542427
 20
223.6445104471
  0
VERTEX
  8
0
 62
7
  6
CONTINUOUS
 10
373.2954023308
 20
223.942434283
  0
VERTEX
  8
0
 62
7
  6
CONTINUOUS
 10
373.0020058154
 20
224.2290845652
  0
VERTEX
  8
0
 62
7
  6
CONTINUOUS
 10
372.6971149114
 20
224.503997765
  0
VERTEX
  8
0
 62
7
  6
CONTINUOUS
 10
372.3813176307
 20
224.7667186014
  0
VERTEX
  8
0
 62
7
  6
CONTINUOUS
 10
372.0552264105
 20
225.0168200443
  0
VERTEX
  8
0
 62
7
  6
CONTINUOUS
 10
371.719430056
 20
225.2539330724
  0
VERTEX
  8
0
 62
7
  6
CONTINUOUS
 10
371.3745509492
 20
225.4777030264
  0
VERTEX
  8
0
 62
7
  6
CONTINUOUS
 10
371.0211783945
 20
225.6878294754
  0
VERTEX
  8
0
 62
7
  6
CONTINUOUS
 10
370.6599284876
 20
225.8840264924
  0
VERTEX
  8
0
 62
7
  6
CONTINUOUS
 10
370.2913910922
 20
226.0660493429
  0
VERTEX
  8
0
 62
7
  6
CONTINUOUS
 10
369.9161387501
 20
226.2336850459
  0
VERTEX
  8
0
 62
7
  6
CONTINUOUS
 10
369.5348669562
 20
226.3866911971
  0
VERTEX
  8
0
 62
7
  6
CONTINUOUS
 10
369.1483341686
 20
226.5248449088
  0
VERTEX
  8
0
 62
7
  6
CONTINUOUS
 10
368.7569655959
 20
226.6480687846
  0
VERTEX
  8
0
 62
7
  6
CONTINUOUS
 10
368.3621262139
 20
226.7560366412
  0
VERTEX
  8
0
 62
7
  6
CONTINUOUS
 10
367.9617257556
 20
226.849308938
  0
VERTEX
  8
0
 62
7
  6
CONTINUOUS
 10
367.5534534715
 20
226.9280621288
  0
VERTEX
  8
0
 62
7
  6
CONTINUOUS
 10
367.1389427002
 20
226.9915232099
  0
VERTEX
  8
0
 62
7
  6
CONTINUOUS
 10
366.7183593539
 20
227.0392463534
  0
VERTEX
  8
0
 62
7
  6
CONTINUOUS
 10
366.2940216051
 20
227.0706106105
  0
VERTEX
  8
0
 62
7
  6
CONTINUOUS
 10
365.8683529432
 20
227.0852926246
  0
VERTEX
  8
0
 62
7
  6
CONTINUOUS
 10
365.4414746411
 20
227.0831979515
  0
SEQEND
  0
LINE
  8
0
 62
7
  6
CONTINUOUS
 10
376.6632086236
 20
-23.3184136908
 11
376.698291919
 21
-28.8941950402
  0
POLYLINE
  8
0
 62
7
  6
CONTINUOUS
 66
1
 70
0
  0
VERTEX
  8
0
 62
7
  6
CONTINUOUS
 10
376.5532952825
 20
-5.5968436352
  0
VERTEX
  8
0
 62
7
  6
CONTINUOUS
 10
376.5903311089
 20
-11.6130659365
  0
VERTEX
  8
0
 62
7
  6
CONTINUOUS
 10
376.6632086236
 20
-23.3184136908
  0
SEQEND
  0
LINE
  8
0
 62
7
  6
CONTINUOUS
 10
376.4822006524
 20
6.1393052454
 11
376.5532952825
 21
-5.5968436352
  0
LINE
  8
0
 62
7
  6
CONTINUOUS
 10
376.4155007361
 20
17.4613454741
 11
376.4822006524
 21
6.1393052454
  0
LINE
  8
0
 62
7
  6
CONTINUOUS
 10
376.3218449882
 20
34.1551676049
 11
376.4155007361
 21
17.4613454741
  0
LINE
  8
0
 62
7
  6
CONTINUOUS
 10
376.2638893819
 20
45.2026630545
 11
376.3218449882
 21
34.1551676049
  0
LINE
  8
0
 62
7
  6
CONTINUOUS
 10
376.2099447082
 20
56.2458982367
 11
376.2638893819
 21
45.2026630545
  0
LINE
  8
0
 62
7
  6
CONTINUOUS
 10
376.1605663508
 20
67.3101867611
 11
376.2099447082
 21
56.2458982367
  0
LINE
  8
0
 62
7
  6
CONTINUOUS
 10
376.116436942
 20
78.3906166528
 11
376.1605663508
 21
67.3101867611
  0
LINE
  8
0
 62
7
  6
CONTINUOUS
 10
376.0782091665
 20
89.4699208082
 11
376.116436942
 21
78.3906166528
  0
POLYLINE
  8
0
 62
7
  6
CONTINUOUS
 66
1
 70
0
  0
VERTEX
  8
0
 62
7
  6
CONTINUOUS
 10
375.9964940397
 20
128.2614173425
  0
VERTEX
  8
0
 62
7
  6
CONTINUOUS
 10
376.0030128626
 20
122.7123684182
  0
VERTEX
  8
0
 62
7
  6
CONTINUOUS
 10
376.0112555855
 20
117.16514069
  0
VERTEX
  8
0
 62
7
  6
CONTINUOUS
 10
376.0212448099
 20
111.6213305744
  0
VERTEX
  8
0
 62
7
  6
CONTINUOUS
 10
376.0329529509
 20
106.0803735138
  0
VERTEX
  8
0
 62
7
  6
CONTINUOUS
 10
376.0463730156
 20
100.5430440481
  0
VERTEX
  8
0
 62
7
  6
CONTINUOUS
 10
376.0782091665
 20
89.4699208082
  0
SEQEND
  0
LINE
  8
0
 62
7
  6
CONTINUOUS
 10
375.9885878742
 20
139.3607540874
 11
375.9964940397
 21
128.2614173425
  0
LINE
  8
0
 62
7
  6
CONTINUOUS
 10
369.4318492101
 20
239.0431301052
 11
369.4318492101
 21
231.0735725205
  0
LINE
  8
0
 62
7
  6
CONTINUOUS
 10
369.4318492101
 20
-49.6181686791
 11
369.4318492101
 21
-41.6486110943
  0
LINE
  8
0
 62
7
  6
CONTINUOUS
 10
375.9872197313
 20
150.4571310901
 11
375.9885878742
 21
139.3607540874
  0
LINE
  8
0
 62
7
  6
CONTINUOUS
 10
379.393796191
 20
221.1116255396
 11
379.393796191
 21
-31.6866641134
  0
LINE
  8
0
 62
7
  6
CONTINUOUS
 10
380.0327043836
 20
-50.2875192869
 11
380.0327043836
 21
-58.2875192869
  0
LINE
  8
0
 62
7
  6
CONTINUOUS
 10
375.9918692391
 20
161.5470647338
 11
375.9872197313
 21
150.4571310901
  0
LINE
  8
0
 62
7
  6
CONTINUOUS
 10
376.0018625902
 20
172.6321019894
 11
375.9918692391
 21
161.5470647338
  0
LINE
  8
0
 62
7
  6
CONTINUOUS
 10
376.0164480283
 20
183.7362102325
 11
376.0018625902
 21
172.6321019894
  0
LINE
  8
0
 62
7
  6
CONTINUOUS
 10
376.0453099843
 20
200.5511948529
 11
376.0164480283
 21
183.7362102325
  0
POLYLINE
  8
0
 62
7
  6
CONTINUOUS
 66
1
 70
0
  0
VERTEX
  8
0
 62
7
  6
CONTINUOUS
 10
376.0804413289
 20
217.7982706775
  0
VERTEX
  8
0
 62
7
  6
CONTINUOUS
 10
376.0681367555
 20
211.9892843097
  0
VERTEX
  8
0
 62
7
  6
CONTINUOUS
 10
376.0453099843
 20
200.5511948529
  0
SEQEND
  0
POLYLINE
  8
0
 62
7
  6
CONTINUOUS
 66
1
 70
0
  0
VERTEX
  8
0
 62
7
  6
CONTINUOUS
 10
379.393796191
 20
-31.6866641134
  0
VERTEX
  8
0
 62
7
  6
CONTINUOUS
 10
379.3894761684
 20
-32.048607544
  0
VERTEX
  8
0
 62
7
  6
CONTINUOUS
 10
379.3722948749
 20
-32.4080806823
  0
VERTEX
  8
0
 62
7
  6
CONTINUOUS
 10
379.3425335111
 20
-32.764069515
  0
VERTEX
  8
0
 62
7
  6
CONTINUOUS
 10
379.3002450451
 20
-33.1178656769
  0
VERTEX
  8
0
 62
7
  6
CONTINUOUS
 10
379.2452353715
 20
-33.4708784975
  0
VERTEX
  8
0
 62
7
  6
CONTINUOUS
 10
379.1776513324
 20
-33.8216772387
  0
VERTEX
  8
0
 62
7
  6
CONTINUOUS
 10
379.0976414958
 20
-34.1694658579
  0
VERTEX
  8
0
 62
7
  6
CONTINUOUS
 10
379.0053269666
 20
-34.5137977076
  0
VERTEX
  8
0
 62
7
  6
CONTINUOUS
 10
378.9008862445
 20
-34.8541022973
  0
VERTEX
  8
0
 62
7
  6
CONTINUOUS
 10
378.7844669713
 20
-35.1900062643
  0
VERTEX
  8
0
 62
7
  6
CONTINUOUS
 10
378.6562612464
 20
-35.521049446
  0
VERTEX
  8
0
 62
7
  6
CONTINUOUS
 10
378.5164014339
 20
-35.8469632492
  0
VERTEX
  8
0
 62
7
  6
CONTINUOUS
 10
378.3650274747
 20
-36.1674518504
  0
VERTEX
  8
0
 62
7
  6
CONTINUOUS
 10
378.2023171209
 20
-36.4821485248
  0
VERTEX
  8
0
 62
7
  6
CONTINUOUS
 10
378.0284294419
 20
-36.7907383933
  0
VERTEX
  8
0
 62
7
  6
CONTINUOUS
 10
377.8436013979
 20
-37.092791447
  0
VERTEX
  8
0
 62
7
  6
CONTINUOUS
 10
377.6480652944
 20
-37.3879223238
  0
VERTEX
  8
0
 62
7
  6
CONTINUOUS
 10
377.442084634
 20
-37.6757344228
  0
VERTEX
  8
0
 62
7
  6
CONTINUOUS
 10
377.2259460014
 20
-37.9558330869
  0
VERTEX
  8
0
 62
7
  6
CONTINUOUS
 10
376.9999071604
 20
-38.2278934934
  0
VERTEX
  8
0
 62
7
  6
CONTINUOUS
 10
376.7642543072
 20
-38.4915759411
  0
VERTEX
  8
0
 62
7
  6
CONTINUOUS
 10
376.5192540858
 20
-38.746584753
  0
VERTEX
  8
0
 62
7
  6
CONTINUOUS
 10
376.2651793592
 20
-38.9926301995
  0
VERTEX
  8
0
 62
7
  6
CONTINUOUS
 10
376.0023461127
 20
-39.2293990598
  0
VERTEX
  8
0
 62
7
  6
CONTINUOUS
 10
375.7310576683
 20
-39.4566076854
  0
VERTEX
  8
0
 62
7
  6
CONTINUOUS
 10
375.4516849114
 20
-39.6739384318
  0
VERTEX
  8
0
 62
7
  6
CONTINUOUS
 10
375.1646025594
 20
-39.8810964816
  0
VERTEX
  8
0
 62
7
  6
CONTINUOUS
 10
374.8701766937
 20
-40.0778190214
  0
VERTEX
  8
0
 62
7
  6
CONTINUOUS
 10
374.5688185746
 20
-40.2638346836
  0
VERTEX
  8
0
 62
7
  6
CONTINUOUS
 10
374.2608272216
 20
-40.4389606435
  0
VERTEX
  8
0
 62
7
  6
CONTINUOUS
 10
373.9465489092
 20
-40.6029926215
  0
VERTEX
  8
0
 62
7
  6
CONTINUOUS
 10
373.6262776332
 20
-40.7557614904
  0
VERTEX
  8
0
 62
7
  6
CONTINUOUS
 10
373.3002926874
 20
-40.8971045895
  0
VERTEX
  8
0
 62
7
  6
CONTINUOUS
 10
372.9690000877
 20
-41.0268109708
  0
VERTEX
  8
0
 62
7
  6
CONTINUOUS
 10
372.6326677813
 20
-41.1447324052
  0
VERTEX
  8
0
 62
7
  6
CONTINUOUS
 10
372.2920303396
 20
-41.250581941
  0
VERTEX
  8
0
 62
7
  6
CONTINUOUS
 10
371.9483036249
 20
-41.3440161308
  0
VERTEX
  8
0
 62
7
  6
CONTINUOUS
 10
371.6004047448
 20
-41.4253190519
  0
VERTEX
  8
0
 62
7
  6
CONTINUOUS
 10
371.2472950702
 20
-41.4945596456
  0
VERTEX
  8
0
 62
7
  6
CONTINUOUS
 10
370.889913481
 20
-41.5513266992
  0
VERTEX
  8
0
 62
7
  6
CONTINUOUS
 10
370.5284394203
 20
-41.5953801195
  0
VERTEX
  8
0
 62
7
  6
CONTINUOUS
 10
370.1642158629
 20
-41.6263840198
  0
VERTEX
  8
0
 62
7
  6
CONTINUOUS
 10
369.7986308033
 20
-41.6441464546
  0
VERTEX
  8
0
 62
7
  6
CONTINUOUS
 10
369.4318492101
 20
-41.6486110943
  0
SEQEND
  0
POLYLINE
  8
0
 62
7
  6
CONTINUOUS
 66
1
 70
0
  0
VERTEX
  8
0
 62
7
  6
CONTINUOUS
 10
376.0804413294
 20
217.7982707369
  0
VERTEX
  8
0
 62
7
  6
CONTINUOUS
 10
376.0438676897
 20
217.8691547212
  0
VERTEX
  8
0
 62
7
  6
CONTINUOUS
 10
376.0017610715
 20
217.939111621
  0
VERTEX
  8
0
 62
7
  6
CONTINUOUS
 10
375.9543868876
 20
218.0080793369
  0
VERTEX
  8
0
 62
7
  6
CONTINUOUS
 10
375.9016530991
 20
218.0762351216
  0
VERTEX
  8
0
 62
7
  6
CONTINUOUS
 10
375.8433312989
 20
218.14383479
  0
VERTEX
  8
0
 62
7
  6
CONTINUOUS
 10
375.7796133086
 20
218.2105807217
  0
VERTEX
  8
0
 62
7
  6
CONTINUOUS
 10
375.7105995501
 20
218.2763128259
  0
VERTEX
  8
0
 62
7
  6
CONTINUOUS
 10
375.636410268
 20
218.3408745587
  0
VERTEX
  8
0
 62
7
  6
CONTINUOUS
 10
375.557178625
 20
218.4041034434
  0
VERTEX
  8
0
 62
7
  6
CONTINUOUS
 10
375.4730449302
 20
218.4658575748
  0
VERTEX
  8
0
 62
7
  6
CONTINUOUS
 10
375.3841668115
 20
218.5259828631
  0
VERTEX
  8
0
 62
7
  6
CONTINUOUS
 10
375.2906960917
 20
218.5843539069
  0
VERTEX
  8
0
 62
7
  6
CONTINUOUS
 10
375.1927994275
 20
218.640832576
  0
VERTEX
  8
0
 62
7
  6
CONTINUOUS
 10
375.0906449731
 20
218.6953035695
  0
VERTEX
  8
0
 62
7
  6
CONTINUOUS
 10
374.9844103265
 20
218.747641046
  0
VERTEX
  8
0
 62
7
  6
CONTINUOUS
 10
374.8742806741
 20
218.7977391747
  0
VERTEX
  8
0
 62
7
  6
CONTINUOUS
 10
374.7604447362
 20
218.8454830841
  0
VERTEX
  8
0
 62
7
  6
CONTINUOUS
 10
374.6431125553
 20
218.8907748082
  0
VERTEX
  8
0
 62
7
  6
CONTINUOUS
 10
374.522500223
 20
218.9335053411
  0
VERTEX
  8
0
 62
7
  6
CONTINUOUS
 10
374.3988240065
 20
218.9735937923
  0
VERTEX
  8
0
 62
7
  6
CONTINUOUS
 10
374.2723163883
 20
219.0109438302
  0
VERTEX
  8
0
 62
7
  6
CONTINUOUS
 10
374.1431827496
 20
219.0454936742
  0
VERTEX
  8
0
 62
7
  6
CONTINUOUS
 10
374.0116404589
 20
219.0771671325
  0
VERTEX
  8
0
 62
7
  6
CONTINUOUS
 10
373.8779067865
 20
219.1059119459
  0
VERTEX
  8
0
 62
7
  6
CONTINUOUS
 10
373.7422110061
 20
219.1316631812
  0
VERTEX
  8
0
 62
7
  6
CONTINUOUS
 10
373.6047504502
 20
219.1543835076
  0
VERTEX
  8
0
 62
7
  6
CONTINUOUS
 10
373.4656876278
 20
219.1740272037
  0
VERTEX
  8
0
 62
7
  6
CONTINUOUS
 10
373.3253580962
 20
219.1905552385
  0
VERTEX
  8
0
 62
7
  6
CONTINUOUS
 10
373.1844565892
 20
219.2039080923
  0
VERTEX
  8
0
 62
7
  6
CONTINUOUS
 10
373.0421163151
 20
219.2141027427
  0
VERTEX
  8
0
 62
7
  6
CONTINUOUS
 10
372.8974008395
 20
219.2211873935
  0
VERTEX
  8
0
 62
7
  6
CONTINUOUS
 10
372.7508492936
 20
219.2250053718
  0
VERTEX
  8
0
 62
7
  6
CONTINUOUS
 10
372.6024136821
 20
219.2254324872
  0
VERTEX
  8
0
 62
7
  6
CONTINUOUS
 10
372.4529525326
 20
219.2224202033
  0
VERTEX
  8
0
 62
7
  6
CONTINUOUS
 10
372.3034244201
 20
219.2158682541
  0
VERTEX
  8
0
 62
7
  6
CONTINUOUS
 10
372.1537132762
 20
219.205811071
  0
SEQEND
  0
LINE
  8
0
 62
7
  6
CONTINUOUS
 10
387.3633537757
 20
221.1116255396
 11
387.3633537757
 21
-31.6866641134
  0
LINE
  8
0
 62
7
  6
CONTINUOUS
 10
388.0327043836
 20
-42.2875192869
 11
388.0327043836
 21
361.7124807131
  0
LINE
  8
0
 62
7
  6
CONTINUOUS
 10
396.0327043836
 20
-42.2875192869
 11
396.0327043836
 21
361.7124807131
  0
POLYLINE
  8
0
 62
7
  6
CONTINUOUS
 66
1
 70
0
  0
VERTEX
  8
0
 62
7
  6
CONTINUOUS
 10
387.3633537757
 20
-31.6866641134
  0
VERTEX
  8
0
 62
7
  6
CONTINUOUS
 10
387.3515385213
 20
-32.334719065
  0
VERTEX
  8
0
 62
7
  6
CONTINUOUS
 10
387.3171433872
 20
-32.9777064397
  0
VERTEX
  8
0
 62
7
  6
CONTINUOUS
 10
387.2601717458
 20
-33.6149934428
  0
VERTEX
  8
0
 62
7
  6
CONTINUOUS
 10
387.1806134802
 20
-34.2484784581
  0
VERTEX
  8
0
 62
7
  6
CONTINUOUS
 10
387.0783636335
 20
-34.8806998463
  0
VERTEX
  8
0
 62
7
  6
CONTINUOUS
 10
386.9537100991
 20
-35.5091048818
  0
VERTEX
  8
0
 62
7
  6
CONTINUOUS
 10
386.8068009558
 20
-36.1322464394
  0
VERTEX
  8
0
 62
7
  6
CONTINUOUS
 10
386.637950692
 20
-36.7493460786
  0
VERTEX
  8
0
 62
7
  6
CONTINUOUS
 10
386.4474176457
 20
-37.3593597481
  0
VERTEX
  8
0
 62
7
  6
CONTINUOUS
 10
386.2355183465
 20
-37.9616371558
  0
VERTEX
  8
0
 62
7
  6
CONTINUOUS
 10
386.0025713644
 20
-38.5553378253
  0
VERTEX
  8
0
 62
7
  6
CONTINUOUS
 10
385.7488289159
 20
-39.1399882581
  0
VERTEX
  8
0
 62
7
  6
CONTINUOUS
 10
385.4745372013
 20
-39.71505136
  0
VERTEX
  8
0
 62
7
  6
CONTINUOUS
 10
385.1800328386
 20
-40.2798774423
  0
VERTEX
  8
0
 62
7
  6
CONTINUOUS
 10
384.8655800418
 20
-40.8338885344
  0
VERTEX
  8
0
 62
7
  6
CONTINUOUS
 10
384.5316422226
 20
-41.3763323878
  0
VERTEX
  8
0
 62
7
  6
CONTINUOUS
 10
384.1785983796
 20
-41.9064922971
  0
VERTEX
  8
0
 62
7
  6
CONTINUOUS
 10
383.8069659663
 20
-42.4236836635
  0
VERTEX
  8
0
 62
7
  6
CONTINUOUS
 10
383.4172230835
 20
-42.9271691536
  0
VERTEX
  8
0
 62
7
  6
CONTINUOUS
 10
383.0098667885
 20
-43.4163902653
  0
VERTEX
  8
0
 62
7
  6
CONTINUOUS
 10
382.5853856034
 20
-43.8907130857
  0
VERTEX
  8
0
 62
7
  6
CONTINUOUS
 10
382.144283235
 20
-44.3496265133
  0
VERTEX
  8
0
 62
7
  6
CONTINUOUS
 10
381.6870281812
 20
-44.7925876844
  0
VERTEX
  8
0
 62
7
  6
CONTINUOUS
 10
381.2142145916
 20
-45.2190579737
  0
VERTEX
  8
0
 62
7
  6
CONTINUOUS
 10
380.7263599728
 20
-45.6284963866
  0
VERTEX
  8
0
 62
7
  6
CONTINUOUS
 10
380.2241627523
 20
-46.0203671666
  0
VERTEX
  8
0
 62
7
  6
CONTINUOUS
 10
379.7082651985
 20
-46.3940993559
  0
VERTEX
  8
0
 62
7
  6
CONTINUOUS
 10
379.1793532957
 20
-46.7492575633
  0
VERTEX
  8
0
 62
7
  6
CONTINUOUS
 10
378.6381431955
 20
-47.0853187645
  0
VERTEX
  8
0
 62
7
  6
CONTINUOUS
 10
378.0851866643
 20
-47.4019749012
  0
VERTEX
  8
0
 62
7
  6
CONTINUOUS
 10
377.5210955898
 20
-47.6988426781
  0
VERTEX
  8
0
 62
7
  6
CONTINUOUS
 10
376.9464057593
 20
-47.9756247824
  0
VERTEX
  8
0
 62
7
  6
CONTINUOUS
 10
376.3616088801
 20
-48.2320158127
  0
VERTEX
  8
0
 62
7
  6
CONTINUOUS
 10
375.7674490789
 20
-48.4676567391
  0
VERTEX
  8
0
 62
7
  6
CONTINUOUS
 10
375.164383496
 20
-48.6822288141
  0
VERTEX
  8
0
 62
7
  6
CONTINUOUS
 10
374.5537647969
 20
-48.8753057878
  0
VERTEX
  8
0
 62
7
  6
CONTINUOUS
 10
373.9377571524
 20
-49.0462517077
  0
VERTEX
  8
0
 62
7
  6
CONTINUOUS
 10
373.3143831865
 20
-49.1953769334
  0
VERTEX
  8
0
 62
7
  6
CONTINUOUS
 10
372.6818191794
 20
-49.3230430134
  0
VERTEX
  8
0
 62
7
  6
CONTINUOUS
 10
372.0417683337
 20
-49.4284604287
  0
VERTEX
  8
0
 62
7
  6
CONTINUOUS
 10
371.3945069211
 20
-49.5110924096
  0
VERTEX
  8
0
 62
7
  6
CONTINUOUS
 10
370.7424920145
 20
-49.5705422564
  0
VERTEX
  8
0
 62
7
  6
CONTINUOUS
 10
370.0885914229
 20
-49.6061623934
  0
VERTEX
  8
0
 62
7
  6
CONTINUOUS
 10
369.4318492101
 20
-49.6181686791
  0
SEQEND
  0
POLYLINE
  8
0
 62
7
  6
CONTINUOUS
 66
1
 70
0
  0
VERTEX
  8
0
 62
7
  6
CONTINUOUS
 10
366.9520903476
 20
-38.6950482384
  0
VERTEX
  8
0
 62
7
  6
CONTINUOUS
 10
366.9415895433
 20
-38.7856197269
  0
VERTEX
  8
0
 62
7
  6
CONTINUOUS
 10
366.9310988372
 20
-38.8673783309
  0
VERTEX
  8
0
 62
7
  6
CONTINUOUS
 10
366.9205960824
 20
-38.9402911022
  0
VERTEX
  8
0
 62
7
  6
CONTINUOUS
 10
366.9100922396
 20
-39.0043516782
  0
VERTEX
  8
0
 62
7
  6
CONTINUOUS
 10
366.8995985933
 20
-39.0595487402
  0
VERTEX
  8
0
 62
7
  6
CONTINUOUS
 10
366.889093317
 20
-39.1058516604
  0
SEQEND
  0
LINE
  8
0
 62
7
  6
CONTINUOUS
 10
-23.9672956164
 20
361.7124807131
 11
396.0327043836
 21
361.7124807131
  0
CIRCLE
  8
0
 62
7
  6
CONTINUOUS
 10
186.0327043836
 20
126.7124807131
 40
20.0
  0
CIRCLE
  8
0
 62
7
  6
CONTINUOUS
 10
186.0327043836
 20
296.7124807131
 40
18.0
  0
ARC
  8
0
 62
7
  6
CONTINUOUS
 10
-7.9672956164
 20
-42.2875192869
 40
16.0
 50
180.0
 51
270.0
  0
ARC
  8
0
 62
7
  6
CONTINUOUS
 10
380.0327043836
 20
-42.2875192869
 40
16.0
 50
270.0
 51
360.0
  0
ARC
  8
0
 62
7
  6
CONTINUOUS
 10
-7.9672956164
 20
-42.2875192869
 40
8.0
 50
180.0
 51
270.0
  0
ARC
  8
0
 62
7
  6
CONTINUOUS
 10
380.0327043836
 20
-42.2875192869
 40
8.0
 50
270.0
 51
360.0
  0
ARC
  8
0
 62
7
  6
CONTINUOUS
 10
160.5327043839
 20
229.2124807131
 40
2.5
 50
180.8519335119
 51
270.0
  0
ARC
  8
0
 62
7
  6
CONTINUOUS
 10
211.5327043832
 20
229.2124807131
 40
2.5
 50
270.0
 51
359.1480664881
  0
ENDSEC
  0
EOF
