999
DXF file: K:\Client\125_Heirloom\001\00\Final_Data\Drawings\BASINS\tableau-362132_3.dxf
999
Pro/ENGINEER 2017110 by Parametric Technology Corporation
  0
SECTION
  2
HEADER
  9
$EXTMAX
 10
420.0
 20
297.0
 30
0.0
  9
$EXTMIN
 10
0.0
 20
0.0
 30
0.0
  9
$LIMMIN
 10
0.0
 20
0.0
  9
$LIMMAX
 10
420.0
 20
297.0
  9
$VIEWCTR
 10
210.0
 20
148.5
  9
$VIEWSIZE
 40
297.0
  9
$CLAYER
  8
0
  9
$LTSCALE
 40
23.1
  9
$CELTYPE
  6
BYLAYER
  9
$DIMSCALE
 40
1.0
  9
$DIMASZ
 40
3.0
  9
$DIMEXO
 40
1.0
  9
$DIMDLI
 40
15.96
  9
$DIMEXE
 40
1.0
  9
$DIMCEN
 40
3.78
  9
$DIMLFAC
 40
1.0
  9
$DIMBLK
  1
_FILLED
  9
$DIMALT
 70
0
  9
$DIMALTF
 40
0.0393700787
  9
$DIMTXT
 40
3.0
  9
$AUNITS
 70
0
  9
$PDMODE
 70
3
  9
$PDSIZE
 40
5.0
  9
$TILEMODE
 70
1
  0
ENDSEC
  0
SECTION
  2
TABLES
  0
TABLE
  2
LTYPE
 70
6
  0
LTYPE
  2
BYBLOCK
 70
0
  3

 72
65
 73
0
 40
0.0
  0
LTYPE
  2
BYLAYER
 70
0
  3

 72
65
 73
0
 40
0.0
  0
LTYPE
  2
CONTINUOUS
 70
64
  3
Solid line
 72
65
 73
0
 40
0.0
  0
LTYPE
  2
CENTER
 70
64
  3
____ _ ____ _ ____ _ ____ _ ____ _ ____ _ ____
 72
65
 73
4
 40
0.6
 49
0.375
 49
-0.075
 49
0.075
 49
-0.075
  0
LTYPE
  2
HIDDEN
 70
64
  3
- - - - - - - - - - - - - - - - - - - -
 72
65
 73
2
 40
0.2
 49
0.1
 49
-0.1
  0
LTYPE
  2
PHANTOM
 70
64
  3
_____ _ _ _____ _ _ _____ _ _ _____
 72
65
 73
6
 40
0.8
 49
0.45
 49
-0.05
 49
0.1
 49
-0.05
 49
0.1
 49
-0.05
  0
LTYPE
  2
DOT
 70
64
  3
. . . . . . . . . . . . . . . . . . . .
 72
65
 73
2
 40
0.2
 49
0.1
 49
-0.1
  0
LTYPE
  2
DASHED
 70
64
  3
- - - - - - - - - - - - - - - - - - - -
 72
65
 73
2
 40
0.2
 49
0.1
 49
-0.1
  0
ENDTAB
  0
TABLE
  2
LAYER
 70
36
  0
LAYER
  2
0
 70
0
 62
7
  6
CONTINUOUS
  0
LAYER
  2
DEFAULT_1
 70
0
 62
7
  6
CENTER
  0
LAYER
  2
DEFAULT_2
 70
0
 62
8
  6
HIDDEN
  0
LAYER
  2
DEFAULT_3
 70
0
 62
7
  6
PHANTOM
  0
LAYER
  2
0000_BOM
 70
0
 62
7
  6
CONTINUOUS
  0
LAYER
  2
0000_REV_TABLE
 70
0
 62
7
  6
CONTINUOUS
  0
LAYER
  2
0000_STEVENS_NOTE
 70
0
 62
7
  6
CONTINUOUS
  0
LAYER
  2
01_DATUM_PLANES
 70
0
 62
7
  6
CONTINUOUS
  0
LAYER
  2
01_DEF_PLANES
 70
0
 62
7
  6
CONTINUOUS
  0
LAYER
  2
02_DATUM_COS
 70
0
 62
7
  6
CONTINUOUS
  0
LAYER
  2
99_SOLID
 70
0
 62
7
  6
CONTINUOUS
  0
LAYER
  2
CAD-MASTER_ZINC-PL
 70
0
 62
7
  6
CONTINUOUS
  0
LAYER
  2
CURVE
 70
0
 62
7
  6
CONTINUOUS
  0
LAYER
  2
SKEL
 70
0
 62
7
  6
CONTINUOUS
  0
LAYER
  2
SKETCH
 70
0
 62
7
  6
CONTINUOUS
  0
LAYER
  2
SURFACE
 70
0
 62
7
  6
CONTINUOUS
  0
ENDTAB
  0
TABLE
  2
STYLE
 70
1
  0
STYLE
  2
STANDARD
 70
0
 40
0.0
 41
0.75
 50
0.0
 71
0
 42
0.2
  3
txt
  4

  0
STYLE
  2
TEXTSTYLE_1
 70
0
 40
0.0
 41
0.8
 50
0.0
 71
0
 42
0.2
  3
gdt
  4

  0
ENDTAB
  0
ENDSEC
  0
SECTION
  2
BLOCKS
  0
ENDSEC
  0
SECTION
  2
ENTITIES
  0
LINE
  8
0
 62
7
  6
CONTINUOUS
 10
-113.9672956164
 20
361.7124807131
 11
-113.9672956164
 21
-48.2875192869
  0
LINE
  8
0
 62
7
  6
CONTINUOUS
 10
-105.9672956164
 20
361.7124807131
 11
-105.9672956164
 21
-48.2875192869
  0
LINE
  8
0
 62
7
  6
CONTINUOUS
 10
-105.2979450086
 20
-31.6866641134
 11
-105.2979450086
 21
221.1116255396
  0
LINE
  8
0
 62
7
  6
CONTINUOUS
 10
-103.9672956164
 20
-50.2875192869
 11
-103.9672956164
 21
-58.2875192869
  0
POLYLINE
  8
0
 62
7
  6
CONTINUOUS
 66
1
 70
0
  0
VERTEX
  8
0
 62
7
  6
CONTINUOUS
 10
-105.2979450086
 20
221.1116255396
  0
VERTEX
  8
0
 62
7
  6
CONTINUOUS
 10
-105.2849625195
 20
221.7907390009
  0
VERTEX
  8
0
 62
7
  6
CONTINUOUS
 10
-105.2472123382
 20
222.4642638016
  0
VERTEX
  8
0
 62
7
  6
CONTINUOUS
 10
-105.1846925275
 20
223.1315558137
  0
VERTEX
  8
0
 62
7
  6
CONTINUOUS
 10
-105.0974088989
 20
223.7945474215
  0
VERTEX
  8
0
 62
7
  6
CONTINUOUS
 10
-104.9852462624
 20
224.4559076346
  0
VERTEX
  8
0
 62
7
  6
CONTINUOUS
 10
-104.8485656852
 20
225.1127824495
  0
VERTEX
  8
0
 62
7
  6
CONTINUOUS
 10
-104.6875703883
 20
225.7634736824
  0
VERTEX
  8
0
 62
7
  6
CONTINUOUS
 10
-104.5026187199
 20
226.4071828842
  0
VERTEX
  8
0
 62
7
  6
CONTINUOUS
 10
-104.2940219356
 20
227.0427736575
  0
VERTEX
  8
0
 62
7
  6
CONTINUOUS
 10
-104.0621245345
 20
227.6695616628
  0
VERTEX
  8
0
 62
7
  6
CONTINUOUS
 10
-103.8072744586
 20
228.2866767454
  0
VERTEX
  8
0
 62
7
  6
CONTINUOUS
 10
-103.5297726343
 20
228.8935399531
  0
VERTEX
  8
0
 62
7
  6
CONTINUOUS
 10
-103.2298900442
 20
229.4895515709
  0
VERTEX
  8
0
 62
7
  6
CONTINUOUS
 10
-102.9080644622
 20
230.0739037327
  0
VERTEX
  8
0
 62
7
  6
CONTINUOUS
 10
-102.5646337236
 20
230.6458744468
  0
VERTEX
  8
0
 62
7
  6
CONTINUOUS
 10
-102.2001686281
 20
231.2046063758
  0
VERTEX
  8
0
 62
7
  6
CONTINUOUS
 10
-101.8151576422
 20
231.7492403384
  0
VERTEX
  8
0
 62
7
  6
CONTINUOUS
 10
-101.4101856009
 20
232.2790598744
  0
VERTEX
  8
0
 62
7
  6
CONTINUOUS
 10
-100.9858112431
 20
232.7932637196
  0
VERTEX
  8
0
 62
7
  6
CONTINUOUS
 10
-100.5426013248
 20
233.2912471053
  0
VERTEX
  8
0
 62
7
  6
CONTINUOUS
 10
-100.081100567
 20
233.7723384809
  0
VERTEX
  8
0
 62
7
  6
CONTINUOUS
 10
-99.6019338137
 20
234.2359369282
  0
VERTEX
  8
0
 62
7
  6
CONTINUOUS
 10
-99.1056560814
 20
234.6814260641
  0
VERTEX
  8
0
 62
7
  6
CONTINUOUS
 10
-98.5930215734
 20
235.1081807328
  0
VERTEX
  8
0
 62
7
  6
CONTINUOUS
 10
-98.0646970932
 20
235.5155565387
  0
VERTEX
  8
0
 62
7
  6
CONTINUOUS
 10
-97.521499857
 20
235.9029948179
  0
VERTEX
  8
0
 62
7
  6
CONTINUOUS
 10
-96.9642407573
 20
236.2698535022
  0
VERTEX
  8
0
 62
7
  6
CONTINUOUS
 10
-96.3936055689
 20
236.6157384087
  0
VERTEX
  8
0
 62
7
  6
CONTINUOUS
 10
-95.810351325
 20
236.9401518152
  0
VERTEX
  8
0
 62
7
  6
CONTINUOUS
 10
-95.2150751433
 20
237.2427622721
  0
VERTEX
  8
0
 62
7
  6
CONTINUOUS
 10
-94.6083731358
 20
237.5232023957
  0
VERTEX
  8
0
 62
7
  6
CONTINUOUS
 10
-93.9910053528
 20
237.7810822664
  0
VERTEX
  8
0
 62
7
  6
CONTINUOUS
 10
-93.3634303978
 20
238.0160601659
  0
VERTEX
  8
0
 62
7
  6
CONTINUOUS
 10
-92.7271487223
 20
238.227624107
  0
VERTEX
  8
0
 62
7
  6
CONTINUOUS
 10
-92.0845029234
 20
238.4150404417
  0
VERTEX
  8
0
 62
7
  6
CONTINUOUS
 10
-91.4334251672
 20
238.5786324335
  0
VERTEX
  8
0
 62
7
  6
CONTINUOUS
 10
-90.7720009853
 20
238.7187826336
  0
VERTEX
  8
0
 62
7
  6
CONTINUOUS
 10
-90.1021128785
 20
238.8345795303
  0
VERTEX
  8
0
 62
7
  6
CONTINUOUS
 10
-89.4240782257
 20
238.9253941315
  0
VERTEX
  8
0
 62
7
  6
CONTINUOUS
 10
-88.7406779239
 20
238.99076143
  0
VERTEX
  8
0
 62
7
  6
CONTINUOUS
 10
-88.0551594992
 20
239.0299224207
  0
VERTEX
  8
0
 62
7
  6
CONTINUOUS
 10
-87.3664404429
 20
239.0431301052
  0
SEQEND
  0
POLYLINE
  8
0
 62
7
  6
CONTINUOUS
 66
1
 70
0
  0
VERTEX
  8
0
 62
7
  6
CONTINUOUS
 10
-94.7609382443
 20
-29.0951666453
  0
VERTEX
  8
0
 62
7
  6
CONTINUOUS
 10
-94.7449471648
 20
-29.5465599958
  0
VERTEX
  8
0
 62
7
  6
CONTINUOUS
 10
-94.7082649868
 20
-29.99701429
  0
VERTEX
  8
0
 62
7
  6
CONTINUOUS
 10
-94.6509680221
 20
-30.4455924239
  0
VERTEX
  8
0
 62
7
  6
CONTINUOUS
 10
-94.5731754684
 20
-30.8913611967
  0
VERTEX
  8
0
 62
7
  6
CONTINUOUS
 10
-94.4750491615
 20
-31.3333932521
  0
VERTEX
  8
0
 62
7
  6
CONTINUOUS
 10
-94.3567932386
 20
-31.7707690072
  0
VERTEX
  8
0
 62
7
  6
CONTINUOUS
 10
-94.2186537136
 20
-32.2025785661
  0
VERTEX
  8
0
 62
7
  6
CONTINUOUS
 10
-94.0609179653
 20
-32.6279236124
  0
VERTEX
  8
0
 62
7
  6
CONTINUOUS
 10
-93.8839141397
 20
-33.0459192783
  0
VERTEX
  8
0
 62
7
  6
CONTINUOUS
 10
-93.688010467
 20
-33.4556959851
  0
VERTEX
  8
0
 62
7
  6
CONTINUOUS
 10
-93.4736144959
 20
-33.8564012525
  0
VERTEX
  8
0
 62
7
  6
CONTINUOUS
 10
-93.2411722455
 20
-34.2472014721
  0
VERTEX
  8
0
 62
7
  6
CONTINUOUS
 10
-92.9911672777
 20
-34.6272836412
  0
VERTEX
  8
0
 62
7
  6
CONTINUOUS
 10
-92.724119691
 20
-34.9958570549
  0
VERTEX
  8
0
 62
7
  6
CONTINUOUS
 10
-92.4405850385
 20
-35.35215495
  0
VERTEX
  8
0
 62
7
  6
CONTINUOUS
 10
-92.1411531723
 20
-35.6954361012
  0
VERTEX
  8
0
 62
7
  6
CONTINUOUS
 10
-91.8264470163
 20
-36.0249863622
  0
VERTEX
  8
0
 62
7
  6
CONTINUOUS
 10
-91.4971212704
 20
-36.3401201521
  0
VERTEX
  8
0
 62
7
  6
CONTINUOUS
 10
-91.1538610484
 20
-36.6401818811
  0
VERTEX
  8
0
 62
7
  6
CONTINUOUS
 10
-90.7973804525
 20
-36.924547315
  0
VERTEX
  8
0
 62
7
  6
CONTINUOUS
 10
-90.4284210884
 20
-37.1926248729
  0
VERTEX
  8
0
 62
7
  6
CONTINUOUS
 10
-90.0477505217
 20
-37.4438568589
  0
VERTEX
  8
0
 62
7
  6
CONTINUOUS
 10
-89.6561606816
 20
-37.6777206215
  0
VERTEX
  8
0
 62
7
  6
CONTINUOUS
 10
-89.2544662133
 20
-37.8937296415
  0
VERTEX
  8
0
 62
7
  6
CONTINUOUS
 10
-88.843502783
 20
-38.0914345436
  0
VERTEX
  8
0
 62
7
  6
CONTINUOUS
 10
-88.4241253398
 20
-38.2704240318
  0
VERTEX
  8
0
 62
7
  6
CONTINUOUS
 10
-87.997206337
 20
-38.4303257446
  0
VERTEX
  8
0
 62
7
  6
CONTINUOUS
 10
-87.5636339167
 20
-38.57080703
  0
VERTEX
  8
0
 62
7
  6
CONTINUOUS
 10
-87.1243100629
 20
-38.691575637
  0
VERTEX
  8
0
 62
7
  6
CONTINUOUS
 10
-86.6801487243
 20
-38.7923803244
  0
VERTEX
  8
0
 62
7
  6
CONTINUOUS
 10
-86.2320739133
 20
-38.8730113826
  0
VERTEX
  8
0
 62
7
  6
CONTINUOUS
 10
-85.7810177839
 20
-38.9333010705
  0
VERTEX
  8
0
 62
7
  6
CONTINUOUS
 10
-85.3279186922
 20
-38.9731239643
  0
VERTEX
  8
0
 62
7
  6
CONTINUOUS
 10
-84.8737192443
 20
-38.9923972182
  0
SEQEND
  0
POLYLINE
  8
0
 62
7
  6
CONTINUOUS
 66
1
 70
0
  0
VERTEX
  8
0
 62
7
  6
CONTINUOUS
 10
-94.8361437231
 20
-29.1944204105
  0
VERTEX
  8
0
 62
7
  6
CONTINUOUS
 10
-94.8234687077
 20
-29.6268668795
  0
VERTEX
  8
0
 62
7
  6
CONTINUOUS
 10
-94.7920373896
 20
-30.0584981028
  0
VERTEX
  8
0
 62
7
  6
CONTINUOUS
 10
-94.7419090236
 20
-30.4885003687
  0
VERTEX
  8
0
 62
7
  6
CONTINUOUS
 10
-94.67317811
 20
-30.9160630494
  0
VERTEX
  8
0
 62
7
  6
CONTINUOUS
 10
-94.5859742136
 20
-31.3403801305
  0
VERTEX
  8
0
 62
7
  6
CONTINUOUS
 10
-94.4804617398
 20
-31.760651644
  0
VERTEX
  8
0
 62
7
  6
CONTINUOUS
 10
-94.3568396253
 20
-32.1760852256
  0
VERTEX
  8
0
 62
7
  6
CONTINUOUS
 10
-94.2153408973
 20
-32.585897804
  0
VERTEX
  8
0
 62
7
  6
CONTINUOUS
 10
-94.0562322618
 20
-32.98931691
  0
VERTEX
  8
0
 62
7
  6
CONTINUOUS
 10
-93.8798137014
 20
-33.3855819146
  0
VERTEX
  8
0
 62
7
  6
CONTINUOUS
 10
-93.68641784
 20
-33.7739456994
  0
VERTEX
  8
0
 62
7
  6
CONTINUOUS
 10
-93.4764092452
 20
-34.1536761788
  0
VERTEX
  8
0
 62
7
  6
CONTINUOUS
 10
-93.2501838077
 20
-34.5240575167
  0
VERTEX
  8
0
 62
7
  6
CONTINUOUS
 10
-93.0081680132
 20
-34.8843914589
  0
VERTEX
  8
0
 62
7
  6
CONTINUOUS
 10
-92.7508181113
 20
-35.2339987017
  0
VERTEX
  8
0
 62
7
  6
CONTINUOUS
 10
-92.478619255
 20
-35.5722201705
  0
VERTEX
  8
0
 62
7
  6
CONTINUOUS
 10
-92.192084591
 20
-35.8984182534
  0
VERTEX
  8
0
 62
7
  6
CONTINUOUS
 10
-91.8917542927
 20
-36.2119780035
  0
VERTEX
  8
0
 62
7
  6
CONTINUOUS
 10
-91.5781945406
 20
-36.5123083002
  0
VERTEX
  8
0
 62
7
  6
CONTINUOUS
 10
-91.251996456
 20
-36.7988429625
  0
VERTEX
  8
0
 62
7
  6
CONTINUOUS
 10
-90.9137749862
 20
-37.0710418165
  0
VERTEX
  8
0
 62
7
  6
CONTINUOUS
 10
-90.564167743
 20
-37.3283917156
  0
VERTEX
  8
0
 62
7
  6
CONTINUOUS
 10
-90.2038338018
 20
-37.5704075066
  0
VERTEX
  8
0
 62
7
  6
CONTINUOUS
 10
-89.8334524654
 20
-37.7966329406
  0
VERTEX
  8
0
 62
7
  6
CONTINUOUS
 10
-89.4537219871
 20
-38.0066415324
  0
VERTEX
  8
0
 62
7
  6
CONTINUOUS
 10
-89.0653582037
 20
-38.2000373909
  0
VERTEX
  8
0
 62
7
  6
CONTINUOUS
 10
-88.6690932013
 20
-38.3764559483
  0
VERTEX
  8
0
 62
7
  6
CONTINUOUS
 10
-88.265674098
 20
-38.5355645808
  0
VERTEX
  8
0
 62
7
  6
CONTINUOUS
 10
-87.8558615232
 20
-38.6770633061
  0
VERTEX
  8
0
 62
7
  6
CONTINUOUS
 10
-87.4404279457
 20
-38.8006854179
  0
VERTEX
  8
0
 62
7
  6
CONTINUOUS
 10
-87.0201564367
 20
-38.9061978894
  0
VERTEX
  8
0
 62
7
  6
CONTINUOUS
 10
-86.5958393603
 20
-38.9934017839
  0
VERTEX
  8
0
 62
7
  6
CONTINUOUS
 10
-86.1682766841
 20
-39.062132696
  0
VERTEX
  8
0
 62
7
  6
CONTINUOUS
 10
-85.7382744229
 20
-39.112261061
  0
VERTEX
  8
0
 62
7
  6
CONTINUOUS
 10
-85.3066432052
 20
-39.1436923783
  0
VERTEX
  8
0
 62
7
  6
CONTINUOUS
 10
-84.8741967422
 20
-39.1563673936
  0
SEQEND
  0
LINE
  8
0
 62
7
  6
CONTINUOUS
 10
-94.0396937786
 20
187.1979783611
 11
-94.0883018504
 21
217.8481621035
  0
LINE
  8
0
 62
7
  6
CONTINUOUS
 10
-94.0225920359
 20
170.2761602346
 11
-94.0396937786
 21
187.1979783611
  0
LINE
  8
0
 62
7
  6
CONTINUOUS
 10
-94.0170369653
 20
159.1865325259
 11
-94.0225920359
 21
170.2761602346
  0
LINE
  8
0
 62
7
  6
CONTINUOUS
 10
-97.3283874238
 20
-31.6866641134
 11
-97.3283874238
 21
221.1116255396
  0
LINE
  8
0
 62
7
  6
CONTINUOUS
 10
-87.3664404429
 20
239.0431301052
 11
-87.3664404429
 21
231.0735725205
  0
LINE
  8
0
 62
7
  6
CONTINUOUS
 10
-87.3664404429
 20
-49.6181686791
 11
-87.3664404429
 21
-41.6486110943
  0
LINE
  8
0
 62
7
  6
CONTINUOUS
 10
-94.0168300368
 20
148.159553768
 11
-94.0170369653
 21
159.1865325259
  0
LINE
  8
0
 62
7
  6
CONTINUOUS
 10
-94.0225278336
 20
137.1424982978
 11
-94.0168300368
 21
148.159553768
  0
LINE
  8
0
 62
7
  6
CONTINUOUS
 10
-94.0345959276
 20
126.1156261304
 11
-94.0225278336
 21
137.1424982978
  0
LINE
  8
0
 62
7
  6
CONTINUOUS
 10
-94.0533192294
 20
115.0785005727
 11
-94.0345959276
 21
126.1156261304
  0
LINE
  8
0
 62
7
  6
CONTINUOUS
 10
-94.0787629323
 20
104.0364633751
 11
-94.0533192294
 21
115.0785005727
  0
LINE
  8
0
 62
7
  6
CONTINUOUS
 10
-94.1107846178
 20
92.9959196529
 11
-94.0787629323
 21
104.0364633751
  0
LINE
  8
0
 62
7
  6
CONTINUOUS
 10
-94.1490734425
 20
81.9609887794
 11
-94.1107846178
 21
92.9959196529
  0
LINE
  8
0
 62
7
  6
CONTINUOUS
 10
-94.1932125491
 20
70.9276963912
 11
-94.1490734425
 21
81.9609887794
  0
LINE
  8
0
 62
7
  6
CONTINUOUS
 10
-84.8741978162
 20
-39.1563673738
 11
-84.8737192443
 21
-38.9923972182
  0
LINE
  8
0
 62
7
  6
CONTINUOUS
 10
-94.2427169006
 20
59.8866929401
 11
-94.1932125491
 21
70.9276963912
  0
LINE
  8
0
 62
7
  6
CONTINUOUS
 10
-94.2969973712
 20
48.8378132253
 11
-94.2427169006
 21
59.8866929401
  0
POLYLINE
  8
0
 62
7
  6
CONTINUOUS
 66
1
 70
0
  0
VERTEX
  8
0
 62
7
  6
CONTINUOUS
 10
-94.4170454572
 20
26.7651597521
  0
VERTEX
  8
0
 62
7
  6
CONTINUOUS
 10
-94.3858151217
 20
32.2783482845
  0
VERTEX
  8
0
 62
7
  6
CONTINUOUS
 10
-94.2969973712
 20
48.8378132253
  0
SEQEND
  0
LINE
  8
0
 62
7
  6
CONTINUOUS
 10
-94.5146063378
 20
10.2230008174
 11
-94.4170454572
 21
26.7651597521
  0
POLYLINE
  8
0
 62
7
  6
CONTINUOUS
 66
1
 70
0
  0
VERTEX
  8
0
 62
7
  6
CONTINUOUS
 10
-94.6529535839
 20
-12.1301227571
  0
VERTEX
  8
0
 62
7
  6
CONTINUOUS
 10
-94.6173983487
 20
-6.4685261982
  0
VERTEX
  8
0
 62
7
  6
CONTINUOUS
 10
-94.5825550421
 20
-0.8720672848
  0
VERTEX
  8
0
 62
7
  6
CONTINUOUS
 10
-94.5146063378
 20
10.2230008174
  0
SEQEND
  0
POLYLINE
  8
0
 62
7
  6
CONTINUOUS
 66
1
 70
0
  0
VERTEX
  8
0
 62
7
  6
CONTINUOUS
 10
-94.760941502
 20
-29.095171643
  0
VERTEX
  8
0
 62
7
  6
CONTINUOUS
 10
-94.7248374818
 20
-23.4581146193
  0
VERTEX
  8
0
 62
7
  6
CONTINUOUS
 10
-94.6529535839
 20
-12.1301227571
  0
SEQEND
  0
POLYLINE
  8
0
 62
7
  6
CONTINUOUS
 66
1
 70
0
  0
VERTEX
  8
0
 62
7
  6
CONTINUOUS
 10
-97.3283874238
 20
221.1116255396
  0
VERTEX
  8
0
 62
7
  6
CONTINUOUS
 10
-97.3235348926
 20
221.4908912913
  0
VERTEX
  8
0
 62
7
  6
CONTINUOUS
 10
-97.3045649883
 20
221.8674532898
  0
VERTEX
  8
0
 62
7
  6
CONTINUOUS
 10
-97.2717972047
 20
222.2401929584
  0
VERTEX
  8
0
 62
7
  6
CONTINUOUS
 10
-97.2252958571
 20
222.6104552289
  0
VERTEX
  8
0
 62
7
  6
CONTINUOUS
 10
-97.1648477253
 20
222.9797217182
  0
VERTEX
  8
0
 62
7
  6
CONTINUOUS
 10
-97.0906328792
 20
223.3463910781
  0
VERTEX
  8
0
 62
7
  6
CONTINUOUS
 10
-97.0028428681
 20
223.7095306507
  0
VERTEX
  8
0
 62
7
  6
CONTINUOUS
 10
-96.901617961
 20
224.0686803325
  0
VERTEX
  8
0
 62
7
  6
CONTINUOUS
 10
-96.7871663052
 20
224.4232195541
  0
VERTEX
  8
0
 62
7
  6
CONTINUOUS
 10
-96.6596527947
 20
224.7727556841
  0
VERTEX
  8
0
 62
7
  6
CONTINUOUS
 10
-96.5192840425
 20
225.1168120067
  0
VERTEX
  8
0
 62
7
  6
CONTINUOUS
 10
-96.3662191001
 20
225.4550609884
  0
VERTEX
  8
0
 62
7
  6
CONTINUOUS
 10
-96.2006144113
 20
225.7871731244
  0
VERTEX
  8
0
 62
7
  6
CONTINUOUS
 10
-96.022697506
 20
226.1126904773
  0
VERTEX
  8
0
 62
7
  6
CONTINUOUS
 10
-95.8326757908
 20
226.4312223141
  0
VERTEX
  8
0
 62
7
  6
CONTINUOUS
 10
-95.6308387006
 20
226.7422752702
  0
VERTEX
  8
0
 62
7
  6
CONTINUOUS
 10
-95.4174847113
 20
227.0453891819
  0
VERTEX
  8
0
 62
7
  6
CONTINUOUS
 10
-95.192912389
 20
227.3401470283
  0
VERTEX
  8
0
 62
7
  6
CONTINUOUS
 10
-94.9574539556
 20
227.6261204076
  0
VERTEX
  8
0
 62
7
  6
CONTINUOUS
 10
-94.7114056316
 20
227.9029577749
  0
VERTEX
  8
0
 62
7
  6
CONTINUOUS
 10
-94.4550859404
 20
228.1703001924
  0
VERTEX
  8
0
 62
7
  6
CONTINUOUS
 10
-94.1888260471
 20
228.4277989315
  0
VERTEX
  8
0
 62
7
  6
CONTINUOUS
 10
-93.9129512385
 20
228.6751285077
  0
VERTEX
  8
0
 62
7
  6
CONTINUOUS
 10
-93.6278613252
 20
228.9119209011
  0
VERTEX
  8
0
 62
7
  6
CONTINUOUS
 10
-93.3339476991
 20
229.137842549
  0
VERTEX
  8
0
 62
7
  6
CONTINUOUS
 10
-93.0316443451
 20
229.3525571439
  0
VERTEX
  8
0
 62
7
  6
CONTINUOUS
 10
-92.7214207
 20
229.5557337668
  0
VERTEX
  8
0
 62
7
  6
CONTINUOUS
 10
-92.4036454021
 20
229.7471348003
  0
VERTEX
  8
0
 62
7
  6
CONTINUOUS
 10
-92.0787491125
 20
229.9264983172
  0
VERTEX
  8
0
 62
7
  6
CONTINUOUS
 10
-91.7470583967
 20
230.0936335096
  0
VERTEX
  8
0
 62
7
  6
CONTINUOUS
 10
-91.4089109339
 20
230.2483434466
  0
VERTEX
  8
0
 62
7
  6
CONTINUOUS
 10
-91.0647219493
 20
230.390402504
  0
VERTEX
  8
0
 62
7
  6
CONTINUOUS
 10
-90.7147606666
 20
230.5196485121
  0
VERTEX
  8
0
 62
7
  6
CONTINUOUS
 10
-90.3598408806
 20
230.6357427848
  0
VERTEX
  8
0
 62
7
  6
CONTINUOUS
 10
-90.0012797262
 20
230.7382878039
  0
VERTEX
  8
0
 62
7
  6
CONTINUOUS
 10
-89.6379468961
 20
230.8275888058
  0
VERTEX
  8
0
 62
7
  6
CONTINUOUS
 10
-89.2687503424
 20
230.9037112574
  0
VERTEX
  8
0
 62
7
  6
CONTINUOUS
 10
-88.8947258849
 20
230.9661783702
  0
VERTEX
  8
0
 62
7
  6
CONTINUOUS
 10
-88.5160815806
 20
231.0147088739
  0
VERTEX
  8
0
 62
7
  6
CONTINUOUS
 10
-88.1343346486
 20
231.0489080802
  0
VERTEX
  8
0
 62
7
  6
CONTINUOUS
 10
-87.7510541831
 20
231.0685508367
  0
VERTEX
  8
0
 62
7
  6
CONTINUOUS
 10
-87.3664404429
 20
231.0735725205
  0
SEQEND
  0
POLYLINE
  8
0
 62
7
  6
CONTINUOUS
 66
1
 70
0
  0
VERTEX
  8
0
 62
7
  6
CONTINUOUS
 10
-72.844807618
 20
-15.8489149513
  0
VERTEX
  8
0
 62
7
  6
CONTINUOUS
 10
-72.6859618467
 20
-0.3683193874
  0
VERTEX
  8
0
 62
7
  6
CONTINUOUS
 10
-72.5340600977
 20
14.6476282182
  0
VERTEX
  8
0
 62
7
  6
CONTINUOUS
 10
-72.38776843
 20
29.3269407612
  0
VERTEX
  8
0
 62
7
  6
CONTINUOUS
 10
-72.2510752752
 20
43.2855941924
  0
VERTEX
  8
0
 62
7
  6
CONTINUOUS
 10
-72.128880309
 20
56.0614071299
  0
VERTEX
  8
0
 62
7
  6
CONTINUOUS
 10
-72.0173151083
 20
68.0170796143
  0
VERTEX
  8
0
 62
7
  6
CONTINUOUS
 10
-71.9146748422
 20
79.3039862048
  0
VERTEX
  8
0
 62
7
  6
CONTINUOUS
 10
-71.819293917
 20
90.0938264047
  0
VERTEX
  8
0
 62
7
  6
CONTINUOUS
 10
-71.7292301649
 20
100.5710171404
  0
VERTEX
  8
0
 62
7
  6
CONTINUOUS
 10
-71.6435421204
 20
110.8487118533
  0
VERTEX
  8
0
 62
7
  6
CONTINUOUS
 10
-71.5609655223
 20
121.0546720841
  0
VERTEX
  8
0
 62
7
  6
CONTINUOUS
 10
-71.4804869381
 20
131.3294574088
  0
VERTEX
  8
0
 62
7
  6
CONTINUOUS
 10
-71.4011118059
 20
141.7861851711
  0
VERTEX
  8
0
 62
7
  6
CONTINUOUS
 10
-71.3214855396
 20
152.6349222142
  0
VERTEX
  8
0
 62
7
  6
CONTINUOUS
 10
-71.2401612099
 20
164.0805992548
  0
VERTEX
  8
0
 62
7
  6
CONTINUOUS
 10
-71.1563842304
 20
176.2517259108
  0
VERTEX
  8
0
 62
7
  6
CONTINUOUS
 10
-71.0687604592
 20
189.3697181181
  0
VERTEX
  8
0
 62
7
  6
CONTINUOUS
 10
-70.9777272691
 20
203.3607447365
  0
SEQEND
  0
POLYLINE
  8
0
 62
7
  6
CONTINUOUS
 66
1
 70
0
  0
VERTEX
  8
0
 62
7
  6
CONTINUOUS
 10
-84.8737192447
 20
-38.9923974262
  0
VERTEX
  8
0
 62
7
  6
CONTINUOUS
 10
-84.8655927878
 20
-38.8630305651
  0
VERTEX
  8
0
 62
7
  6
CONTINUOUS
 10
-84.8416647856
 20
-38.7079852227
  0
VERTEX
  8
0
 62
7
  6
CONTINUOUS
 10
-84.8019404821
 20
-38.5272798494
  0
VERTEX
  8
0
 62
7
  6
CONTINUOUS
 10
-84.7467884282
 20
-38.3222754818
  0
VERTEX
  8
0
 62
7
  6
CONTINUOUS
 10
-84.6769345992
 20
-38.0949356609
  0
VERTEX
  8
0
 62
7
  6
CONTINUOUS
 10
-84.5927080322
 20
-37.8456068336
  0
VERTEX
  8
0
 62
7
  6
CONTINUOUS
 10
-84.4948370794
 20
-37.5758732917
  0
VERTEX
  8
0
 62
7
  6
CONTINUOUS
 10
-84.3826616644
 20
-37.2836341391
  0
VERTEX
  8
0
 62
7
  6
CONTINUOUS
 10
-84.2549062028
 20
-36.9657911769
  0
VERTEX
  8
0
 62
7
  6
CONTINUOUS
 10
-84.1118704397
 20
-36.6234058481
  0
VERTEX
  8
0
 62
7
  6
CONTINUOUS
 10
-83.9535606973
 20
-36.2567014668
  0
VERTEX
  8
0
 62
7
  6
CONTINUOUS
 10
-83.7797817981
 20
-35.8654160908
  0
VERTEX
  8
0
 62
7
  6
CONTINUOUS
 10
-83.5903534317
 20
-35.4493425992
  0
VERTEX
  8
0
 62
7
  6
CONTINUOUS
 10
-83.3851979111
 20
-35.0084976094
  0
VERTEX
  8
0
 62
7
  6
CONTINUOUS
 10
-83.1642199954
 20
-34.5428567938
  0
VERTEX
  8
0
 62
7
  6
CONTINUOUS
 10
-82.9273430613
 20
-34.0524296641
  0
VERTEX
  8
0
 62
7
  6
CONTINUOUS
 10
-82.6744800818
 20
-33.5372035879
  0
VERTEX
  8
0
 62
7
  6
CONTINUOUS
 10
-82.4056238399
 20
-32.997322412
  0
VERTEX
  8
0
 62
7
  6
CONTINUOUS
 10
-82.1207552893
 20
-32.4329005064
  0
VERTEX
  8
0
 62
7
  6
CONTINUOUS
 10
-81.819918827
 20
-31.844170124
  0
VERTEX
  8
0
 62
7
  6
CONTINUOUS
 10
-81.5031496809
 20
-31.2313388106
  0
VERTEX
  8
0
 62
7
  6
CONTINUOUS
 10
-81.1705710342
 20
-30.5947755674
  0
VERTEX
  8
0
 62
7
  6
CONTINUOUS
 10
-80.8222948106
 20
-29.9348188508
  0
VERTEX
  8
0
 62
7
  6
CONTINUOUS
 10
-80.4585270982
 20
-29.2519758358
  0
VERTEX
  8
0
 62
7
  6
CONTINUOUS
 10
-80.0794608462
 20
-28.5467186109
  0
VERTEX
  8
0
 62
7
  6
CONTINUOUS
 10
-79.6854010409
 20
-27.8197166447
  0
VERTEX
  8
0
 62
7
  6
CONTINUOUS
 10
-79.2766361502
 20
-27.0715967031
  0
VERTEX
  8
0
 62
7
  6
CONTINUOUS
 10
-78.8535773178
 20
-26.3031987913
  0
VERTEX
  8
0
 62
7
  6
CONTINUOUS
 10
-78.4166182599
 20
-25.5153180006
  0
VERTEX
  8
0
 62
7
  6
CONTINUOUS
 10
-77.9662795558
 20
-24.7089632024
  0
VERTEX
  8
0
 62
7
  6
CONTINUOUS
 10
-77.5030640903
 20
-23.8850959801
  0
VERTEX
  8
0
 62
7
  6
CONTINUOUS
 10
-77.0276009214
 20
-23.0448943088
  0
VERTEX
  8
0
 62
7
  6
CONTINUOUS
 10
-76.5405053882
 20
-22.1894983557
  0
VERTEX
  8
0
 62
7
  6
CONTINUOUS
 10
-76.0425101659
 20
-21.3202251683
  0
VERTEX
  8
0
 62
7
  6
CONTINUOUS
 10
-75.5343162227
 20
-20.4383175896
  0
VERTEX
  8
0
 62
7
  6
CONTINUOUS
 10
-75.0167847471
 20
-19.5453099214
  0
VERTEX
  8
0
 62
7
  6
CONTINUOUS
 10
-74.4923767531
 20
-18.6454567092
  0
VERTEX
  8
0
 62
7
  6
CONTINUOUS
 10
-73.9572472622
 20
-17.7321664588
  0
VERTEX
  8
0
 62
7
  6
CONTINUOUS
 10
-73.4075680975
 20
-16.7990521367
  0
VERTEX
  8
0
 62
7
  6
CONTINUOUS
 10
-72.8448067296
 20
-15.8488715417
  0
SEQEND
  0
POLYLINE
  8
0
 62
7
  6
CONTINUOUS
 66
1
 70
0
  0
VERTEX
  8
0
 62
7
  6
CONTINUOUS
 10
-84.1694896681
 20
227.746187268
  0
VERTEX
  8
0
 62
7
  6
CONTINUOUS
 10
-84.1745004931
 20
227.7783194354
  0
VERTEX
  8
0
 62
7
  6
CONTINUOUS
 10
-84.1795233855
 20
227.8083118565
  0
VERTEX
  8
0
 62
7
  6
CONTINUOUS
 10
-84.1845556746
 20
227.8361613853
  0
VERTEX
  8
0
 62
7
  6
CONTINUOUS
 10
-84.1895980396
 20
227.8618674792
  0
VERTEX
  8
0
 62
7
  6
CONTINUOUS
 10
-84.1946512315
 20
227.8854293432
  0
VERTEX
  8
0
 62
7
  6
CONTINUOUS
 10
-84.1997126643
 20
227.9068441291
  0
SEQEND
  0
POLYLINE
  8
0
 62
7
  6
CONTINUOUS
 66
1
 70
0
  0
VERTEX
  8
0
 62
7
  6
CONTINUOUS
 10
456.9391280126
 20
-38.992398033
  0
VERTEX
  8
0
 62
7
  6
CONTINUOUS
 10
457.3933274785
 20
-38.9731247995
  0
VERTEX
  8
0
 62
7
  6
CONTINUOUS
 10
457.8464265886
 20
-38.9333019238
  0
VERTEX
  8
0
 62
7
  6
CONTINUOUS
 10
458.2974827367
 20
-38.8730122517
  0
VERTEX
  8
0
 62
7
  6
CONTINUOUS
 10
458.7455575665
 20
-38.7923812069
  0
VERTEX
  8
0
 62
7
  6
CONTINUOUS
 10
459.1897189241
 20
-38.6915765306
  0
VERTEX
  8
0
 62
7
  6
CONTINUOUS
 10
459.6290427968
 20
-38.5708079324
  0
VERTEX
  8
0
 62
7
  6
CONTINUOUS
 10
460.0626152357
 20
-38.4303266535
  0
VERTEX
  8
0
 62
7
  6
CONTINUOUS
 10
460.489534257
 20
-38.2704249449
  0
VERTEX
  8
0
 62
7
  6
CONTINUOUS
 10
460.9089117181
 20
-38.0914354587
  0
VERTEX
  8
0
 62
7
  6
CONTINUOUS
 10
461.3198751659
 20
-37.8937305564
  0
VERTEX
  8
0
 62
7
  6
CONTINUOUS
 10
461.7215696511
 20
-37.6777215342
  0
VERTEX
  8
0
 62
7
  6
CONTINUOUS
 10
462.1131595074
 20
-37.4438577672
  0
VERTEX
  8
0
 62
7
  6
CONTINUOUS
 10
462.4938300895
 20
-37.192625775
  0
VERTEX
  8
0
 62
7
  6
CONTINUOUS
 10
462.8627894681
 20
-36.9245482089
  0
VERTEX
  8
0
 62
7
  6
CONTINUOUS
 10
463.2192700775
 20
-36.6401827651
  0
VERTEX
  8
0
 62
7
  6
CONTINUOUS
 10
463.5625303121
 20
-36.3401210243
  0
VERTEX
  8
0
 62
7
  6
CONTINUOUS
 10
463.8918560695
 20
-36.0249872211
  0
VERTEX
  8
0
 62
7
  6
CONTINUOUS
 10
464.2065622359
 20
-35.6954369452
  0
VERTEX
  8
0
 62
7
  6
CONTINUOUS
 10
464.5059941114
 20
-35.3521557779
  0
VERTEX
  8
0
 62
7
  6
CONTINUOUS
 10
464.7895287719
 20
-34.9958578652
  0
VERTEX
  8
0
 62
7
  6
CONTINUOUS
 10
465.0565763655
 20
-34.6272844329
  0
VERTEX
  8
0
 62
7
  6
CONTINUOUS
 10
465.3065813389
 20
-34.2472022439
  0
VERTEX
  8
0
 62
7
  6
CONTINUOUS
 10
465.5390235936
 20
-33.8564020036
  0
VERTEX
  8
0
 62
7
  6
CONTINUOUS
 10
465.7534195679
 20
-33.4556967147
  0
VERTEX
  8
0
 62
7
  6
CONTINUOUS
 10
465.9493232424
 20
-33.0459199856
  0
VERTEX
  8
0
 62
7
  6
CONTINUOUS
 10
466.1263270687
 20
-32.6279242969
  0
VERTEX
  8
0
 62
7
  6
CONTINUOUS
 10
466.2840628164
 20
-32.2025792271
  0
VERTEX
  8
0
 62
7
  6
CONTINUOUS
 10
466.4222023396
 20
-31.7707696445
  0
VERTEX
  8
0
 62
7
  6
CONTINUOUS
 10
466.5404582595
 20
-31.3333938653
  0
VERTEX
  8
0
 62
7
  6
CONTINUOUS
 10
466.6385845624
 20
-30.8913617857
  0
VERTEX
  8
0
 62
7
  6
CONTINUOUS
 10
466.7163771109
 20
-30.4455929886
  0
VERTEX
  8
0
 62
7
  6
CONTINUOUS
 10
466.7736740694
 20
-29.9970148304
  0
VERTEX
  8
0
 62
7
  6
CONTINUOUS
 10
466.8103562402
 20
-29.5465605121
  0
VERTEX
  8
0
 62
7
  6
CONTINUOUS
 10
466.8263473116
 20
-29.0951671378
  0
SEQEND
  0
POLYLINE
  8
0
 62
7
  6
CONTINUOUS
 66
1
 70
0
  0
VERTEX
  8
0
 62
7
  6
CONTINUOUS
 10
456.9396055096
 20
-39.1563673939
  0
VERTEX
  8
0
 62
7
  6
CONTINUOUS
 10
457.3720519799
 20
-39.1436923783
  0
VERTEX
  8
0
 62
7
  6
CONTINUOUS
 10
457.8036832048
 20
-39.1122610599
  0
VERTEX
  8
0
 62
7
  6
CONTINUOUS
 10
458.2336854795
 20
-39.0621326925
  0
VERTEX
  8
0
 62
7
  6
CONTINUOUS
 10
458.6612481563
 20
-38.993401779
  0
VERTEX
  8
0
 62
7
  6
CONTINUOUS
 10
459.0855651704
 20
-38.9061978974
  0
VERTEX
  8
0
 62
7
  6
CONTINUOUS
 10
459.5058366558
 20
-38.800685434
  0
VERTEX
  8
0
 62
7
  6
CONTINUOUS
 10
459.9212703994
 20
-38.6770632715
  0
VERTEX
  8
0
 62
7
  6
CONTINUOUS
 10
460.3310831134
 20
-38.5355644896
  0
VERTEX
  8
0
 62
7
  6
CONTINUOUS
 10
460.7345021004
 20
-38.3764558935
  0
VERTEX
  8
0
 62
7
  6
CONTINUOUS
 10
461.1307669577
 20
-38.2000373977
  0
VERTEX
  8
0
 62
7
  6
CONTINUOUS
 10
461.5191307421
 20
-38.0066415393
  0
VERTEX
  8
0
 62
7
  6
CONTINUOUS
 10
461.898861251
 20
-37.7966329305
  0
VERTEX
  8
0
 62
7
  6
CONTINUOUS
 10
462.269242586
 20
-37.5704074963
  0
VERTEX
  8
0
 62
7
  6
CONTINUOUS
 10
462.6295765233
 20
-37.3283917069
  0
VERTEX
  8
0
 62
7
  6
CONTINUOUS
 10
462.9791837703
 20
-37.0710418041
  0
VERTEX
  8
0
 62
7
  6
CONTINUOUS
 10
463.3174052456
 20
-36.7988429444
  0
VERTEX
  8
0
 62
7
  6
CONTINUOUS
 10
463.6436033344
 20
-36.5123082766
  0
VERTEX
  8
0
 62
7
  6
CONTINUOUS
 10
463.9571630904
 20
-36.2119779736
  0
VERTEX
  8
0
 62
7
  6
CONTINUOUS
 10
464.2574933932
 20
-35.8984182159
  0
VERTEX
  8
0
 62
7
  6
CONTINUOUS
 10
464.5440280605
 20
-35.5722201258
  0
VERTEX
  8
0
 62
7
  6
CONTINUOUS
 10
464.8162269176
 20
-35.2339986518
  0
VERTEX
  8
0
 62
7
  6
CONTINUOUS
 10
465.0735768178
 20
-34.8843914065
  0
VERTEX
  8
0
 62
7
  6
CONTINUOUS
 10
465.3155926072
 20
-34.5240574671
  0
VERTEX
  8
0
 62
7
  6
CONTINUOUS
 10
465.541818039
 20
-34.1536761339
  0
VERTEX
  8
0
 62
7
  6
CONTINUOUS
 10
465.7518266297
 20
-33.7739456575
  0
VERTEX
  8
0
 62
7
  6
CONTINUOUS
 10
465.9452224874
 20
-33.3855818757
  0
VERTEX
  8
0
 62
7
  6
CONTINUOUS
 10
466.1216410441
 20
-32.9893168751
  0
VERTEX
  8
0
 62
7
  6
CONTINUOUS
 10
466.2807496763
 20
-32.5858977731
  0
VERTEX
  8
0
 62
7
  6
CONTINUOUS
 10
466.4222484017
 20
-32.1760851981
  0
VERTEX
  8
0
 62
7
  6
CONTINUOUS
 10
466.545870514
 20
-31.7606516199
  0
VERTEX
  8
0
 62
7
  6
CONTINUOUS
 10
466.6513829858
 20
-31.3403801103
  0
VERTEX
  8
0
 62
7
  6
CONTINUOUS
 10
466.7385868805
 20
-30.9160630332
  0
VERTEX
  8
0
 62
7
  6
CONTINUOUS
 10
466.8073177928
 20
-30.4885003566
  0
VERTEX
  8
0
 62
7
  6
CONTINUOUS
 10
466.8574461579
 20
-30.0584980948
  0
VERTEX
  8
0
 62
7
  6
CONTINUOUS
 10
466.8888774753
 20
-29.6268668761
  0
VERTEX
  8
0
 62
7
  6
CONTINUOUS
 10
466.9015524906
 20
-29.1944204118
  0
SEQEND
  0
LINE
  8
0
 62
7
  6
CONTINUOUS
 10
-103.9672956164
 20
-58.2875192869
 11
476.0327043836
 21
-58.2875192869
  0
LINE
  8
0
 62
7
  6
CONTINUOUS
 10
-103.9672956164
 20
-50.2875192869
 11
476.0327043836
 21
-50.2875192869
  0
LINE
  8
0
 62
7
  6
CONTINUOUS
 10
459.4318492101
 20
-49.6181686791
 11
-87.3664404429
 21
-49.6181686791
  0
LINE
  8
0
 62
7
  6
CONTINUOUS
 10
-105.9672956164
 20
-48.2875192869
 11
-113.9672956164
 21
-48.2875192869
  0
LINE
  8
0
 62
7
  6
CONTINUOUS
 10
478.0327043836
 20
-48.2875192869
 11
486.0327043836
 21
-48.2875192869
  0
LINE
  8
0
 62
7
  6
CONTINUOUS
 10
459.4318492101
 20
-41.6486110943
 11
-87.3664404429
 21
-41.6486110943
  0
POLYLINE
  8
0
 62
7
  6
CONTINUOUS
 66
1
 70
0
  0
VERTEX
  8
0
 62
7
  6
CONTINUOUS
 10
-87.3664404429
 20
-41.6486110943
  0
VERTEX
  8
0
 62
7
  6
CONTINUOUS
 10
-87.7457061946
 20
-41.6437585631
  0
VERTEX
  8
0
 62
7
  6
CONTINUOUS
 10
-88.1222681931
 20
-41.6247886588
  0
VERTEX
  8
0
 62
7
  6
CONTINUOUS
 10
-88.4950078618
 20
-41.5920208752
  0
VERTEX
  8
0
 62
7
  6
CONTINUOUS
 10
-88.8652701323
 20
-41.5455195276
  0
VERTEX
  8
0
 62
7
  6
CONTINUOUS
 10
-89.2345366216
 20
-41.4850713958
  0
VERTEX
  8
0
 62
7
  6
CONTINUOUS
 10
-89.6012059815
 20
-41.4108565497
  0
VERTEX
  8
0
 62
7
  6
CONTINUOUS
 10
-89.9643455541
 20
-41.3230665386
  0
VERTEX
  8
0
 62
7
  6
CONTINUOUS
 10
-90.3234952358
 20
-41.2218416315
  0
VERTEX
  8
0
 62
7
  6
CONTINUOUS
 10
-90.6780344574
 20
-41.1073899757
  0
VERTEX
  8
0
 62
7
  6
CONTINUOUS
 10
-91.0275705875
 20
-40.9798764652
  0
VERTEX
  8
0
 62
7
  6
CONTINUOUS
 10
-91.37162691
 20
-40.8395077129
  0
VERTEX
  8
0
 62
7
  6
CONTINUOUS
 10
-91.7098758917
 20
-40.6864427706
  0
VERTEX
  8
0
 62
7
  6
CONTINUOUS
 10
-92.0419880277
 20
-40.5208380818
  0
VERTEX
  8
0
 62
7
  6
CONTINUOUS
 10
-92.3675053806
 20
-40.3429211765
  0
VERTEX
  8
0
 62
7
  6
CONTINUOUS
 10
-92.6860372174
 20
-40.1528994613
  0
VERTEX
  8
0
 62
7
  6
CONTINUOUS
 10
-92.9970901735
 20
-39.9510623711
  0
VERTEX
  8
0
 62
7
  6
CONTINUOUS
 10
-93.3002040852
 20
-39.7377083818
  0
VERTEX
  8
0
 62
7
  6
CONTINUOUS
 10
-93.5949619317
 20
-39.5131360594
  0
VERTEX
  8
0
 62
7
  6
CONTINUOUS
 10
-93.8809353109
 20
-39.2776776261
  0
VERTEX
  8
0
 62
7
  6
CONTINUOUS
 10
-94.1577726782
 20
-39.0316293021
  0
VERTEX
  8
0
 62
7
  6
CONTINUOUS
 10
-94.4251150957
 20
-38.7753096108
  0
VERTEX
  8
0
 62
7
  6
CONTINUOUS
 10
-94.6826138348
 20
-38.5090497176
  0
VERTEX
  8
0
 62
7
  6
CONTINUOUS
 10
-94.9299434111
 20
-38.233174909
  0
VERTEX
  8
0
 62
7
  6
CONTINUOUS
 10
-95.1667358045
 20
-37.9480849957
  0
VERTEX
  8
0
 62
7
  6
CONTINUOUS
 10
-95.3926574523
 20
-37.6541713696
  0
VERTEX
  8
0
 62
7
  6
CONTINUOUS
 10
-95.6073720472
 20
-37.3518680156
  0
VERTEX
  8
0
 62
7
  6
CONTINUOUS
 10
-95.8105486702
 20
-37.0416443705
  0
VERTEX
  8
0
 62
7
  6
CONTINUOUS
 10
-96.0019497036
 20
-36.7238690726
  0
VERTEX
  8
0
 62
7
  6
CONTINUOUS
 10
-96.1813132206
 20
-36.398972783
  0
VERTEX
  8
0
 62
7
  6
CONTINUOUS
 10
-96.3484484129
 20
-36.0672820672
  0
VERTEX
  8
0
 62
7
  6
CONTINUOUS
 10
-96.5031583499
 20
-35.7291346044
  0
VERTEX
  8
0
 62
7
  6
CONTINUOUS
 10
-96.6452174073
 20
-35.3849456198
  0
VERTEX
  8
0
 62
7
  6
CONTINUOUS
 10
-96.7744634154
 20
-35.0349843371
  0
VERTEX
  8
0
 62
7
  6
CONTINUOUS
 10
-96.8905576881
 20
-34.6800645511
  0
VERTEX
  8
0
 62
7
  6
CONTINUOUS
 10
-96.9931027072
 20
-34.3215033967
  0
VERTEX
  8
0
 62
7
  6
CONTINUOUS
 10
-97.0824037091
 20
-33.9581705666
  0
VERTEX
  8
0
 62
7
  6
CONTINUOUS
 10
-97.1585261608
 20
-33.5889740129
  0
VERTEX
  8
0
 62
7
  6
CONTINUOUS
 10
-97.2209932736
 20
-33.2149495554
  0
VERTEX
  8
0
 62
7
  6
CONTINUOUS
 10
-97.2695237772
 20
-32.8363052511
  0
VERTEX
  8
0
 62
7
  6
CONTINUOUS
 10
-97.3037229835
 20
-32.4545583191
  0
VERTEX
  8
0
 62
7
  6
CONTINUOUS
 10
-97.3233657401
 20
-32.0712778536
  0
VERTEX
  8
0
 62
7
  6
CONTINUOUS
 10
-97.3283874238
 20
-31.6866641134
  0
SEQEND
  0
POLYLINE
  8
0
 62
7
  6
CONTINUOUS
 66
1
 70
0
  0
VERTEX
  8
0
 62
7
  6
CONTINUOUS
 10
-87.3664404429
 20
-49.6181686791
  0
VERTEX
  8
0
 62
7
  6
CONTINUOUS
 10
-88.0455539042
 20
-49.60518619
  0
VERTEX
  8
0
 62
7
  6
CONTINUOUS
 10
-88.719078705
 20
-49.5674360087
  0
VERTEX
  8
0
 62
7
  6
CONTINUOUS
 10
-89.386370717
 20
-49.504916198
  0
VERTEX
  8
0
 62
7
  6
CONTINUOUS
 10
-90.0493623249
 20
-49.4176325694
  0
VERTEX
  8
0
 62
7
  6
CONTINUOUS
 10
-90.7107225379
 20
-49.3054699329
  0
VERTEX
  8
0
 62
7
  6
CONTINUOUS
 10
-91.3675973528
 20
-49.1687893557
  0
VERTEX
  8
0
 62
7
  6
CONTINUOUS
 10
-92.0182885858
 20
-49.0077940588
  0
VERTEX
  8
0
 62
7
  6
CONTINUOUS
 10
-92.6619977875
 20
-48.8228423904
  0
VERTEX
  8
0
 62
7
  6
CONTINUOUS
 10
-93.2975885608
 20
-48.6142456061
  0
VERTEX
  8
0
 62
7
  6
CONTINUOUS
 10
-93.9243765661
 20
-48.382348205
  0
VERTEX
  8
0
 62
7
  6
CONTINUOUS
 10
-94.5414916487
 20
-48.1274981291
  0
VERTEX
  8
0
 62
7
  6
CONTINUOUS
 10
-95.1483548565
 20
-47.8499963048
  0
VERTEX
  8
0
 62
7
  6
CONTINUOUS
 10
-95.7443664742
 20
-47.5501137146
  0
VERTEX
  8
0
 62
7
  6
CONTINUOUS
 10
-96.3287186361
 20
-47.2282881327
  0
VERTEX
  8
0
 62
7
  6
CONTINUOUS
 10
-96.9006893502
 20
-46.8848573941
  0
VERTEX
  8
0
 62
7
  6
CONTINUOUS
 10
-97.4594212791
 20
-46.5203922986
  0
VERTEX
  8
0
 62
7
  6
CONTINUOUS
 10
-98.0040552417
 20
-46.1353813126
  0
VERTEX
  8
0
 62
7
  6
CONTINUOUS
 10
-98.5338747778
 20
-45.7304092714
  0
VERTEX
  8
0
 62
7
  6
CONTINUOUS
 10
-99.048078623
 20
-45.3060349136
  0
VERTEX
  8
0
 62
7
  6
CONTINUOUS
 10
-99.5460620087
 20
-44.8628249952
  0
VERTEX
  8
0
 62
7
  6
CONTINUOUS
 10
-100.0271533843
 20
-44.4013242375
  0
VERTEX
  8
0
 62
7
  6
CONTINUOUS
 10
-100.4907518316
 20
-43.9221574842
  0
VERTEX
  8
0
 62
7
  6
CONTINUOUS
 10
-100.9362409675
 20
-43.4258797519
  0
VERTEX
  8
0
 62
7
  6
CONTINUOUS
 10
-101.3629956362
 20
-42.9132452439
  0
VERTEX
  8
0
 62
7
  6
CONTINUOUS
 10
-101.7703714421
 20
-42.3849207637
  0
VERTEX
  8
0
 62
7
  6
CONTINUOUS
 10
-102.1578097213
 20
-41.8417235275
  0
VERTEX
  8
0
 62
7
  6
CONTINUOUS
 10
-102.5246684055
 20
-41.2844644278
  0
VERTEX
  8
0
 62
7
  6
CONTINUOUS
 10
-102.870553312
 20
-40.7138292394
  0
VERTEX
  8
0
 62
7
  6
CONTINUOUS
 10
-103.1949667185
 20
-40.1305749955
  0
VERTEX
  8
0
 62
7
  6
CONTINUOUS
 10
-103.4975771754
 20
-39.5352988138
  0
VERTEX
  8
0
 62
7
  6
CONTINUOUS
 10
-103.778017299
 20
-38.9285968063
  0
VERTEX
  8
0
 62
7
  6
CONTINUOUS
 10
-104.0358971697
 20
-38.3112290233
  0
VERTEX
  8
0
 62
7
  6
CONTINUOUS
 10
-104.2708750693
 20
-37.6836540683
  0
VERTEX
  8
0
 62
7
  6
CONTINUOUS
 10
-104.4824390103
 20
-37.0473723928
  0
VERTEX
  8
0
 62
7
  6
CONTINUOUS
 10
-104.6698553451
 20
-36.4047265939
  0
VERTEX
  8
0
 62
7
  6
CONTINUOUS
 10
-104.8334473368
 20
-35.7536488377
  0
VERTEX
  8
0
 62
7
  6
CONTINUOUS
 10
-104.9735975369
 20
-35.0922246558
  0
VERTEX
  8
0
 62
7
  6
CONTINUOUS
 10
-105.0893944336
 20
-34.422336549
  0
VERTEX
  8
0
 62
7
  6
CONTINUOUS
 10
-105.1802090348
 20
-33.7443018962
  0
VERTEX
  8
0
 62
7
  6
CONTINUOUS
 10
-105.2455763334
 20
-33.0609015944
  0
VERTEX
  8
0
 62
7
  6
CONTINUOUS
 10
-105.284737324
 20
-32.3753831697
  0
VERTEX
  8
0
 62
7
  6
CONTINUOUS
 10
-105.2979450086
 20
-31.6866641134
  0
SEQEND
  0
POLYLINE
  8
0
 62
7
  6
CONTINUOUS
 66
1
 70
0
  0
VERTEX
  8
0
 62
7
  6
CONTINUOUS
 10
-94.0883018504
 20
217.8481621035
  0
VERTEX
  8
0
 62
7
  6
CONTINUOUS
 10
-94.1004846273
 20
217.867483601
  0
VERTEX
  8
0
 62
7
  6
CONTINUOUS
 10
-94.1126865225
 20
217.8855281205
  0
VERTEX
  8
0
 62
7
  6
CONTINUOUS
 10
-94.1249091264
 20
217.902298066
  0
VERTEX
  8
0
 62
7
  6
CONTINUOUS
 10
-94.1371476681
 20
217.9177862258
  0
VERTEX
  8
0
 62
7
  6
CONTINUOUS
 10
-94.1493973767
 20
217.9319853881
  0
VERTEX
  8
0
 62
7
  6
CONTINUOUS
 10
-94.1616598425
 20
217.9448979571
  0
SEQEND
  0
LINE
  8
0
 62
7
  6
CONTINUOUS
 10
-70.9777444661
 20
203.3607445763
 11
-72.0734591634
 21
205.2055008774
  0
LINE
  8
0
 62
7
  6
CONTINUOUS
 10
-72.0734591634
 20
205.2055008774
 11
-73.1463395913
 21
207.0259206975
  0
LINE
  8
0
 62
7
  6
CONTINUOUS
 10
-73.1463395913
 20
207.0259206975
 11
-74.1922349591
 21
208.8148563039
  0
LINE
  8
0
 62
7
  6
CONTINUOUS
 10
-74.1922349591
 20
208.8148563039
 11
-75.204546867
 21
210.5607956689
  0
LINE
  8
0
 62
7
  6
CONTINUOUS
 10
-75.204546867
 20
210.5607956689
 11
-76.1771865031
 21
212.2530442256
  0
LINE
  8
0
 62
7
  6
CONTINUOUS
 10
-76.1771865031
 20
212.2530442256
 11
-77.1048624607
 21
213.8820679329
  0
LINE
  8
0
 62
7
  6
CONTINUOUS
 10
-77.1048624607
 20
213.8820679329
 11
-77.9830940782
 21
215.4396179783
  0
LINE
  8
0
 62
7
  6
CONTINUOUS
 10
-77.9830940782
 20
215.4396179783
 11
-78.8082271662
 21
216.9187532104
  0
POLYLINE
  8
0
 62
7
  6
CONTINUOUS
 66
1
 70
0
  0
VERTEX
  8
0
 62
7
  6
CONTINUOUS
 10
-78.8082271662
 20
216.9187532104
  0
VERTEX
  8
0
 62
7
  6
CONTINUOUS
 10
-79.5773770909
 20
218.3137756167
  0
VERTEX
  8
0
 62
7
  6
CONTINUOUS
 10
-79.9402682183
 20
218.9783114971
  0
VERTEX
  8
0
 62
7
  6
CONTINUOUS
 10
-80.2884392086
 20
219.6202753838
  0
VERTEX
  8
0
 62
7
  6
CONTINUOUS
 10
-80.6217016065
 20
220.2392362405
  0
VERTEX
  8
0
 62
7
  6
CONTINUOUS
 10
-80.9399563405
 20
220.8349223943
  0
VERTEX
  8
0
 62
7
  6
CONTINUOUS
 10
-81.2430895148
 20
221.407030189
  0
VERTEX
  8
0
 62
7
  6
CONTINUOUS
 10
-81.5310678329
 20
221.9554022177
  0
VERTEX
  8
0
 62
7
  6
CONTINUOUS
 10
-81.8038455179
 20
222.4798547069
  0
VERTEX
  8
0
 62
7
  6
CONTINUOUS
 10
-82.0614344401
 20
222.9803096706
  0
VERTEX
  8
0
 62
7
  6
CONTINUOUS
 10
-82.3038359267
 20
223.4566672129
  0
VERTEX
  8
0
 62
7
  6
CONTINUOUS
 10
-82.5311046386
 20
223.9089276532
  0
VERTEX
  8
0
 62
7
  6
CONTINUOUS
 10
-82.7432804131
 20
224.3370621693
  0
VERTEX
  8
0
 62
7
  6
CONTINUOUS
 10
-82.9404532212
 20
224.7411397165
  0
VERTEX
  8
0
 62
7
  6
CONTINUOUS
 10
-83.1227061082
 20
225.1212191138
  0
VERTEX
  8
0
 62
7
  6
CONTINUOUS
 10
-83.2901118865
 20
225.4773339555
  0
VERTEX
  8
0
 62
7
  6
CONTINUOUS
 10
-83.4427284811
 20
225.8094858242
  0
VERTEX
  8
0
 62
7
  6
CONTINUOUS
 10
-83.5807071592
 20
226.117877866
  0
VERTEX
  8
0
 62
7
  6
CONTINUOUS
 10
-83.7040808878
 20
226.4024570227
  0
VERTEX
  8
0
 62
7
  6
CONTINUOUS
 10
-83.813189807
 20
226.6638905205
  0
VERTEX
  8
0
 62
7
  6
CONTINUOUS
 10
-83.9082782481
 20
226.9027256043
  0
VERTEX
  8
0
 62
7
  6
CONTINUOUS
 10
-83.9891438283
 20
227.1184436967
  0
VERTEX
  8
0
 62
7
  6
CONTINUOUS
 10
-84.0557338403
 20
227.3108775096
  0
VERTEX
  8
0
 62
7
  6
CONTINUOUS
 10
-84.1079783982
 20
227.4797361023
  0
VERTEX
  8
0
 62
7
  6
CONTINUOUS
 10
-84.1458699276
 20
227.6248334613
  0
VERTEX
  8
0
 62
7
  6
CONTINUOUS
 10
-84.1694898444
 20
227.746188437
  0
SEQEND
  0
LINE
  8
0
 62
7
  6
CONTINUOUS
 10
477.3633537757
 20
-31.6866641134
 11
469.393796191
 21
-31.6866641134
  0
LINE
  8
0
 62
7
  6
CONTINUOUS
 10
-105.2979450086
 20
-31.6866641134
 11
-97.3283874238
 21
-31.6866641134
  0
POLYLINE
  8
0
 62
7
  6
CONTINUOUS
 66
1
 70
0
  0
VERTEX
  8
0
 62
7
  6
CONTINUOUS
 10
456.9396058701
 20
-39.1563677544
  0
VERTEX
  8
0
 62
7
  6
CONTINUOUS
 10
442.059436691
 20
-38.9880542075
  0
VERTEX
  8
0
 62
7
  6
CONTINUOUS
 10
427.1564079819
 20
-38.8292383666
  0
VERTEX
  8
0
 62
7
  6
CONTINUOUS
 10
412.2297655714
 20
-38.6799100887
  0
VERTEX
  8
0
 62
7
  6
CONTINUOUS
 10
397.2817719738
 20
-38.5400998026
  0
VERTEX
  8
0
 62
7
  6
CONTINUOUS
 10
382.3139488378
 20
-38.4098294455
  0
VERTEX
  8
0
 62
7
  6
CONTINUOUS
 10
367.3277645879
 20
-38.2891143486
  0
VERTEX
  8
0
 62
7
  6
CONTINUOUS
 10
352.3246918733
 20
-38.1779729379
  0
VERTEX
  8
0
 62
7
  6
CONTINUOUS
 10
337.3062396684
 20
-38.0764178664
  0
VERTEX
  8
0
 62
7
  6
CONTINUOUS
 10
322.2739007756
 20
-37.9844647157
  0
VERTEX
  8
0
 62
7
  6
CONTINUOUS
 10
307.2291963601
 20
-37.902123126
  0
VERTEX
  8
0
 62
7
  6
CONTINUOUS
 10
292.1736353667
 20
-37.8294057393
  0
VERTEX
  8
0
 62
7
  6
CONTINUOUS
 10
277.1087472577
 20
-37.766319132
  0
VERTEX
  8
0
 62
7
  6
CONTINUOUS
 10
262.0360533121
 20
-37.7128729342
  0
VERTEX
  8
0
 62
7
  6
CONTINUOUS
 10
246.957087024
 20
-37.6690706268
  0
VERTEX
  8
0
 62
7
  6
CONTINUOUS
 10
231.8733777221
 20
-37.6349187751
  0
VERTEX
  8
0
 62
7
  6
CONTINUOUS
 10
216.7864591813
 20
-37.6104177563
  0
VERTEX
  8
0
 62
7
  6
CONTINUOUS
 10
201.6978645906
 20
-37.5955710418
  0
VERTEX
  8
0
 62
7
  6
CONTINUOUS
 10
186.6091250355
 20
-37.5903759142
  0
VERTEX
  8
0
 62
7
  6
CONTINUOUS
 10
171.5217728666
 20
-37.5948327468
  0
VERTEX
  8
0
 62
7
  6
CONTINUOUS
 10
156.4373374774
 20
-37.6089357394
  0
VERTEX
  8
0
 62
7
  6
CONTINUOUS
 10
141.3573575109
 20
-37.6326821491
  0
VERTEX
  8
0
 62
7
  6
CONTINUOUS
 10
126.2833375693
 20
-37.6660631771
  0
VERTEX
  8
0
 62
7
  6
CONTINUOUS
 10
111.2167751094
 20
-37.709073131
  0
VERTEX
  8
0
 62
7
  6
CONTINUOUS
 10
96.1592302103
 20
-37.7616999479
  0
VERTEX
  8
0
 62
7
  6
CONTINUOUS
 10
81.1123168962
 20
-37.8239343213
  0
VERTEX
  8
0
 62
7
  6
CONTINUOUS
 10
66.0773707876
 20
-37.8957622893
  0
VERTEX
  8
0
 62
7
  6
CONTINUOUS
 10
51.0551404775
 20
-37.9771773617
  0
VERTEX
  8
0
 62
7
  6
CONTINUOUS
 10
36.0490010714
 20
-38.068147817
  0
VERTEX
  8
0
 62
7
  6
CONTINUOUS
 10
21.0774870046
 20
-38.1685110544
  0
VERTEX
  8
0
 62
7
  6
CONTINUOUS
 10
6.0958688799
 20
-38.2786532209
  0
VERTEX
  8
0
 62
7
  6
CONTINUOUS
 10
-8.9213292267
 20
-38.3987095638
  0
VERTEX
  8
0
 62
7
  6
CONTINUOUS
 10
-24.0133332988
 20
-38.5292701814
  0
VERTEX
  8
0
 62
7
  6
CONTINUOUS
 10
-39.2766162287
 20
-38.6714167483
  0
VERTEX
  8
0
 62
7
  6
CONTINUOUS
 10
-54.5649132148
 20
-38.823809784
  0
VERTEX
  8
0
 62
7
  6
CONTINUOUS
 10
-69.7498536901
 20
-38.985348001
  0
VERTEX
  8
0
 62
7
  6
CONTINUOUS
 10
-84.8742278437
 20
-39.1563984951
  0
SEQEND
  0
POLYLINE
  8
0
 62
7
  6
CONTINUOUS
 66
1
 70
0
  0
VERTEX
  8
0
 62
7
  6
CONTINUOUS
 10
444.9102097157
 20
-15.848874668
  0
VERTEX
  8
0
 62
7
  6
CONTINUOUS
 10
430.6712278271
 20
-15.6455780331
  0
VERTEX
  8
0
 62
7
  6
CONTINUOUS
 10
416.4121650711
 20
-15.4537174416
  0
VERTEX
  8
0
 62
7
  6
CONTINUOUS
 10
402.1333742912
 20
-15.2732768363
  0
VERTEX
  8
0
 62
7
  6
CONTINUOUS
 10
387.8364750667
 20
-15.1043043703
  0
VERTEX
  8
0
 62
7
  6
CONTINUOUS
 10
373.522790504
 20
-14.9468345759
  0
VERTEX
  8
0
 62
7
  6
CONTINUOUS
 10
359.1935716534
 20
-14.8008922603
  0
VERTEX
  8
0
 62
7
  6
CONTINUOUS
 10
344.8500855357
 20
-14.6665069787
  0
VERTEX
  8
0
 62
7
  6
CONTINUOUS
 10
330.4936139615
 20
-14.5436990205
  0
VERTEX
  8
0
 62
7
  6
CONTINUOUS
 10
316.125431907
 20
-14.4324933089
  0
VERTEX
  8
0
 62
7
  6
CONTINUOUS
 10
301.746832172
 20
-14.3329054993
  0
VERTEX
  8
0
 62
7
  6
CONTINUOUS
 10
287.3591011237
 20
-14.2449559007
  0
VERTEX
  8
0
 62
7
  6
CONTINUOUS
 10
272.9635369949
 20
-14.1686554768
  0
VERTEX
  8
0
 62
7
  6
CONTINUOUS
 10
258.5614340286
 20
-14.1040198735
  0
VERTEX
  8
0
 62
7
  6
CONTINUOUS
 10
244.1540931648
 20
-14.0510553559
  0
VERTEX
  8
0
 62
7
  6
CONTINUOUS
 10
229.7428136007
 20
-14.0097728808
  0
VERTEX
  8
0
 62
7
  6
CONTINUOUS
 10
215.3288960414
 20
-13.9801740214
  0
VERTEX
  8
0
 62
7
  6
CONTINUOUS
 10
200.9136405558
 20
-13.9622650378
  0
VERTEX
  8
0
 62
7
  6
CONTINUOUS
 10
186.4983481125
 20
-13.9560428281
  0
VERTEX
  8
0
 62
7
  6
CONTINUOUS
 10
172.0843221802
 20
-13.9615089596
  0
VERTEX
  8
0
 62
7
  6
CONTINUOUS
 10
157.6728538299
 20
-13.978655686
  0
VERTEX
  8
0
 62
7
  6
CONTINUOUS
 10
143.2652325249
 20
-14.0074799295
  0
VERTEX
  8
0
 62
7
  6
CONTINUOUS
 10
128.8627637158
 20
-14.0479692548
  0
VERTEX
  8
0
 62
7
  6
CONTINUOUS
 10
114.4667951655
 20
-14.1001156132
  0
VERTEX
  8
0
 62
7
  6
CONTINUOUS
 10
100.0784851833
 20
-14.1639027698
  0
VERTEX
  8
0
 62
7
  6
CONTINUOUS
 10
85.6986403497
 20
-14.2393218072
  0
VERTEX
  8
0
 62
7
  6
CONTINUOUS
 10
71.3296586839
 20
-14.3263427262
  0
VERTEX
  8
0
 62
7
  6
CONTINUOUS
 10
56.9740963395
 20
-14.4249400201
  0
VERTEX
  8
0
 62
7
  6
CONTINUOUS
 10
42.6322720732
 20
-14.5350912964
  0
VERTEX
  8
0
 62
7
  6
CONTINUOUS
 10
28.3124492302
 20
-14.6566907725
  0
VERTEX
  8
0
 62
7
  6
CONTINUOUS
 10
13.9933445335
 20
-14.7899631144
  0
VERTEX
  8
0
 62
7
  6
CONTINUOUS
 10
-0.3304367444
 20
-14.9348937467
  0
VERTEX
  8
0
 62
7
  6
CONTINUOUS
 10
-14.6980936013
 20
-15.092094613
  0
VERTEX
  8
0
 62
7
  6
CONTINUOUS
 10
-29.1636620464
 20
-15.2622580132
  0
VERTEX
  8
0
 62
7
  6
CONTINUOUS
 10
-43.6874545483
 20
-15.4451283065
  0
VERTEX
  8
0
 62
7
  6
CONTINUOUS
 10
-58.2455603475
 20
-15.6406775074
  0
VERTEX
  8
0
 62
7
  6
CONTINUOUS
 10
-72.844807618
 20
-15.8489149513
  0
SEQEND
  0
LINE
  8
0
 62
7
  6
CONTINUOUS
 10
-94.1616598425
 20
217.9448979571
 11
-97.3283874238
 21
221.1116255396
  0
POLYLINE
  8
0
 62
7
  6
CONTINUOUS
 66
1
 70
0
  0
VERTEX
  8
0
 62
7
  6
CONTINUOUS
 10
-94.760941502
 20
-29.095171643
  0
VERTEX
  8
0
 62
7
  6
CONTINUOUS
 10
-94.7734388737
 20
-29.1150151415
  0
VERTEX
  8
0
 62
7
  6
CONTINUOUS
 10
-94.7859513074
 20
-29.133538573
  0
VERTEX
  8
0
 62
7
  6
CONTINUOUS
 10
-94.7984792259
 20
-29.1507425649
  0
VERTEX
  8
0
 62
7
  6
CONTINUOUS
 10
-94.811021361
 20
-29.1666252347
  0
VERTEX
  8
0
 62
7
  6
CONTINUOUS
 10
-94.8235764449
 20
-29.1811846997
  0
VERTEX
  8
0
 62
7
  6
CONTINUOUS
 10
-94.8361449001
 20
-29.1944215875
  0
SEQEND
  0
POLYLINE
  8
0
 62
7
  6
CONTINUOUS
 66
1
 70
0
  0
VERTEX
  8
0
 62
7
  6
CONTINUOUS
 10
-94.0882805862
 20
217.8481295651
  0
VERTEX
  8
0
 62
7
  6
CONTINUOUS
 10
-94.0095216953
 20
217.7816007077
  0
VERTEX
  8
0
 62
7
  6
CONTINUOUS
 10
-93.9070323628
 20
217.7004192992
  0
VERTEX
  8
0
 62
7
  6
CONTINUOUS
 10
-93.7806976336
 20
217.6051695757
  0
VERTEX
  8
0
 62
7
  6
CONTINUOUS
 10
-93.6306407564
 20
217.4956566356
  0
VERTEX
  8
0
 62
7
  6
CONTINUOUS
 10
-93.4570521566
 20
217.3721494932
  0
VERTEX
  8
0
 62
7
  6
CONTINUOUS
 10
-93.2600691581
 20
217.2346672584
  0
VERTEX
  8
0
 62
7
  6
CONTINUOUS
 10
-93.0401107861
 20
217.0835299095
  0
VERTEX
  8
0
 62
7
  6
CONTINUOUS
 10
-92.7966979051
 20
216.9184846779
  0
VERTEX
  8
0
 62
7
  6
CONTINUOUS
 10
-92.5292318298
 20
216.739048701
  0
VERTEX
  8
0
 62
7
  6
CONTINUOUS
 10
-91.9218862122
 20
216.337047389
  0
SEQEND
  0
LINE
  8
0
 62
7
  6
CONTINUOUS
 10
-84.1997106045
 20
227.9068426821
 11
-87.3664404429
 21
231.0735725205
  0
LINE
  8
0
 62
7
  6
CONTINUOUS
 10
-90.4143816569
 20
215.3590447413
 11
-89.025332474
 21
214.4725549051
  0
LINE
  8
0
 62
7
  6
CONTINUOUS
 10
-91.2171650643
 20
215.8771338388
 11
-90.4143816569
 21
215.3590447413
  0
LINE
  8
0
 62
7
  6
CONTINUOUS
 10
-91.9218862122
 20
216.337047389
 11
-91.2171650643
 21
215.8771338388
  0
LINE
  8
0
 62
7
  6
CONTINUOUS
 10
-94.8361449001
 20
-29.1944215875
 11
-97.3283874238
 21
-31.6866641134
  0
LINE
  8
0
 62
7
  6
CONTINUOUS
 10
-73.7151629722
 20
205.0186608065
 11
-70.9777444661
 21
203.3607445763
  0
LINE
  8
0
 62
7
  6
CONTINUOUS
 10
-77.2372627092
 20
207.1632367877
 11
-73.7151629722
 21
205.0186608065
  0
LINE
  8
0
 62
7
  6
CONTINUOUS
 10
-79.7397436797
 20
208.6955139406
 11
-77.2372627092
 21
207.1632367877
  0
LINE
  8
0
 62
7
  6
CONTINUOUS
 10
-82.0868712554
 20
210.1401113313
 11
-79.7397436797
 21
208.6955139406
  0
LINE
  8
0
 62
7
  6
CONTINUOUS
 10
-84.25343229
 20
211.4812363905
 11
-82.0868712554
 21
210.1401113313
  0
LINE
  8
0
 62
7
  6
CONTINUOUS
 10
-86.2207083861
 20
212.7069130119
 11
-84.25343229
 21
211.4812363905
  0
LINE
  8
0
 62
7
  6
CONTINUOUS
 10
-87.9762908033
 20
213.8090352586
 11
-86.2207083861
 21
212.7069130119
  0
LINE
  8
0
 62
7
  6
CONTINUOUS
 10
-89.025332474
 20
214.4725549051
 11
-87.9762908033
 21
213.8090352586
  0
LINE
  8
0
 62
7
  6
CONTINUOUS
 10
158.0427385257
 20
229.2124807131
 11
158.0329724685
 21
229.1753094699
  0
LINE
  8
0
 62
7
  6
CONTINUOUS
 10
-84.8742278437
 20
-39.1563984951
 11
-87.3664404429
 21
-41.6486110943
  0
LINE
  8
0
 62
7
  6
CONTINUOUS
 10
167.0327043836
 20
229.9627074426
 11
167.0327043836
 21
226.7124807131
  0
LINE
  8
0
 62
7
  6
CONTINUOUS
 10
-94.5670067962
 20
-28.9707943122
 11
-94.7609383208
 21
-29.095166771
  0
LINE
  8
0
 62
7
  6
CONTINUOUS
 10
445.8543873881
 20
-16.4154804718
 11
444.9102154958
 21
-15.8488715411
  0
LINE
  8
0
 62
7
  6
CONTINUOUS
 10
448.573772939
 20
-18.0481103861
 11
445.8543873881
 21
-16.4154804718
  0
LINE
  8
0
 62
7
  6
CONTINUOUS
 10
452.0136205678
 20
-20.1152279932
 11
448.573772939
 21
-18.0481103861
  0
LINE
  8
0
 62
7
  6
CONTINUOUS
 10
462.5552870373
 20
-26.474694446
 11
452.0136205678
 21
-20.1152279932
  0
LINE
  8
0
 62
7
  6
CONTINUOUS
 10
465.1922076554
 20
-28.0803230475
 11
462.5552870373
 21
-26.474694446
  0
LINE
  8
0
 62
7
  6
CONTINUOUS
 10
466.1533980966
 20
-28.6716611821
 11
465.1922076554
 21
-28.0803230475
  0
POLYLINE
  8
0
 62
7
  6
CONTINUOUS
 66
1
 70
0
  0
VERTEX
  8
0
 62
7
  6
CONTINUOUS
 10
466.6327266282
 20
-28.9709915521
  0
VERTEX
  8
0
 62
7
  6
CONTINUOUS
 10
466.4971691376
 20
-28.8857847357
  0
VERTEX
  8
0
 62
7
  6
CONTINUOUS
 10
466.1533980966
 20
-28.6716611821
  0
SEQEND
  0
LINE
  8
0
 62
7
  6
CONTINUOUS
 10
466.8263473554
 20
-29.0951672097
 11
466.6327266282
 21
-28.9709915521
  0
LINE
  8
0
 62
7
  6
CONTINUOUS
 10
205.0327043836
 20
226.7124807131
 11
205.0327043836
 21
229.9627074426
  0
LINE
  8
0
 62
7
  6
CONTINUOUS
 10
-94.270521194
 20
-28.785023866
 11
-94.5670067962
 21
-28.9707943122
  0
LINE
  8
0
 62
7
  6
CONTINUOUS
 10
-93.6522960685
 20
-28.4026621769
 11
-94.270521194
 21
-28.785023866
  0
LINE
  8
0
 62
7
  6
CONTINUOUS
 10
-91.3674542398
 20
-27.0075572739
 11
-93.6522960685
 21
-28.4026621769
  0
LINE
  8
0
 62
7
  6
CONTINUOUS
 10
-86.6111394306
 20
-24.1283835345
 11
-91.3674542398
 21
-27.0075572739
  0
LINE
  8
0
 62
7
  6
CONTINUOUS
 10
-78.2565006268
 20
-19.0983077768
 11
-86.6111394306
 21
-24.1283835345
  0
LINE
  8
0
 62
7
  6
CONTINUOUS
 10
-76.5085029223
 20
-18.0481781422
 11
-78.2565006268
 21
-19.0983077768
  0
LINE
  8
0
 62
7
  6
CONTINUOUS
 10
-72.8448067296
 20
-15.8488715417
 11
-76.5085029223
 21
-18.0481781422
  0
POLYLINE
  8
0
 62
7
  6
CONTINUOUS
 66
1
 70
0
  0
VERTEX
  8
0
 62
7
  6
CONTINUOUS
 10
-70.9777272691
 20
203.3607447365
  0
VERTEX
  8
0
 62
7
  6
CONTINUOUS
 10
-52.7630174635
 20
203.39054794
  0
VERTEX
  8
0
 62
7
  6
CONTINUOUS
 10
-34.5368418531
 20
203.418092427
  0
VERTEX
  8
0
 62
7
  6
CONTINUOUS
 10
-16.298950175
 20
203.4433735353
  0
VERTEX
  8
0
 62
7
  6
CONTINUOUS
 10
1.9478990921
 20
203.4664052522
  0
VERTEX
  8
0
 62
7
  6
CONTINUOUS
 10
20.2015441457
 20
203.4871946324
  0
VERTEX
  8
0
 62
7
  6
CONTINUOUS
 10
38.4604365462
 20
203.5057578123
  0
VERTEX
  8
0
 62
7
  6
CONTINUOUS
 10
56.722551175
 20
203.5221080344
  0
VERTEX
  8
0
 62
7
  6
CONTINUOUS
 10
74.9871530283
 20
203.5362610343
  0
VERTEX
  8
0
 62
7
  6
CONTINUOUS
 10
93.2528277419
 20
203.5482328708
  0
VERTEX
  8
0
 62
7
  6
CONTINUOUS
 10
111.5195902935
 20
203.5580358168
  0
VERTEX
  8
0
 62
7
  6
CONTINUOUS
 10
129.7868276466
 20
203.5656853037
  0
VERTEX
  8
0
 62
7
  6
CONTINUOUS
 10
148.0550139562
 20
203.5711879139
  0
VERTEX
  8
0
 62
7
  6
CONTINUOUS
 10
166.3244540786
 20
203.5745553935
  0
VERTEX
  8
0
 62
7
  6
CONTINUOUS
 10
184.5950463776
 20
203.5757876826
  0
VERTEX
  8
0
 62
7
  6
CONTINUOUS
 10
202.8667426259
 20
203.5748907527
  0
VERTEX
  8
0
 62
7
  6
CONTINUOUS
 10
221.1396877231
 20
203.5718582562
  0
VERTEX
  8
0
 62
7
  6
CONTINUOUS
 10
239.41602837
 20
203.5666884552
  0
VERTEX
  8
0
 62
7
  6
CONTINUOUS
 10
257.6897084418
 20
203.5593734914
  0
VERTEX
  8
0
 62
7
  6
CONTINUOUS
 10
275.9544906917
 20
203.549909643
  0
VERTEX
  8
0
 62
7
  6
CONTINUOUS
 10
294.2130716979
 20
203.5382827618
  0
VERTEX
  8
0
 62
7
  6
CONTINUOUS
 10
312.4447943019
 20
203.5245080631
  0
VERTEX
  8
0
 62
7
  6
CONTINUOUS
 10
330.7134806237
 20
203.5084937344
  0
VERTEX
  8
0
 62
7
  6
CONTINUOUS
 10
349.0551889071
 20
203.4902060068
  0
VERTEX
  8
0
 62
7
  6
CONTINUOUS
 10
367.5323120821
 20
203.4694859653
  0
VERTEX
  8
0
 62
7
  6
CONTINUOUS
 10
386.2546476397
 20
203.4461440276
  0
VERTEX
  8
0
 62
7
  6
CONTINUOUS
 10
405.1155517959
 20
203.4202384265
  0
VERTEX
  8
0
 62
7
  6
CONTINUOUS
 10
424.036638762
 20
203.3917635801
  0
VERTEX
  8
0
 62
7
  6
CONTINUOUS
 10
443.0431541901
 20
203.360721349
  0
SEQEND
  0
LINE
  8
0
 62
7
  6
CONTINUOUS
 10
214.0324363359
 20
229.1753094699
 11
214.0226702415
 21
229.2124807131
  0
POLYLINE
  8
0
 62
7
  6
CONTINUOUS
 66
1
 70
0
  0
VERTEX
  8
0
 62
7
  6
CONTINUOUS
 10
212.6975258846
 20
227.0015558188
  0
VERTEX
  8
0
 62
7
  6
CONTINUOUS
 10
222.7823085437
 20
227.0084186943
  0
VERTEX
  8
0
 62
7
  6
CONTINUOUS
 10
241.9885934748
 20
227.0307376007
  0
VERTEX
  8
0
 62
7
  6
CONTINUOUS
 10
261.1940725925
 20
227.0623010449
  0
VERTEX
  8
0
 62
7
  6
CONTINUOUS
 10
280.3992935596
 20
227.1031144428
  0
VERTEX
  8
0
 62
7
  6
CONTINUOUS
 10
299.5984656168
 20
227.153151111
  0
VERTEX
  8
0
 62
7
  6
CONTINUOUS
 10
318.7554021355
 20
227.2122477547
  0
VERTEX
  8
0
 62
7
  6
CONTINUOUS
 10
337.9618383855
 20
227.2808196243
  0
VERTEX
  8
0
 62
7
  6
CONTINUOUS
 10
357.266721744
 20
227.3589580022
  0
VERTEX
  8
0
 62
7
  6
CONTINUOUS
 10
376.7622292596
 20
227.4474714978
  0
VERTEX
  8
0
 62
7
  6
CONTINUOUS
 10
396.6555260322
 20
227.547675195
  0
VERTEX
  8
0
 62
7
  6
CONTINUOUS
 10
416.6505952844
 20
227.6581409522
  0
VERTEX
  8
0
 62
7
  6
CONTINUOUS
 10
436.4921050544
 20
227.7777552669
  0
VERTEX
  8
0
 62
7
  6
CONTINUOUS
 10
456.265165996
 20
227.9068893065
  0
SEQEND
  0
LINE
  8
0
 62
7
  6
CONTINUOUS
 10
477.3633537757
 20
221.1116255396
 11
469.393796191
 21
221.1116255396
  0
LINE
  8
0
 62
7
  6
CONTINUOUS
 10
-105.2979450086
 20
221.1116255396
 11
-97.3283874238
 21
221.1116255396
  0
LINE
  8
0
 62
7
  6
CONTINUOUS
 10
211.532704383
 20
226.7124807131
 11
160.532704384
 21
226.7124807131
  0
POLYLINE
  8
0
 62
7
  6
CONTINUOUS
 66
1
 70
0
  0
VERTEX
  8
0
 62
7
  6
CONTINUOUS
 10
-84.1997106045
 20
227.9068426821
  0
VERTEX
  8
0
 62
7
  6
CONTINUOUS
 10
-65.0662977508
 20
227.7818006649
  0
VERTEX
  8
0
 62
7
  6
CONTINUOUS
 10
-45.9196938229
 20
227.6658787282
  0
VERTEX
  8
0
 62
7
  6
CONTINUOUS
 10
-26.7588729449
 20
227.559063352
  0
VERTEX
  8
0
 62
7
  6
CONTINUOUS
 10
-7.5869127445
 20
227.4613950967
  0
VERTEX
  8
0
 62
7
  6
CONTINUOUS
 10
11.594166789
 20
227.3729049147
  0
VERTEX
  8
0
 62
7
  6
CONTINUOUS
 10
30.7822186151
 20
227.2936081095
  0
VERTEX
  8
0
 62
7
  6
CONTINUOUS
 10
49.9747950481
 20
227.223528599
  0
VERTEX
  8
0
 62
7
  6
CONTINUOUS
 10
69.1707780344
 20
227.1626714916
  0
VERTEX
  8
0
 62
7
  6
CONTINUOUS
 10
88.3682634856
 20
227.1110498316
  0
VERTEX
  8
0
 62
7
  6
CONTINUOUS
 10
107.5671618202
 20
227.068663729
  0
VERTEX
  8
0
 62
7
  6
CONTINUOUS
 10
126.7665892557
 20
227.0355175791
  0
VERTEX
  8
0
 62
7
  6
CONTINUOUS
 10
145.9670243062
 20
227.0116115697
  0
VERTEX
  8
0
 62
7
  6
CONTINUOUS
 10
159.3682347013
 20
227.0013765581
  0
SEQEND
  0
LINE
  8
0
 62
7
  6
CONTINUOUS
 10
456.9396058701
 20
-39.1563677544
 11
459.4318492101
 21
-41.6486110943
  0
LINE
  8
0
 62
7
  6
CONTINUOUS
 10
466.9015533914
 20
-29.1944213126
 11
469.393796191
 21
-31.6866641134
  0
POLYLINE
  8
0
 62
7
  6
CONTINUOUS
 66
1
 70
0
  0
VERTEX
  8
0
 62
7
  6
CONTINUOUS
 10
214.0226702415
 20
229.2124807131
  0
VERTEX
  8
0
 62
7
  6
CONTINUOUS
 10
213.994472917
 20
229.2477946575
  0
VERTEX
  8
0
 62
7
  6
CONTINUOUS
 10
213.9483069573
 20
229.282889608
  0
VERTEX
  8
0
 62
7
  6
CONTINUOUS
 10
213.8840962043
 20
229.3178007985
  0
VERTEX
  8
0
 62
7
  6
CONTINUOUS
 10
213.8020691318
 20
229.3524225272
  0
VERTEX
  8
0
 62
7
  6
CONTINUOUS
 10
213.7023413956
 20
229.3866835942
  0
VERTEX
  8
0
 62
7
  6
CONTINUOUS
 10
213.5851752917
 20
229.4205157286
  0
VERTEX
  8
0
 62
7
  6
CONTINUOUS
 10
213.4507605801
 20
229.4538488949
  0
VERTEX
  8
0
 62
7
  6
CONTINUOUS
 10
213.2994305241
 20
229.4866171862
  0
VERTEX
  8
0
 62
7
  6
CONTINUOUS
 10
213.1314500937
 20
229.5187520272
  0
VERTEX
  8
0
 62
7
  6
CONTINUOUS
 10
212.9472139292
 20
229.5501913872
  0
VERTEX
  8
0
 62
7
  6
CONTINUOUS
 10
212.7470493731
 20
229.5808703679
  0
VERTEX
  8
0
 62
7
  6
CONTINUOUS
 10
212.5314232888
 20
229.610728998
  0
VERTEX
  8
0
 62
7
  6
CONTINUOUS
 10
212.3007424557
 20
229.6397035967
  0
VERTEX
  8
0
 62
7
  6
CONTINUOUS
 10
212.0555144686
 20
229.6677403948
  0
VERTEX
  8
0
 62
7
  6
CONTINUOUS
 10
211.7961874412
 20
229.6947817381
  0
VERTEX
  8
0
 62
7
  6
CONTINUOUS
 10
211.5233465958
 20
229.7207755997
  0
VERTEX
  8
0
 62
7
  6
CONTINUOUS
 10
211.2375266348
 20
229.7456654605
  0
VERTEX
  8
0
 62
7
  6
CONTINUOUS
 10
210.9393272318
 20
229.7694071431
  0
VERTEX
  8
0
 62
7
  6
CONTINUOUS
 10
210.6292987716
 20
229.7919517119
  0
VERTEX
  8
0
 62
7
  6
CONTINUOUS
 10
210.3081238233
 20
229.8132569228
  0
VERTEX
  8
0
 62
7
  6
CONTINUOUS
 10
209.9764443012
 20
229.8332754879
  0
VERTEX
  8
0
 62
7
  6
CONTINUOUS
 10
209.6349325545
 20
229.8519736032
  0
VERTEX
  8
0
 62
7
  6
CONTINUOUS
 10
209.2842235581
 20
229.8693120361
  0
VERTEX
  8
0
 62
7
  6
CONTINUOUS
 10
208.9250713486
 20
229.8852597843
  0
VERTEX
  8
0
 62
7
  6
CONTINUOUS
 10
208.5581989574
 20
229.8997804132
  0
VERTEX
  8
0
 62
7
  6
CONTINUOUS
 10
208.1843343744
 20
229.9128509866
  0
VERTEX
  8
0
 62
7
  6
CONTINUOUS
 10
207.8041814155
 20
229.9244426945
  0
VERTEX
  8
0
 62
7
  6
CONTINUOUS
 10
207.0281708667
 20
229.9431085533
  0
SEQEND
  0
LINE
  8
0
 62
7
  6
CONTINUOUS
 10
463.9856216912
 20
216.3359476199
 11
464.5930806141
 21
216.7380064493
  0
LINE
  8
0
 62
7
  6
CONTINUOUS
 10
463.2808131143
 20
215.8759893416
 11
463.9856216912
 21
216.3359476199
  0
LINE
  8
0
 62
7
  6
CONTINUOUS
 10
462.4779860123
 20
215.3578821902
 11
463.2808131143
 21
215.8759893416
  0
LINE
  8
0
 62
7
  6
CONTINUOUS
 10
461.5766051306
 20
214.7814478696
 11
462.4779860123
 21
215.3578821902
  0
LINE
  8
0
 62
7
  6
CONTINUOUS
 10
460.0399550426
 20
213.80792961
 11
461.5766051306
 21
214.7814478696
  0
LINE
  8
0
 62
7
  6
CONTINUOUS
 10
458.2845271337
 20
212.7059151236
 11
460.0399550426
 21
213.80792961
  0
LINE
  8
0
 62
7
  6
CONTINUOUS
 10
456.3174970086
 20
211.4804023097
 11
458.2845271337
 21
212.7059151236
  0
LINE
  8
0
 62
7
  6
CONTINUOUS
 10
454.151276179
 20
210.1394962431
 11
456.3174970086
 21
211.4804023097
  0
LINE
  8
0
 62
7
  6
CONTINUOUS
 10
451.8045738674
 20
208.6951660691
 11
454.151276179
 21
210.1394962431
  0
LINE
  8
0
 62
7
  6
CONTINUOUS
 10
449.302594254
 20
207.1631975475
 11
451.8045738674
 21
208.6951660691
  0
LINE
  8
0
 62
7
  6
CONTINUOUS
 10
446.6772320441
 20
205.5634127854
 11
449.302594254
 21
207.1631975475
  0
POLYLINE
  8
0
 62
7
  6
CONTINUOUS
 66
1
 70
0
  0
VERTEX
  8
0
 62
7
  6
CONTINUOUS
 10
443.043153229
 20
203.3607445752
  0
VERTEX
  8
0
 62
7
  6
CONTINUOUS
 10
443.9636732642
 20
203.9174179558
  0
VERTEX
  8
0
 62
7
  6
CONTINUOUS
 10
446.6772320441
 20
205.5634127854
  0
SEQEND
  0
POLYLINE
  8
0
 62
7
  6
CONTINUOUS
 66
1
 70
0
  0
VERTEX
  8
0
 62
7
  6
CONTINUOUS
 10
-84.1694896681
 20
227.746187268
  0
VERTEX
  8
0
 62
7
  6
CONTINUOUS
 10
-84.6246623254
 20
227.7282923388
  0
VERTEX
  8
0
 62
7
  6
CONTINUOUS
 10
-85.0787940204
 20
227.6897587013
  0
VERTEX
  8
0
 62
7
  6
CONTINUOUS
 10
-85.5309361159
 20
227.6306668487
  0
VERTEX
  8
0
 62
7
  6
CONTINUOUS
 10
-85.9801441305
 20
227.5511402184
  0
VERTEX
  8
0
 62
7
  6
CONTINUOUS
 10
-86.425479712
 20
227.4513449339
  0
VERTEX
  8
0
 62
7
  6
CONTINUOUS
 10
-86.8660125972
 20
227.331489458
  0
VERTEX
  8
0
 62
7
  6
CONTINUOUS
 10
-87.3008225553
 20
227.1918241576
  0
VERTEX
  8
0
 62
7
  6
CONTINUOUS
 10
-87.7290013104
 20
227.03264078
  0
VERTEX
  8
0
 62
7
  6
CONTINUOUS
 10
-88.1496544382
 20
226.8542718443
  0
VERTEX
  8
0
 62
7
  6
CONTINUOUS
 10
-88.5619032351
 20
226.6570899461
  0
VERTEX
  8
0
 62
7
  6
CONTINUOUS
 10
-88.964886553
 20
226.4415069796
  0
VERTEX
  8
0
 62
7
  6
CONTINUOUS
 10
-89.3577625988
 20
226.207973277
  0
VERTEX
  8
0
 62
7
  6
CONTINUOUS
 10
-89.7397106924
 20
225.956976668
  0
VERTEX
  8
0
 62
7
  6
CONTINUOUS
 10
-90.1099329813
 20
225.6890414604
  0
VERTEX
  8
0
 62
7
  6
CONTINUOUS
 10
-90.4676561068
 20
225.4047273453
  0
VERTEX
  8
0
 62
7
  6
CONTINUOUS
 10
-90.8121328201
 20
225.1046282276
  0
VERTEX
  8
0
 62
7
  6
CONTINUOUS
 10
-91.1426435427
 20
224.7893709856
  0
VERTEX
  8
0
 62
7
  6
CONTINUOUS
 10
-91.4584978699
 20
224.4596141614
  0
VERTEX
  8
0
 62
7
  6
CONTINUOUS
 10
-91.7590360127
 20
224.1160465855
  0
VERTEX
  8
0
 62
7
  6
CONTINUOUS
 10
-92.0436301761
 20
223.7593859375
  0
VERTEX
  8
0
 62
7
  6
CONTINUOUS
 10
-92.3116858707
 20
223.3903772472
  0
VERTEX
  8
0
 62
7
  6
CONTINUOUS
 10
-92.5626431543
 20
223.0097913383
  0
VERTEX
  8
0
 62
7
  6
CONTINUOUS
 10
-92.7959778018
 20
222.6184232181
  0
VERTEX
  8
0
 62
7
  6
CONTINUOUS
 10
-93.0112023997
 20
222.217090417
  0
VERTEX
  8
0
 62
7
  6
CONTINUOUS
 10
-93.2078673652
 20
221.8066312805
  0
VERTEX
  8
0
 62
7
  6
CONTINUOUS
 10
-93.3855618843
 20
221.3879032181
  0
VERTEX
  8
0
 62
7
  6
CONTINUOUS
 10
-93.5439147709
 20
220.9617809123
  0
VERTEX
  8
0
 62
7
  6
CONTINUOUS
 10
-93.6825952413
 20
220.5291544916
  0
VERTEX
  8
0
 62
7
  6
CONTINUOUS
 10
-93.8013136058
 20
220.0909276706
  0
VERTEX
  8
0
 62
7
  6
CONTINUOUS
 10
-93.8998218737
 20
219.6480158627
  0
VERTEX
  8
0
 62
7
  6
CONTINUOUS
 10
-93.977914271
 20
219.201344268
  0
VERTEX
  8
0
 62
7
  6
CONTINUOUS
 10
-94.0354276706
 20
218.7518459401
  0
VERTEX
  8
0
 62
7
  6
CONTINUOUS
 10
-94.072241933
 20
218.3004598373
  0
VERTEX
  8
0
 62
7
  6
CONTINUOUS
 10
-94.0882801571
 20
217.8481288616
  0
SEQEND
  0
POLYLINE
  8
0
 62
7
  6
CONTINUOUS
 66
1
 70
0
  0
VERTEX
  8
0
 62
7
  6
CONTINUOUS
 10
163.8810743927
 20
229.9128509866
  0
VERTEX
  8
0
 62
7
  6
CONTINUOUS
 10
163.5072098098
 20
229.8997804132
  0
VERTEX
  8
0
 62
7
  6
CONTINUOUS
 10
163.1403374185
 20
229.8852597843
  0
VERTEX
  8
0
 62
7
  6
CONTINUOUS
 10
162.781185209
 20
229.8693120361
  0
VERTEX
  8
0
 62
7
  6
CONTINUOUS
 10
162.4304762126
 20
229.8519736032
  0
VERTEX
  8
0
 62
7
  6
CONTINUOUS
 10
162.0889644659
 20
229.8332754879
  0
VERTEX
  8
0
 62
7
  6
CONTINUOUS
 10
161.7572849438
 20
229.8132569228
  0
VERTEX
  8
0
 62
7
  6
CONTINUOUS
 10
161.4361099955
 20
229.7919517119
  0
VERTEX
  8
0
 62
7
  6
CONTINUOUS
 10
161.1260815353
 20
229.7694071431
  0
VERTEX
  8
0
 62
7
  6
CONTINUOUS
 10
160.8278821324
 20
229.7456654605
  0
VERTEX
  8
0
 62
7
  6
CONTINUOUS
 10
160.5420621713
 20
229.7207755997
  0
VERTEX
  8
0
 62
7
  6
CONTINUOUS
 10
160.269221326
 20
229.6947817381
  0
VERTEX
  8
0
 62
7
  6
CONTINUOUS
 10
160.0098942986
 20
229.6677403948
  0
VERTEX
  8
0
 62
7
  6
CONTINUOUS
 10
159.7646663114
 20
229.6397035967
  0
VERTEX
  8
0
 62
7
  6
CONTINUOUS
 10
159.5339854784
 20
229.610728998
  0
VERTEX
  8
0
 62
7
  6
CONTINUOUS
 10
159.318359394
 20
229.5808703679
  0
VERTEX
  8
0
 62
7
  6
CONTINUOUS
 10
159.1181948379
 20
229.5501913872
  0
VERTEX
  8
0
 62
7
  6
CONTINUOUS
 10
158.9339586734
 20
229.5187520272
  0
VERTEX
  8
0
 62
7
  6
CONTINUOUS
 10
158.765978243
 20
229.4866171862
  0
VERTEX
  8
0
 62
7
  6
CONTINUOUS
 10
158.6146481871
 20
229.4538488949
  0
VERTEX
  8
0
 62
7
  6
CONTINUOUS
 10
158.4802334755
 20
229.4205157286
  0
VERTEX
  8
0
 62
7
  6
CONTINUOUS
 10
158.3630673715
 20
229.3866835942
  0
VERTEX
  8
0
 62
7
  6
CONTINUOUS
 10
158.2633396353
 20
229.3524225272
  0
VERTEX
  8
0
 62
7
  6
CONTINUOUS
 10
158.1813125629
 20
229.3178007984
  0
VERTEX
  8
0
 62
7
  6
CONTINUOUS
 10
158.1171018099
 20
229.282889608
  0
VERTEX
  8
0
 62
7
  6
CONTINUOUS
 10
158.0709358501
 20
229.2477946575
  0
VERTEX
  8
0
 62
7
  6
CONTINUOUS
 10
158.0427385257
 20
229.2124807131
  0
SEQEND
  0
POLYLINE
  8
0
 62
7
  6
CONTINUOUS
 66
1
 70
0
  0
VERTEX
  8
0
 62
7
  6
CONTINUOUS
 10
-84.1997120625
 20
227.90684414
  0
VERTEX
  8
0
 62
7
  6
CONTINUOUS
 10
-84.6321585327
 20
227.8941691244
  0
VERTEX
  8
0
 62
7
  6
CONTINUOUS
 10
-85.0637897576
 20
227.8627378061
  0
VERTEX
  8
0
 62
7
  6
CONTINUOUS
 10
-85.4937920323
 20
227.8126094386
  0
VERTEX
  8
0
 62
7
  6
CONTINUOUS
 10
-85.9213547091
 20
227.7438785251
  0
VERTEX
  8
0
 62
7
  6
CONTINUOUS
 10
-86.3456717232
 20
227.6566746436
  0
VERTEX
  8
0
 62
7
  6
CONTINUOUS
 10
-86.7659432086
 20
227.5511621801
  0
VERTEX
  8
0
 62
7
  6
CONTINUOUS
 10
-87.1813769522
 20
227.4275400176
  0
VERTEX
  8
0
 62
7
  6
CONTINUOUS
 10
-87.5911896662
 20
227.2860412357
  0
VERTEX
  8
0
 62
7
  6
CONTINUOUS
 10
-87.9946086532
 20
227.1269326396
  0
VERTEX
  8
0
 62
7
  6
CONTINUOUS
 10
-88.3908735106
 20
226.9505141438
  0
VERTEX
  8
0
 62
7
  6
CONTINUOUS
 10
-88.779237295
 20
226.7571182854
  0
VERTEX
  8
0
 62
7
  6
CONTINUOUS
 10
-89.1589678039
 20
226.5471096766
  0
VERTEX
  8
0
 62
7
  6
CONTINUOUS
 10
-89.5293491389
 20
226.3208842425
  0
VERTEX
  8
0
 62
7
  6
CONTINUOUS
 10
-89.8896830762
 20
226.078868453
  0
VERTEX
  8
0
 62
7
  6
CONTINUOUS
 10
-90.2392903232
 20
225.8215185502
  0
VERTEX
  8
0
 62
7
  6
CONTINUOUS
 10
-90.5775117985
 20
225.5493196905
  0
VERTEX
  8
0
 62
7
  6
CONTINUOUS
 10
-90.9037098872
 20
225.2627850227
  0
VERTEX
  8
0
 62
7
  6
CONTINUOUS
 10
-91.2172696433
 20
224.9624547197
  0
VERTEX
  8
0
 62
7
  6
CONTINUOUS
 10
-91.5175999461
 20
224.648894962
  0
VERTEX
  8
0
 62
7
  6
CONTINUOUS
 10
-91.8041346133
 20
224.3226968719
  0
VERTEX
  8
0
 62
7
  6
CONTINUOUS
 10
-92.0763334705
 20
223.9844753979
  0
VERTEX
  8
0
 62
7
  6
CONTINUOUS
 10
-92.3336833707
 20
223.6348681526
  0
VERTEX
  8
0
 62
7
  6
CONTINUOUS
 10
-92.5756991601
 20
223.2745342132
  0
VERTEX
  8
0
 62
7
  6
CONTINUOUS
 10
-92.8019245919
 20
222.9041528799
  0
VERTEX
  8
0
 62
7
  6
CONTINUOUS
 10
-93.0119331825
 20
222.5244224035
  0
VERTEX
  8
0
 62
7
  6
CONTINUOUS
 10
-93.2053290403
 20
222.1360586218
  0
VERTEX
  8
0
 62
7
  6
CONTINUOUS
 10
-93.381747597
 20
221.7397936211
  0
VERTEX
  8
0
 62
7
  6
CONTINUOUS
 10
-93.5408562292
 20
221.3363745191
  0
VERTEX
  8
0
 62
7
  6
CONTINUOUS
 10
-93.6823549546
 20
220.9265619441
  0
VERTEX
  8
0
 62
7
  6
CONTINUOUS
 10
-93.8059770668
 20
220.511128366
  0
VERTEX
  8
0
 62
7
  6
CONTINUOUS
 10
-93.9114895386
 20
220.0908568563
  0
VERTEX
  8
0
 62
7
  6
CONTINUOUS
 10
-93.9986934333
 20
219.6665397793
  0
VERTEX
  8
0
 62
7
  6
CONTINUOUS
 10
-94.0674243456
 20
219.2389771027
  0
VERTEX
  8
0
 62
7
  6
CONTINUOUS
 10
-94.1175527107
 20
218.8089748409
  0
VERTEX
  8
0
 62
7
  6
CONTINUOUS
 10
-94.1489840281
 20
218.3773436222
  0
VERTEX
  8
0
 62
7
  6
CONTINUOUS
 10
-94.1616590434
 20
217.9448971579
  0
SEQEND
  0
LINE
  8
0
 62
7
  6
CONTINUOUS
 10
164.646873132
 20
229.9345367242
 11
163.8810743927
 21
229.9128509866
  0
LINE
  8
0
 62
7
  6
CONTINUOUS
 10
165.4315526782
 20
229.9501465019
 11
164.646873132
 21
229.9345367242
  0
LINE
  8
0
 62
7
  6
CONTINUOUS
 10
166.2289514925
 20
229.9595611949
 11
165.4315526782
 21
229.9501465019
  0
LINE
  8
0
 62
7
  6
CONTINUOUS
 10
167.0327043836
 20
229.9627074426
 11
166.2289514925
 21
229.9595611949
  0
LINE
  8
0
 62
7
  6
CONTINUOUS
 10
214.0226702415
 20
229.2124807131
 11
158.0427385257
 21
229.2124807131
  0
LINE
  8
0
 62
7
  6
CONTINUOUS
 10
-87.3664404429
 20
231.0735725205
 11
459.4318492101
 21
231.0735725205
  0
LINE
  8
0
 62
7
  6
CONTINUOUS
 10
-87.3664404429
 20
239.0431301052
 11
459.4318492101
 21
239.0431301052
  0
LINE
  8
0
 62
7
  6
CONTINUOUS
 10
205.4353750887
 20
229.9619178744
 11
167.0327043836
 21
229.9627074426
  0
LINE
  8
0
 62
7
  6
CONTINUOUS
 10
206.2363487659
 20
229.955632819
 11
205.4353750887
 21
229.9619178744
  0
POLYLINE
  8
0
 62
7
  6
CONTINUOUS
 66
1
 70
0
  0
VERTEX
  8
0
 62
7
  6
CONTINUOUS
 10
459.4318492101
 20
231.0735725205
  0
VERTEX
  8
0
 62
7
  6
CONTINUOUS
 10
459.8111149618
 20
231.0687199893
  0
VERTEX
  8
0
 62
7
  6
CONTINUOUS
 10
460.1876769603
 20
231.049750085
  0
VERTEX
  8
0
 62
7
  6
CONTINUOUS
 10
460.5604166289
 20
231.0169823014
  0
VERTEX
  8
0
 62
7
  6
CONTINUOUS
 10
460.9306788994
 20
230.9704809538
  0
VERTEX
  8
0
 62
7
  6
CONTINUOUS
 10
461.2999453887
 20
230.910032822
  0
VERTEX
  8
0
 62
7
  6
CONTINUOUS
 10
461.6666147486
 20
230.8358179758
  0
VERTEX
  8
0
 62
7
  6
CONTINUOUS
 10
462.0297543212
 20
230.7480279648
  0
VERTEX
  8
0
 62
7
  6
CONTINUOUS
 10
462.3889040029
 20
230.6468030577
  0
VERTEX
  8
0
 62
7
  6
CONTINUOUS
 10
462.7434432245
 20
230.5323514018
  0
VERTEX
  8
0
 62
7
  6
CONTINUOUS
 10
463.0929793546
 20
230.4048378914
  0
VERTEX
  8
0
 62
7
  6
CONTINUOUS
 10
463.4370356772
 20
230.2644691391
  0
VERTEX
  8
0
 62
7
  6
CONTINUOUS
 10
463.7752846589
 20
230.1114041967
  0
VERTEX
  8
0
 62
7
  6
CONTINUOUS
 10
464.1073967949
 20
229.945799508
  0
VERTEX
  8
0
 62
7
  6
CONTINUOUS
 10
464.4329141477
 20
229.7678826026
  0
VERTEX
  8
0
 62
7
  6
CONTINUOUS
 10
464.7514459845
 20
229.5778608874
  0
VERTEX
  8
0
 62
7
  6
CONTINUOUS
 10
465.0624989407
 20
229.3760237972
  0
VERTEX
  8
0
 62
7
  6
CONTINUOUS
 10
465.3656128524
 20
229.1626698079
  0
VERTEX
  8
0
 62
7
  6
CONTINUOUS
 10
465.6603706988
 20
228.9380974856
  0
VERTEX
  8
0
 62
7
  6
CONTINUOUS
 10
465.9463440781
 20
228.7026390523
  0
VERTEX
  8
0
 62
7
  6
CONTINUOUS
 10
466.2231814454
 20
228.4565907283
  0
VERTEX
  8
0
 62
7
  6
CONTINUOUS
 10
466.4905238628
 20
228.200271037
  0
VERTEX
  8
0
 62
7
  6
CONTINUOUS
 10
466.7480226019
 20
227.9340111438
  0
VERTEX
  8
0
 62
7
  6
CONTINUOUS
 10
466.9953521782
 20
227.6581363351
  0
VERTEX
  8
0
 62
7
  6
CONTINUOUS
 10
467.2321445716
 20
227.3730464218
  0
VERTEX
  8
0
 62
7
  6
CONTINUOUS
 10
467.4580662194
 20
227.0791327958
  0
VERTEX
  8
0
 62
7
  6
CONTINUOUS
 10
467.6727808144
 20
226.7768294417
  0
VERTEX
  8
0
 62
7
  6
CONTINUOUS
 10
467.8759574373
 20
226.4666057967
  0
VERTEX
  8
0
 62
7
  6
CONTINUOUS
 10
468.0673584708
 20
226.1488304987
  0
VERTEX
  8
0
 62
7
  6
CONTINUOUS
 10
468.2467219877
 20
225.8239342092
  0
VERTEX
  8
0
 62
7
  6
CONTINUOUS
 10
468.4138571801
 20
225.4922434934
  0
VERTEX
  8
0
 62
7
  6
CONTINUOUS
 10
468.5685671171
 20
225.1540960305
  0
VERTEX
  8
0
 62
7
  6
CONTINUOUS
 10
468.7106261745
 20
224.8099070459
  0
VERTEX
  8
0
 62
7
  6
CONTINUOUS
 10
468.8398721826
 20
224.4599457633
  0
VERTEX
  8
0
 62
7
  6
CONTINUOUS
 10
468.9559664553
 20
224.1050259772
  0
VERTEX
  8
0
 62
7
  6
CONTINUOUS
 10
469.0585114743
 20
223.7464648229
  0
VERTEX
  8
0
 62
7
  6
CONTINUOUS
 10
469.1478124762
 20
223.3831319928
  0
VERTEX
  8
0
 62
7
  6
CONTINUOUS
 10
469.2239349279
 20
223.013935439
  0
VERTEX
  8
0
 62
7
  6
CONTINUOUS
 10
469.2864020407
 20
222.6399109816
  0
VERTEX
  8
0
 62
7
  6
CONTINUOUS
 10
469.3349325444
 20
222.2612666772
  0
VERTEX
  8
0
 62
7
  6
CONTINUOUS
 10
469.3691317507
 20
221.8795197452
  0
VERTEX
  8
0
 62
7
  6
CONTINUOUS
 10
469.3887745072
 20
221.4962392797
  0
VERTEX
  8
0
 62
7
  6
CONTINUOUS
 10
469.393796191
 20
221.1116255396
  0
SEQEND
  0
LINE
  8
0
 62
7
  6
CONTINUOUS
 10
207.0281708667
 20
229.9431085533
 11
206.2363487659
 21
229.955632819
  0
POLYLINE
  8
0
 62
7
  6
CONTINUOUS
 66
1
 70
0
  0
VERTEX
  8
0
 62
7
  6
CONTINUOUS
 10
459.4318492101
 20
239.0431301052
  0
VERTEX
  8
0
 62
7
  6
CONTINUOUS
 10
460.1109626714
 20
239.0301476161
  0
VERTEX
  8
0
 62
7
  6
CONTINUOUS
 10
460.7844874721
 20
238.9923974348
  0
VERTEX
  8
0
 62
7
  6
CONTINUOUS
 10
461.4517794842
 20
238.9298776242
  0
VERTEX
  8
0
 62
7
  6
CONTINUOUS
 10
462.114771092
 20
238.8425939956
  0
VERTEX
  8
0
 62
7
  6
CONTINUOUS
 10
462.7761313051
 20
238.7304313591
  0
VERTEX
  8
0
 62
7
  6
CONTINUOUS
 10
463.43300612
 20
238.5937507818
  0
VERTEX
  8
0
 62
7
  6
CONTINUOUS
 10
464.0836973529
 20
238.4327554849
  0
VERTEX
  8
0
 62
7
  6
CONTINUOUS
 10
464.7274065547
 20
238.2478038166
  0
VERTEX
  8
0
 62
7
  6
CONTINUOUS
 10
465.362997328
 20
238.0392070323
  0
VERTEX
  8
0
 62
7
  6
CONTINUOUS
 10
465.9897853333
 20
237.8073096312
  0
VERTEX
  8
0
 62
7
  6
CONTINUOUS
 10
466.6069004159
 20
237.5524595552
  0
VERTEX
  8
0
 62
7
  6
CONTINUOUS
 10
467.2137636236
 20
237.274957731
  0
VERTEX
  8
0
 62
7
  6
CONTINUOUS
 10
467.8097752414
 20
236.9750751408
  0
VERTEX
  8
0
 62
7
  6
CONTINUOUS
 10
468.3941274032
 20
236.6532495589
  0
VERTEX
  8
0
 62
7
  6
CONTINUOUS
 10
468.9660981173
 20
236.3098188203
  0
VERTEX
  8
0
 62
7
  6
CONTINUOUS
 10
469.5248300463
 20
235.9453537248
  0
VERTEX
  8
0
 62
7
  6
CONTINUOUS
 10
470.0694640089
 20
235.5603427388
  0
VERTEX
  8
0
 62
7
  6
CONTINUOUS
 10
470.5992835449
 20
235.1553706976
  0
VERTEX
  8
0
 62
7
  6
CONTINUOUS
 10
471.1134873901
 20
234.7309963397
  0
VERTEX
  8
0
 62
7
  6
CONTINUOUS
 10
471.6114707758
 20
234.2877864214
  0
VERTEX
  8
0
 62
7
  6
CONTINUOUS
 10
472.0925621514
 20
233.8262856637
  0
VERTEX
  8
0
 62
7
  6
CONTINUOUS
 10
472.5561605987
 20
233.3471189104
  0
VERTEX
  8
0
 62
7
  6
CONTINUOUS
 10
473.0016497346
 20
232.8508411781
  0
VERTEX
  8
0
 62
7
  6
CONTINUOUS
 10
473.4284044033
 20
232.3382066701
  0
VERTEX
  8
0
 62
7
  6
CONTINUOUS
 10
473.8357802092
 20
231.8098821898
  0
VERTEX
  8
0
 62
7
  6
CONTINUOUS
 10
474.2232184884
 20
231.2666849536
  0
VERTEX
  8
0
 62
7
  6
CONTINUOUS
 10
474.5900771726
 20
230.7094258539
  0
VERTEX
  8
0
 62
7
  6
CONTINUOUS
 10
474.9359620792
 20
230.1387906656
  0
VERTEX
  8
0
 62
7
  6
CONTINUOUS
 10
475.2603754856
 20
229.5555364217
  0
VERTEX
  8
0
 62
7
  6
CONTINUOUS
 10
475.5629859426
 20
228.9602602399
  0
VERTEX
  8
0
 62
7
  6
CONTINUOUS
 10
475.8434260662
 20
228.3535582325
  0
VERTEX
  8
0
 62
7
  6
CONTINUOUS
 10
476.1013059369
 20
227.7361904495
  0
VERTEX
  8
0
 62
7
  6
CONTINUOUS
 10
476.3362838364
 20
227.1086154945
  0
VERTEX
  8
0
 62
7
  6
CONTINUOUS
 10
476.5478477775
 20
226.472333819
  0
VERTEX
  8
0
 62
7
  6
CONTINUOUS
 10
476.7352641122
 20
225.8296880201
  0
VERTEX
  8
0
 62
7
  6
CONTINUOUS
 10
476.898856104
 20
225.1786102639
  0
VERTEX
  8
0
 62
7
  6
CONTINUOUS
 10
477.039006304
 20
224.517186082
  0
VERTEX
  8
0
 62
7
  6
CONTINUOUS
 10
477.1548032008
 20
223.8472979751
  0
VERTEX
  8
0
 62
7
  6
CONTINUOUS
 10
477.245617802
 20
223.1692633224
  0
VERTEX
  8
0
 62
7
  6
CONTINUOUS
 10
477.3109851005
 20
222.4858630205
  0
VERTEX
  8
0
 62
7
  6
CONTINUOUS
 10
477.3501460912
 20
221.8003445959
  0
VERTEX
  8
0
 62
7
  6
CONTINUOUS
 10
477.3633537757
 20
221.1116255396
  0
SEQEND
  0
POLYLINE
  8
0
 62
7
  6
CONTINUOUS
 66
1
 70
0
  0
VERTEX
  8
0
 62
7
  6
CONTINUOUS
 10
464.5930806141
 20
216.7380064493
  0
VERTEX
  8
0
 62
7
  6
CONTINUOUS
 10
464.8606184785
 20
216.9174814911
  0
VERTEX
  8
0
 62
7
  6
CONTINUOUS
 10
465.1041174413
 20
217.0825701127
  0
VERTEX
  8
0
 62
7
  6
CONTINUOUS
 10
465.3242177006
 20
217.233795644
  0
VERTEX
  8
0
 62
7
  6
CONTINUOUS
 10
465.5214347344
 20
217.3714285984
  0
VERTEX
  8
0
 62
7
  6
CONTINUOUS
 10
465.6952847248
 20
217.4951065818
  0
VERTEX
  8
0
 62
7
  6
CONTINUOUS
 10
465.8455989984
 20
217.6047962665
  0
VERTEX
  8
0
 62
7
  6
CONTINUOUS
 10
465.9721583478
 20
217.7002017282
  0
VERTEX
  8
0
 62
7
  6
CONTINUOUS
 10
466.0748157964
 20
217.7815096055
  0
VERTEX
  8
0
 62
7
  6
CONTINUOUS
 10
466.1536892672
 20
217.8481294332
  0
SEQEND
  0
LINE
  8
0
 62
7
  6
CONTINUOUS
 10
456.265165996
 20
227.9068893065
 11
459.4318492101
 21
231.0735725205
  0
POLYLINE
  8
0
 62
7
  6
CONTINUOUS
 66
1
 70
0
  0
VERTEX
  8
0
 62
7
  6
CONTINUOUS
 10
466.8263467618
 20
-29.0951662944
  0
VERTEX
  8
0
 62
7
  6
CONTINUOUS
 10
466.8388463812
 20
-29.1150132161
  0
VERTEX
  8
0
 62
7
  6
CONTINUOUS
 10
466.8513601469
 20
-29.1335386776
  0
VERTEX
  8
0
 62
7
  6
CONTINUOUS
 10
466.8638882639
 20
-29.150742967
  0
VERTEX
  8
0
 62
7
  6
CONTINUOUS
 10
466.876430117
 20
-29.1666252201
  0
VERTEX
  8
0
 62
7
  6
CONTINUOUS
 10
466.8889850912
 20
-29.1811845726
  0
VERTEX
  8
0
 62
7
  6
CONTINUOUS
 10
466.9015533914
 20
-29.1944213126
  0
SEQEND
  0
POLYLINE
  8
0
 62
7
  6
CONTINUOUS
 66
1
 70
0
  0
VERTEX
  8
0
 62
7
  6
CONTINUOUS
 10
444.9102154958
 20
-15.8488715411
  0
VERTEX
  8
0
 62
7
  6
CONTINUOUS
 10
445.472671487
 20
-16.7986031063
  0
VERTEX
  8
0
 62
7
  6
CONTINUOUS
 10
446.0222512967
 20
-17.7315332743
  0
VERTEX
  8
0
 62
7
  6
CONTINUOUS
 10
446.5575038926
 20
-18.6450140735
  0
VERTEX
  8
0
 62
7
  6
CONTINUOUS
 10
447.0821115881
 20
-19.5451983571
  0
VERTEX
  8
0
 62
7
  6
CONTINUOUS
 10
447.5997811121
 20
-20.4384366822
  0
VERTEX
  8
0
 62
7
  6
CONTINUOUS
 10
448.1081047189
 20
-21.3205644843
  0
VERTEX
  8
0
 62
7
  6
CONTINUOUS
 10
448.6062293124
 20
-22.1900611737
  0
VERTEX
  8
0
 62
7
  6
CONTINUOUS
 10
449.0934480916
 20
-23.0456736484
  0
VERTEX
  8
0
 62
7
  6
CONTINUOUS
 10
449.5690250666
 20
-23.8860788158
  0
VERTEX
  8
0
 62
7
  6
CONTINUOUS
 10
450.0323461804
 20
-24.7101385185
  0
VERTEX
  8
0
 62
7
  6
CONTINUOUS
 10
450.4827827009
 20
-25.516675188
  0
VERTEX
  8
0
 62
7
  6
CONTINUOUS
 10
450.9198312469
 20
-26.3047262168
  0
VERTEX
  8
0
 62
7
  6
CONTINUOUS
 10
451.342970973
 20
-27.0732820976
  0
VERTEX
  8
0
 62
7
  6
CONTINUOUS
 10
451.7518079903
 20
-27.8215472609
  0
VERTEX
  8
0
 62
7
  6
CONTINUOUS
 10
452.1459309868
 20
-28.5486812257
  0
VERTEX
  8
0
 62
7
  6
CONTINUOUS
 10
452.5250514113
 20
-29.2540568911
  0
VERTEX
  8
0
 62
7
  6
CONTINUOUS
 10
452.8888641969
 20
-29.9370044434
  0
VERTEX
  8
0
 62
7
  6
CONTINUOUS
 10
453.2371763984
 20
-30.5970516279
  0
VERTEX
  8
0
 62
7
  6
CONTINUOUS
 10
453.5697818928
 20
-31.2336910198
  0
VERTEX
  8
0
 62
7
  6
CONTINUOUS
 10
453.88656901
 20
-31.8465844181
  0
VERTEX
  8
0
 62
7
  6
CONTINUOUS
 10
454.1874143808
 20
-32.4353622023
  0
VERTEX
  8
0
 62
7
  6
CONTINUOUS
 10
454.4722841719
 20
-32.9998192992
  0
VERTEX
  8
0
 62
7
  6
CONTINUOUS
 10
454.7411356282
 20
-33.5397265696
  0
VERTEX
  8
0
 62
7
  6
CONTINUOUS
 10
454.9939859743
 20
-34.0549659432
  0
VERTEX
  8
0
 62
7
  6
CONTINUOUS
 10
455.2308408227
 20
-34.5453901281
  0
VERTEX
  8
0
 62
7
  6
CONTINUOUS
 10
455.4517892278
 20
-35.011015773
  0
VERTEX
  8
0
 62
7
  6
CONTINUOUS
 10
455.6569095967
 20
-35.4518371415
  0
VERTEX
  8
0
 62
7
  6
CONTINUOUS
 10
455.8462951254
 20
-35.8678741726
  0
VERTEX
  8
0
 62
7
  6
CONTINUOUS
 10
456.0200215105
 20
-36.2591055474
  0
VERTEX
  8
0
 62
7
  6
CONTINUOUS
 10
456.1782723321
 20
-36.6257455035
  0
VERTEX
  8
0
 62
7
  6
CONTINUOUS
 10
456.3212467681
 20
-36.9680658246
  0
VERTEX
  8
0
 62
7
  6
CONTINUOUS
 10
456.4489310623
 20
-37.2858254596
  0
VERTEX
  8
0
 62
7
  6
CONTINUOUS
 10
456.5610357102
 20
-37.5779888444
  0
VERTEX
  8
0
 62
7
  6
CONTINUOUS
 10
456.6587975899
 20
-37.8475488608
  0
VERTEX
  8
0
 62
7
  6
CONTINUOUS
 10
456.7428509274
 20
-38.0965073395
  0
VERTEX
  8
0
 62
7
  6
CONTINUOUS
 10
456.8125305008
 20
-38.3234292739
  0
VERTEX
  8
0
 62
7
  6
CONTINUOUS
 10
456.8675365341
 20
-38.5280423185
  0
VERTEX
  8
0
 62
7
  6
CONTINUOUS
 10
456.907154042
 20
-38.7084109404
  0
VERTEX
  8
0
 62
7
  6
CONTINUOUS
 10
456.9310213967
 20
-38.8632073311
  0
VERTEX
  8
0
 62
7
  6
CONTINUOUS
 10
456.9391280128
 20
-38.9923981521
  0
SEQEND
  0
LINE
  8
0
 62
7
  6
CONTINUOUS
 10
466.2270688357
 20
217.9448981821
 11
469.393796191
 21
221.1116255396
  0
LINE
  8
0
 62
7
  6
CONTINUOUS
 10
449.6152205449
 20
214.669193948
 11
448.7119159529
 21
213.0752449122
  0
LINE
  8
0
 62
7
  6
CONTINUOUS
 10
448.7119159529
 20
213.0752449122
 11
447.7613291228
 21
211.4138199511
  0
LINE
  8
0
 62
7
  6
CONTINUOUS
 10
447.7613291228
 20
211.4138199511
 11
446.7683398181
 21
209.6938051156
  0
LINE
  8
0
 62
7
  6
CONTINUOUS
 10
446.7683398181
 20
209.6938051156
 11
445.7386711784
 21
207.9253673022
  0
LINE
  8
0
 62
7
  6
CONTINUOUS
 10
445.7386711784
 20
207.9253673022
 11
444.6788568591
 21
206.1199382646
  0
POLYLINE
  8
0
 62
7
  6
CONTINUOUS
 66
1
 70
0
  0
VERTEX
  8
0
 62
7
  6
CONTINUOUS
 10
444.6788568591
 20
206.1199382646
  0
VERTEX
  8
0
 62
7
  6
CONTINUOUS
 10
443.5940598021
 20
204.2864561426
  0
VERTEX
  8
0
 62
7
  6
CONTINUOUS
 10
443.043153229
 20
203.3607445752
  0
SEQEND
  0
LINE
  8
0
 62
7
  6
CONTINUOUS
 10
451.6419136099
 20
218.3121869153
 11
450.8728588318
 21
216.9173570514
  0
POLYLINE
  8
0
 62
7
  6
CONTINUOUS
 66
1
 70
0
  0
VERTEX
  8
0
 62
7
  6
CONTINUOUS
 10
450.8728588318
 20
216.9173570514
  0
VERTEX
  8
0
 62
7
  6
CONTINUOUS
 10
450.0478476102
 20
215.4384559842
  0
VERTEX
  8
0
 62
7
  6
CONTINUOUS
 10
449.6152205449
 20
214.669193948
  0
SEQEND
  0
POLYLINE
  8
0
 62
7
  6
CONTINUOUS
 66
1
 70
0
  0
VERTEX
  8
0
 62
7
  6
CONTINUOUS
 10
466.1536835176
 20
217.8481205791
  0
VERTEX
  8
0
 62
7
  6
CONTINUOUS
 10
466.1658832763
 20
217.8674680974
  0
VERTEX
  8
0
 62
7
  6
CONTINUOUS
 10
466.1780953608
 20
217.8855282266
  0
VERTEX
  8
0
 62
7
  6
CONTINUOUS
 10
466.1903196538
 20
217.9023007583
  0
VERTEX
  8
0
 62
7
  6
CONTINUOUS
 10
466.2025565075
 20
217.9177863173
  0
VERTEX
  8
0
 62
7
  6
CONTINUOUS
 10
466.2148062739
 20
217.9319855279
  0
VERTEX
  8
0
 62
7
  6
CONTINUOUS
 10
466.2270688357
 20
217.9448981821
  0
SEQEND
  0
LINE
  8
0
 62
7
  6
CONTINUOUS
 10
-113.9672956164
 20
361.7124807131
 11
486.0327043836
 21
361.7124807131
  0
POLYLINE
  8
0
 62
7
  6
CONTINUOUS
 66
1
 70
0
  0
VERTEX
  8
0
 62
7
  6
CONTINUOUS
 10
456.265121625
 20
227.9068441075
  0
VERTEX
  8
0
 62
7
  6
CONTINUOUS
 10
456.260060077
 20
227.8854294128
  0
VERTEX
  8
0
 62
7
  6
CONTINUOUS
 10
456.255006841
 20
227.8618676417
  0
VERTEX
  8
0
 62
7
  6
CONTINUOUS
 10
456.2499644814
 20
227.836161602
  0
VERTEX
  8
0
 62
7
  6
CONTINUOUS
 10
456.2449321942
 20
227.8083120434
  0
VERTEX
  8
0
 62
7
  6
CONTINUOUS
 10
456.2399092741
 20
227.7783195004
  0
VERTEX
  8
0
 62
7
  6
CONTINUOUS
 10
456.2348984149
 20
227.7461871198
  0
SEQEND
  0
POLYLINE
  8
0
 62
7
  6
CONTINUOUS
 66
1
 70
0
  0
VERTEX
  8
0
 62
7
  6
CONTINUOUS
 10
444.6783048731
 20
6.841306695
  0
VERTEX
  8
0
 62
7
  6
CONTINUOUS
 10
444.7358098356
 20
1.1816692047
  0
VERTEX
  8
0
 62
7
  6
CONTINUOUS
 10
444.9102097157
 20
-15.848874668
  0
SEQEND
  0
POLYLINE
  8
0
 62
7
  6
CONTINUOUS
 66
1
 70
0
  0
VERTEX
  8
0
 62
7
  6
CONTINUOUS
 10
444.5124287591
 20
23.3411823781
  0
VERTEX
  8
0
 62
7
  6
CONTINUOUS
 10
444.566931585
 20
17.8875326655
  0
VERTEX
  8
0
 62
7
  6
CONTINUOUS
 10
444.6783048731
 20
6.841306695
  0
SEQEND
  0
LINE
  8
0
 62
7
  6
CONTINUOUS
 10
444.4051199489
 20
34.1912175577
 11
444.5124287591
 21
23.3411823781
  0
LINE
  8
0
 62
7
  6
CONTINUOUS
 10
444.2997215862
 20
45.0208037038
 11
444.4051199489
 21
34.1912175577
  0
LINE
  8
0
 62
7
  6
CONTINUOUS
 10
444.1961675326
 20
55.863215001
 11
444.2997215862
 21
45.0208037038
  0
LINE
  8
0
 62
7
  6
CONTINUOUS
 10
444.0444742945
 20
72.1895172119
 11
444.1961675326
 21
55.863215001
  0
LINE
  8
0
 62
7
  6
CONTINUOUS
 10
443.8981127313
 20
88.5589959769
 11
444.0444742945
 21
72.1895172119
  0
LINE
  8
0
 62
7
  6
CONTINUOUS
 10
443.7579122527
 20
104.9405390528
 11
443.8981127313
 21
88.5589959769
  0
LINE
  8
0
 62
7
  6
CONTINUOUS
 10
443.6240600723
 20
121.3500388537
 11
443.7579122527
 21
104.9405390528
  0
LINE
  8
0
 62
7
  6
CONTINUOUS
 10
443.4967066327
 20
137.7726140472
 11
443.6240600723
 21
121.3500388537
  0
LINE
  8
0
 62
7
  6
CONTINUOUS
 10
443.0431541901
 20
203.360721349
 11
443.4967066327
 21
137.7726140472
  0
LINE
  8
0
 62
7
  6
CONTINUOUS
 10
456.9391280126
 20
-38.992398033
 11
456.939606307
 21
-39.1563673819
  0
POLYLINE
  8
0
 62
7
  6
CONTINUOUS
 66
1
 70
0
  0
VERTEX
  8
0
 62
7
  6
CONTINUOUS
 10
456.2348985819
 20
227.7461882274
  0
VERTEX
  8
0
 62
7
  6
CONTINUOUS
 10
456.2112398068
 20
227.6246648705
  0
VERTEX
  8
0
 62
7
  6
CONTINUOUS
 10
456.1732757806
 20
227.4793479119
  0
VERTEX
  8
0
 62
7
  6
CONTINUOUS
 10
456.1209244907
 20
227.3102141113
  0
VERTEX
  8
0
 62
7
  6
CONTINUOUS
 10
456.0542041497
 20
227.1174788787
  0
VERTEX
  8
0
 62
7
  6
CONTINUOUS
 10
455.9731998024
 20
226.9014665402
  0
VERTEX
  8
0
 62
7
  6
CONTINUOUS
 10
455.8779813679
 20
226.6623779528
  0
VERTEX
  8
0
 62
7
  6
CONTINUOUS
 10
455.7687860147
 20
226.4008037286
  0
VERTEX
  8
0
 62
7
  6
CONTINUOUS
 10
455.6453546544
 20
226.1161496866
  0
VERTEX
  8
0
 62
7
  6
CONTINUOUS
 10
455.5073262827
 20
225.8076971515
  0
VERTEX
  8
0
 62
7
  6
CONTINUOUS
 10
455.3546700123
 20
225.4755032554
  0
VERTEX
  8
0
 62
7
  6
CONTINUOUS
 10
455.1872230223
 20
225.1193399914
  0
VERTEX
  8
0
 62
7
  6
CONTINUOUS
 10
455.0049334189
 20
224.7392191954
  0
VERTEX
  8
0
 62
7
  6
CONTINUOUS
 10
454.8077328798
 20
224.3351164851
  0
VERTEX
  8
0
 62
7
  6
CONTINUOUS
 10
454.5955357942
 20
223.9069675681
  0
VERTEX
  8
0
 62
7
  6
CONTINUOUS
 10
454.3682501036
 20
223.4546992985
  0
VERTEX
  8
0
 62
7
  6
CONTINUOUS
 10
454.1258373901
 20
222.9783433551
  0
VERTEX
  8
0
 62
7
  6
CONTINUOUS
 10
453.8682442848
 20
222.4779018852
  0
VERTEX
  8
0
 62
7
  6
CONTINUOUS
 10
453.595468582
 20
221.9534729997
  0
VERTEX
  8
0
 62
7
  6
CONTINUOUS
 10
453.3074976416
 20
221.4051331793
  0
VERTEX
  8
0
 62
7
  6
CONTINUOUS
 10
453.0043777269
 20
220.8330670914
  0
VERTEX
  8
0
 62
7
  6
CONTINUOUS
 10
452.6861424198
 20
220.2374326219
  0
VERTEX
  8
0
 62
7
  6
CONTINUOUS
 10
452.352905626
 20
219.618533372
  0
VERTEX
  8
0
 62
7
  6
CONTINUOUS
 10
452.0047665505
 20
218.9766411819
  0
VERTEX
  8
0
 62
7
  6
CONTINUOUS
 10
451.6419136099
 20
218.3121869153
  0
SEQEND
  0
POLYLINE
  8
0
 62
7
  6
CONTINUOUS
 66
1
 70
0
  0
VERTEX
  8
0
 62
7
  6
CONTINUOUS
 10
466.1536888607
 20
217.8481287666
  0
VERTEX
  8
0
 62
7
  6
CONTINUOUS
 10
466.1376506349
 20
218.3004597434
  0
VERTEX
  8
0
 62
7
  6
CONTINUOUS
 10
466.1008363706
 20
218.7518458468
  0
VERTEX
  8
0
 62
7
  6
CONTINUOUS
 10
466.0433229689
 20
219.2013441749
  0
VERTEX
  8
0
 62
7
  6
CONTINUOUS
 10
465.9652305693
 20
219.6480157695
  0
VERTEX
  8
0
 62
7
  6
CONTINUOUS
 10
465.8667222991
 20
220.0909275767
  0
VERTEX
  8
0
 62
7
  6
CONTINUOUS
 10
465.7480039321
 20
220.5291543967
  0
VERTEX
  8
0
 62
7
  6
CONTINUOUS
 10
465.6093234593
 20
220.9617808161
  0
VERTEX
  8
0
 62
7
  6
CONTINUOUS
 10
465.4509705704
 20
221.38790312
  0
VERTEX
  8
0
 62
7
  6
CONTINUOUS
 10
465.2732760491
 20
221.8066311803
  0
VERTEX
  8
0
 62
7
  6
CONTINUOUS
 10
465.0766110816
 20
222.2170903143
  0
VERTEX
  8
0
 62
7
  6
CONTINUOUS
 10
464.8613864819
 20
222.6184231126
  0
VERTEX
  8
0
 62
7
  6
CONTINUOUS
 10
464.628051833
 20
223.0097912297
  0
VERTEX
  8
0
 62
7
  6
CONTINUOUS
 10
464.3770945482
 20
223.3903771353
  0
VERTEX
  8
0
 62
7
  6
CONTINUOUS
 10
464.1090388528
 20
223.7593858221
  0
VERTEX
  8
0
 62
7
  6
CONTINUOUS
 10
463.8244446889
 20
224.1160464665
  0
VERTEX
  8
0
 62
7
  6
CONTINUOUS
 10
463.5239065461
 20
224.4596140387
  0
VERTEX
  8
0
 62
7
  6
CONTINUOUS
 10
463.2080522193
 20
224.789370859
  0
VERTEX
  8
0
 62
7
  6
CONTINUOUS
 10
462.8775414975
 20
225.1046280972
  0
VERTEX
  8
0
 62
7
  6
CONTINUOUS
 10
462.5330647856
 20
225.4047272113
  0
VERTEX
  8
0
 62
7
  6
CONTINUOUS
 10
462.1753416618
 20
225.6890413228
  0
VERTEX
  8
0
 62
7
  6
CONTINUOUS
 10
461.8051193753
 20
225.956976527
  0
VERTEX
  8
0
 62
7
  6
CONTINUOUS
 10
461.4231712844
 20
226.2079731328
  0
VERTEX
  8
0
 62
7
  6
CONTINUOUS
 10
461.0302952419
 20
226.4415068324
  0
VERTEX
  8
0
 62
7
  6
CONTINUOUS
 10
460.6273119276
 20
226.6570897963
  0
VERTEX
  8
0
 62
7
  6
CONTINUOUS
 10
460.2150631348
 20
226.8542716923
  0
VERTEX
  8
0
 62
7
  6
CONTINUOUS
 10
459.7944100115
 20
227.0326406262
  0
VERTEX
  8
0
 62
7
  6
CONTINUOUS
 10
459.3662312613
 20
227.1918240024
  0
VERTEX
  8
0
 62
7
  6
CONTINUOUS
 10
458.9314213083
 20
227.3314893021
  0
VERTEX
  8
0
 62
7
  6
CONTINUOUS
 10
458.4908884286
 20
227.4513447777
  0
VERTEX
  8
0
 62
7
  6
CONTINUOUS
 10
458.0455528528
 20
227.5511400626
  0
VERTEX
  8
0
 62
7
  6
CONTINUOUS
 10
457.5963448442
 20
227.6306666939
  0
VERTEX
  8
0
 62
7
  6
CONTINUOUS
 10
457.1442027548
 20
227.689758548
  0
VERTEX
  8
0
 62
7
  6
CONTINUOUS
 10
456.6900710659
 20
227.7282921877
  0
VERTEX
  8
0
 62
7
  6
CONTINUOUS
 10
456.2348984149
 20
227.7461871198
  0
SEQEND
  0
POLYLINE
  8
0
 62
7
  6
CONTINUOUS
 66
1
 70
0
  0
VERTEX
  8
0
 62
7
  6
CONTINUOUS
 10
466.2270677964
 20
217.9448971428
  0
VERTEX
  8
0
 62
7
  6
CONTINUOUS
 10
466.214392781
 20
218.3773436118
  0
VERTEX
  8
0
 62
7
  6
CONTINUOUS
 10
466.1829614629
 20
218.8089748351
  0
VERTEX
  8
0
 62
7
  6
CONTINUOUS
 10
466.1328330969
 20
219.238977101
  0
VERTEX
  8
0
 62
7
  6
CONTINUOUS
 10
466.0641021833
 20
219.6665397816
  0
VERTEX
  8
0
 62
7
  6
CONTINUOUS
 10
465.976898287
 20
220.0908568627
  0
VERTEX
  8
0
 62
7
  6
CONTINUOUS
 10
465.8713858132
 20
220.5111283762
  0
VERTEX
  8
0
 62
7
  6
CONTINUOUS
 10
465.7477636987
 20
220.9265619577
  0
VERTEX
  8
0
 62
7
  6
CONTINUOUS
 10
465.6062649707
 20
221.3363745361
  0
VERTEX
  8
0
 62
7
  6
CONTINUOUS
 10
465.4471563352
 20
221.7397936421
  0
VERTEX
  8
0
 62
7
  6
CONTINUOUS
 10
465.2707377748
 20
222.1360586467
  0
VERTEX
  8
0
 62
7
  6
CONTINUOUS
 10
465.0773419134
 20
222.5244224315
  0
VERTEX
  8
0
 62
7
  6
CONTINUOUS
 10
464.8673333187
 20
222.9041529109
  0
VERTEX
  8
0
 62
7
  6
CONTINUOUS
 10
464.6411078812
 20
223.2745342489
  0
VERTEX
  8
0
 62
7
  6
CONTINUOUS
 10
464.3990920866
 20
223.6348681911
  0
VERTEX
  8
0
 62
7
  6
CONTINUOUS
 10
464.1417421848
 20
223.9844754339
  0
VERTEX
  8
0
 62
7
  6
CONTINUOUS
 10
463.8695433285
 20
224.3226969028
  0
VERTEX
  8
0
 62
7
  6
CONTINUOUS
 10
463.5830086645
 20
224.6488949856
  0
VERTEX
  8
0
 62
7
  6
CONTINUOUS
 10
463.2826783662
 20
224.9624547357
  0
VERTEX
  8
0
 62
7
  6
CONTINUOUS
 10
462.9691186141
 20
225.2627850325
  0
VERTEX
  8
0
 62
7
  6
CONTINUOUS
 10
462.6429205295
 20
225.5493196948
  0
VERTEX
  8
0
 62
7
  6
CONTINUOUS
 10
462.3046990596
 20
225.8215185488
  0
VERTEX
  8
0
 62
7
  6
CONTINUOUS
 10
461.9550918164
 20
226.0788684479
  0
VERTEX
  8
0
 62
7
  6
CONTINUOUS
 10
461.5947578753
 20
226.3208842389
  0
VERTEX
  8
0
 62
7
  6
CONTINUOUS
 10
461.2243765388
 20
226.5471096729
  0
VERTEX
  8
0
 62
7
  6
CONTINUOUS
 10
460.8446460605
 20
226.7571182647
  0
VERTEX
  8
0
 62
7
  6
CONTINUOUS
 10
460.4562822771
 20
226.9505141232
  0
VERTEX
  8
0
 62
7
  6
CONTINUOUS
 10
460.0600172747
 20
227.1269326806
  0
VERTEX
  8
0
 62
7
  6
CONTINUOUS
 10
459.6565981714
 20
227.2860413132
  0
VERTEX
  8
0
 62
7
  6
CONTINUOUS
 10
459.2467855966
 20
227.4275400384
  0
VERTEX
  8
0
 62
7
  6
CONTINUOUS
 10
458.8313520191
 20
227.5511621502
  0
VERTEX
  8
0
 62
7
  6
CONTINUOUS
 10
458.41108051
 20
227.6566746217
  0
VERTEX
  8
0
 62
7
  6
CONTINUOUS
 10
457.9867634336
 20
227.7438785162
  0
VERTEX
  8
0
 62
7
  6
CONTINUOUS
 10
457.5592007574
 20
227.8126094283
  0
VERTEX
  8
0
 62
7
  6
CONTINUOUS
 10
457.1291984963
 20
227.8627377933
  0
VERTEX
  8
0
 62
7
  6
CONTINUOUS
 10
456.6975672785
 20
227.8941691107
  0
VERTEX
  8
0
 62
7
  6
CONTINUOUS
 10
456.2651208155
 20
227.9068441259
  0
SEQEND
  0
LINE
  8
0
 62
7
  6
CONTINUOUS
 10
466.7953824629
 20
-24.263746291
 11
466.8263467618
 21
-29.0951662944
  0
POLYLINE
  8
0
 62
7
  6
CONTINUOUS
 66
1
 70
0
  0
VERTEX
  8
0
 62
7
  6
CONTINUOUS
 10
466.6936211046
 20
-8.1953257101
  0
VERTEX
  8
0
 62
7
  6
CONTINUOUS
 10
466.72869963
 20
-13.7677043383
  0
VERTEX
  8
0
 62
7
  6
CONTINUOUS
 10
466.7953824629
 20
-24.263746291
  0
SEQEND
  0
LINE
  8
0
 62
7
  6
CONTINUOUS
 10
466.6235098836
 20
3.0908085844
 11
466.6936211046
 21
-8.1953257101
  0
LINE
  8
0
 62
7
  6
CONTINUOUS
 10
466.5566244888
 20
14.1124582362
 11
466.6235098836
 21
3.0908085844
  0
LINE
  8
0
 62
7
  6
CONTINUOUS
 10
466.4626009078
 20
30.2546463559
 11
466.5566244888
 21
14.1124582362
  0
LINE
  8
0
 62
7
  6
CONTINUOUS
 10
466.3758195716
 20
46.2339006372
 11
466.4626009078
 21
30.2546463559
  0
LINE
  8
0
 62
7
  6
CONTINUOUS
 10
466.2973119268
 20
62.2064096237
 11
466.3758195716
 21
46.2339006372
  0
LINE
  8
0
 62
7
  6
CONTINUOUS
 10
466.2504303605
 20
72.8748410789
 11
466.2973119268
 21
62.2064096237
  0
LINE
  8
0
 62
7
  6
CONTINUOUS
 10
466.2086048228
 20
83.548309368
 11
466.2504303605
 21
72.8748410789
  0
LINE
  8
0
 62
7
  6
CONTINUOUS
 10
466.1723389023
 20
94.2166940805
 11
466.2086048228
 21
83.548309368
  0
LINE
  8
0
 62
7
  6
CONTINUOUS
 10
466.1419877457
 20
104.8830604641
 11
466.1723389023
 21
94.2166940805
  0
LINE
  8
0
 62
7
  6
CONTINUOUS
 10
466.1177807439
 20
115.5569146702
 11
466.1419877457
 21
104.8830604641
  0
LINE
  8
0
 62
7
  6
CONTINUOUS
 10
466.09983499
 20
126.2409049055
 11
466.1177807439
 21
115.5569146702
  0
LINE
  8
0
 62
7
  6
CONTINUOUS
 10
466.0881119963
 20
136.929812263
 11
466.09983499
 21
126.2409049055
  0
LINE
  8
0
 62
7
  6
CONTINUOUS
 10
466.0823798895
 20
147.6179267112
 11
466.0881119963
 21
136.929812263
  0
LINE
  8
0
 62
7
  6
CONTINUOUS
 10
459.4318492101
 20
239.0431301052
 11
459.4318492101
 21
231.0735725205
  0
LINE
  8
0
 62
7
  6
CONTINUOUS
 10
459.4318492101
 20
-49.6181686791
 11
459.4318492101
 21
-41.6486110943
  0
LINE
  8
0
 62
7
  6
CONTINUOUS
 10
469.393796191
 20
221.1116255396
 11
469.393796191
 21
-31.6866641134
  0
LINE
  8
0
 62
7
  6
CONTINUOUS
 10
476.0327043836
 20
-50.2875192869
 11
476.0327043836
 21
-58.2875192869
  0
LINE
  8
0
 62
7
  6
CONTINUOUS
 10
477.3633537757
 20
221.1116255396
 11
477.3633537757
 21
-31.6866641134
  0
LINE
  8
0
 62
7
  6
CONTINUOUS
 10
478.0327043836
 20
-48.2875192869
 11
478.0327043836
 21
361.7124807131
  0
LINE
  8
0
 62
7
  6
CONTINUOUS
 10
466.0822268406
 20
158.301559141
 11
466.0823798895
 21
147.6179267112
  0
LINE
  8
0
 62
7
  6
CONTINUOUS
 10
466.0870989396
 20
168.9800507561
 11
466.0822268406
 21
158.301559141
  0
LINE
  8
0
 62
7
  6
CONTINUOUS
 10
466.1024090532
 20
185.0230726997
 11
466.0870989396
 21
168.9800507561
  0
POLYLINE
  8
0
 62
7
  6
CONTINUOUS
 66
1
 70
0
  0
VERTEX
  8
0
 62
7
  6
CONTINUOUS
 10
466.1536835176
 20
217.8481205791
  0
VERTEX
  8
0
 62
7
  6
CONTINUOUS
 10
466.1342815934
 20
206.7156751525
  0
VERTEX
  8
0
 62
7
  6
CONTINUOUS
 10
466.1024090532
 20
185.0230726997
  0
SEQEND
  0
POLYLINE
  8
0
 62
7
  6
CONTINUOUS
 66
1
 70
0
  0
VERTEX
  8
0
 62
7
  6
CONTINUOUS
 10
469.393796191
 20
-31.6866641134
  0
VERTEX
  8
0
 62
7
  6
CONTINUOUS
 10
469.3889436598
 20
-32.0659298651
  0
VERTEX
  8
0
 62
7
  6
CONTINUOUS
 10
469.3699737555
 20
-32.4424918636
  0
VERTEX
  8
0
 62
7
  6
CONTINUOUS
 10
469.3372059719
 20
-32.8152315323
  0
VERTEX
  8
0
 62
7
  6
CONTINUOUS
 10
469.2907046243
 20
-33.1854938028
  0
VERTEX
  8
0
 62
7
  6
CONTINUOUS
 10
469.2302564925
 20
-33.5547602921
  0
VERTEX
  8
0
 62
7
  6
CONTINUOUS
 10
469.1560416463
 20
-33.921429652
  0
VERTEX
  8
0
 62
7
  6
CONTINUOUS
 10
469.0682516353
 20
-34.2845692245
  0
VERTEX
  8
0
 62
7
  6
CONTINUOUS
 10
468.9670267282
 20
-34.6437189063
  0
VERTEX
  8
0
 62
7
  6
CONTINUOUS
 10
468.8525750723
 20
-34.9982581279
  0
VERTEX
  8
0
 62
7
  6
CONTINUOUS
 10
468.7250615619
 20
-35.3477942579
  0
VERTEX
  8
0
 62
7
  6
CONTINUOUS
 10
468.5846928096
 20
-35.6918505805
  0
VERTEX
  8
0
 62
7
  6
CONTINUOUS
 10
468.4316278672
 20
-36.0300995622
  0
VERTEX
  8
0
 62
7
  6
CONTINUOUS
 10
468.2660231785
 20
-36.3622116982
  0
VERTEX
  8
0
 62
7
  6
CONTINUOUS
 10
468.0881062731
 20
-36.6877290511
  0
VERTEX
  8
0
 62
7
  6
CONTINUOUS
 10
467.8980845579
 20
-37.0062608879
  0
VERTEX
  8
0
 62
7
  6
CONTINUOUS
 10
467.6962474677
 20
-37.317313844
  0
VERTEX
  8
0
 62
7
  6
CONTINUOUS
 10
467.4828934784
 20
-37.6204277557
  0
VERTEX
  8
0
 62
7
  6
CONTINUOUS
 10
467.2583211561
 20
-37.9151856022
  0
VERTEX
  8
0
 62
7
  6
CONTINUOUS
 10
467.0228627228
 20
-38.2011589814
  0
VERTEX
  8
0
 62
7
  6
CONTINUOUS
 10
466.7768143987
 20
-38.4779963487
  0
VERTEX
  8
0
 62
7
  6
CONTINUOUS
 10
466.5204947075
 20
-38.7453387662
  0
VERTEX
  8
0
 62
7
  6
CONTINUOUS
 10
466.2542348142
 20
-39.0028375053
  0
VERTEX
  8
0
 62
7
  6
CONTINUOUS
 10
465.9783600056
 20
-39.2501670815
  0
VERTEX
  8
0
 62
7
  6
CONTINUOUS
 10
465.6932700923
 20
-39.4869594749
  0
VERTEX
  8
0
 62
7
  6
CONTINUOUS
 10
465.3993564663
 20
-39.7128811228
  0
VERTEX
  8
0
 62
7
  6
CONTINUOUS
 10
465.0970531122
 20
-39.9275957177
  0
VERTEX
  8
0
 62
7
  6
CONTINUOUS
 10
464.7868294672
 20
-40.1307723407
  0
VERTEX
  8
0
 62
7
  6
CONTINUOUS
 10
464.4690541692
 20
-40.3221733741
  0
VERTEX
  8
0
 62
7
  6
CONTINUOUS
 10
464.1441578797
 20
-40.501536891
  0
VERTEX
  8
0
 62
7
  6
CONTINUOUS
 10
463.8124671639
 20
-40.6686720834
  0
VERTEX
  8
0
 62
7
  6
CONTINUOUS
 10
463.474319701
 20
-40.8233820204
  0
VERTEX
  8
0
 62
7
  6
CONTINUOUS
 10
463.1301307164
 20
-40.9654410778
  0
VERTEX
  8
0
 62
7
  6
CONTINUOUS
 10
462.7801694338
 20
-41.0946870859
  0
VERTEX
  8
0
 62
7
  6
CONTINUOUS
 10
462.4252496477
 20
-41.2107813586
  0
VERTEX
  8
0
 62
7
  6
CONTINUOUS
 10
462.0666884933
 20
-41.3133263777
  0
VERTEX
  8
0
 62
7
  6
CONTINUOUS
 10
461.7033556633
 20
-41.4026273796
  0
VERTEX
  8
0
 62
7
  6
CONTINUOUS
 10
461.3341591095
 20
-41.4787498313
  0
VERTEX
  8
0
 62
7
  6
CONTINUOUS
 10
460.9601346521
 20
-41.5412169441
  0
VERTEX
  8
0
 62
7
  6
CONTINUOUS
 10
460.5814903477
 20
-41.5897474477
  0
VERTEX
  8
0
 62
7
  6
CONTINUOUS
 10
460.1997434157
 20
-41.623946654
  0
VERTEX
  8
0
 62
7
  6
CONTINUOUS
 10
459.8164629502
 20
-41.6435894106
  0
VERTEX
  8
0
 62
7
  6
CONTINUOUS
 10
459.4318492101
 20
-41.6486110943
  0
SEQEND
  0
POLYLINE
  8
0
 62
7
  6
CONTINUOUS
 66
1
 70
0
  0
VERTEX
  8
0
 62
7
  6
CONTINUOUS
 10
477.3633537757
 20
-31.6866641134
  0
VERTEX
  8
0
 62
7
  6
CONTINUOUS
 10
477.3503712866
 20
-32.3657775747
  0
VERTEX
  8
0
 62
7
  6
CONTINUOUS
 10
477.3126211053
 20
-33.0393023755
  0
VERTEX
  8
0
 62
7
  6
CONTINUOUS
 10
477.2501012946
 20
-33.7065943875
  0
VERTEX
  8
0
 62
7
  6
CONTINUOUS
 10
477.1628176661
 20
-34.3695859953
  0
VERTEX
  8
0
 62
7
  6
CONTINUOUS
 10
477.0506550296
 20
-35.0309462084
  0
VERTEX
  8
0
 62
7
  6
CONTINUOUS
 10
476.9139744523
 20
-35.6878210233
  0
VERTEX
  8
0
 62
7
  6
CONTINUOUS
 10
476.7529791554
 20
-36.3385122563
  0
VERTEX
  8
0
 62
7
  6
CONTINUOUS
 10
476.5680274871
 20
-36.982221458
  0
VERTEX
  8
0
 62
7
  6
CONTINUOUS
 10
476.3594307028
 20
-37.6178122313
  0
VERTEX
  8
0
 62
7
  6
CONTINUOUS
 10
476.1275333017
 20
-38.2446002366
  0
VERTEX
  8
0
 62
7
  6
CONTINUOUS
 10
475.8726832257
 20
-38.8617153192
  0
VERTEX
  8
0
 62
7
  6
CONTINUOUS
 10
475.5951814015
 20
-39.4685785269
  0
VERTEX
  8
0
 62
7
  6
CONTINUOUS
 10
475.2952988113
 20
-40.0645901447
  0
VERTEX
  8
0
 62
7
  6
CONTINUOUS
 10
474.9734732294
 20
-40.6489423066
  0
VERTEX
  8
0
 62
7
  6
CONTINUOUS
 10
474.6300424908
 20
-41.2209130207
  0
VERTEX
  8
0
 62
7
  6
CONTINUOUS
 10
474.2655773953
 20
-41.7796449496
  0
VERTEX
  8
0
 62
7
  6
CONTINUOUS
 10
473.8805664093
 20
-42.3242789122
  0
VERTEX
  8
0
 62
7
  6
CONTINUOUS
 10
473.4755943681
 20
-42.8540984483
  0
VERTEX
  8
0
 62
7
  6
CONTINUOUS
 10
473.0512200102
 20
-43.3683022935
  0
VERTEX
  8
0
 62
7
  6
CONTINUOUS
 10
472.6080100919
 20
-43.8662856792
  0
VERTEX
  8
0
 62
7
  6
CONTINUOUS
 10
472.1465093341
 20
-44.3473770548
  0
VERTEX
  8
0
 62
7
  6
CONTINUOUS
 10
471.6673425809
 20
-44.8109755021
  0
VERTEX
  8
0
 62
7
  6
CONTINUOUS
 10
471.1710648485
 20
-45.256464638
  0
VERTEX
  8
0
 62
7
  6
CONTINUOUS
 10
470.6584303405
 20
-45.6832193066
  0
VERTEX
  8
0
 62
7
  6
CONTINUOUS
 10
470.1301058603
 20
-46.0905951126
  0
VERTEX
  8
0
 62
7
  6
CONTINUOUS
 10
469.5869086241
 20
-46.4780333918
  0
VERTEX
  8
0
 62
7
  6
CONTINUOUS
 10
469.0296495244
 20
-46.844892076
  0
VERTEX
  8
0
 62
7
  6
CONTINUOUS
 10
468.4590143361
 20
-47.1907769825
  0
VERTEX
  8
0
 62
7
  6
CONTINUOUS
 10
467.8757600922
 20
-47.515190389
  0
VERTEX
  8
0
 62
7
  6
CONTINUOUS
 10
467.2804839104
 20
-47.8178008459
  0
VERTEX
  8
0
 62
7
  6
CONTINUOUS
 10
466.673781903
 20
-48.0982409695
  0
VERTEX
  8
0
 62
7
  6
CONTINUOUS
 10
466.05641412
 20
-48.3561208402
  0
VERTEX
  8
0
 62
7
  6
CONTINUOUS
 10
465.428839165
 20
-48.5910987398
  0
VERTEX
  8
0
 62
7
  6
CONTINUOUS
 10
464.7925574895
 20
-48.8026626808
  0
VERTEX
  8
0
 62
7
  6
CONTINUOUS
 10
464.1499116906
 20
-48.9900790155
  0
VERTEX
  8
0
 62
7
  6
CONTINUOUS
 10
463.4988339344
 20
-49.1536710073
  0
VERTEX
  8
0
 62
7
  6
CONTINUOUS
 10
462.8374097525
 20
-49.2938212074
  0
VERTEX
  8
0
 62
7
  6
CONTINUOUS
 10
462.1675216456
 20
-49.4096181041
  0
VERTEX
  8
0
 62
7
  6
CONTINUOUS
 10
461.4894869928
 20
-49.5004327053
  0
VERTEX
  8
0
 62
7
  6
CONTINUOUS
 10
460.806086691
 20
-49.5658000038
  0
VERTEX
  8
0
 62
7
  6
CONTINUOUS
 10
460.1205682663
 20
-49.6049609945
  0
VERTEX
  8
0
 62
7
  6
CONTINUOUS
 10
459.4318492101
 20
-49.6181686791
  0
SEQEND
  0
LINE
  8
0
 62
7
  6
CONTINUOUS
 10
486.0327043836
 20
-48.2875192869
 11
486.0327043836
 21
361.7124807131
  0
CIRCLE
  8
0
 62
7
  6
CONTINUOUS
 10
186.0327043836
 20
126.7124807131
 40
20.0
  0
CIRCLE
  8
0
 62
7
  6
CONTINUOUS
 10
186.0327043836
 20
296.7124807131
 40
18.0
  0
ARC
  8
0
 62
7
  6
CONTINUOUS
 10
476.0327043836
 20
-48.2875192869
 40
10.0
 50
270.0
 51
360.0
  0
ARC
  8
0
 62
7
  6
CONTINUOUS
 10
-103.9672956164
 20
-48.2875192869
 40
10.0
 50
180.0
 51
270.0
  0
ARC
  8
0
 62
7
  6
CONTINUOUS
 10
211.532704383
 20
229.2124807131
 40
2.5
 50
270.0
 51
359.1480664881
  0
ARC
  8
0
 62
7
  6
CONTINUOUS
 10
160.532704384
 20
229.2124807131
 40
2.5
 50
180.8519335119
 51
270.0
  0
ARC
  8
0
 62
7
  6
CONTINUOUS
 10
-103.9672956164
 20
-48.2875192869
 40
2.0
 50
180.0
 51
270.0
  0
ARC
  8
0
 62
7
  6
CONTINUOUS
 10
476.0327043836
 20
-48.2875192869
 40
2.0
 50
270.0
 51
360.0
  0
ENDSEC
  0
EOF
