999
DXF file: K:\Client\125_Heirloom\001\00\Final_Data\Drawings\TOILETS\veloso-373112e_3.dxf
999
Pro/ENGINEER 2017110 by Parametric Technology Corporation
  0
SECTION
  2
HEADER
  9
$EXTMAX
 10
420.0
 20
297.0
 30
0.0
  9
$EXTMIN
 10
0.0
 20
0.0
 30
0.0
  9
$LIMMIN
 10
0.0
 20
0.0
  9
$LIMMAX
 10
420.0
 20
297.0
  9
$VIEWCTR
 10
210.0
 20
148.5
  9
$VIEWSIZE
 40
297.0
  9
$CLAYER
  8
0
  9
$LTSCALE
 40
23.1
  9
$CELTYPE
  6
BYLAYER
  9
$DIMSCALE
 40
1.0
  9
$DIMASZ
 40
3.0
  9
$DIMEXO
 40
1.0
  9
$DIMDLI
 40
15.96
  9
$DIMEXE
 40
1.0
  9
$DIMCEN
 40
3.78
  9
$DIMLFAC
 40
1.0
  9
$DIMBLK
  1
_FILLED
  9
$DIMALT
 70
0
  9
$DIMALTF
 40
0.0393700787
  9
$DIMTXT
 40
3.0
  9
$AUNITS
 70
0
  9
$PDMODE
 70
3
  9
$PDSIZE
 40
5.0
  9
$TILEMODE
 70
1
  0
ENDSEC
  0
SECTION
  2
TABLES
  0
TABLE
  2
LTYPE
 70
6
  0
LTYPE
  2
BYBLOCK
 70
0
  3

 72
65
 73
0
 40
0.0
  0
LTYPE
  2
BYLAYER
 70
0
  3

 72
65
 73
0
 40
0.0
  0
LTYPE
  2
CONTINUOUS
 70
64
  3
Solid line
 72
65
 73
0
 40
0.0
  0
LTYPE
  2
CENTER
 70
64
  3
____ _ ____ _ ____ _ ____ _ ____ _ ____ _ ____
 72
65
 73
4
 40
0.6
 49
0.375
 49
-0.075
 49
0.075
 49
-0.075
  0
LTYPE
  2
HIDDEN
 70
64
  3
- - - - - - - - - - - - - - - - - - - -
 72
65
 73
2
 40
0.2
 49
0.1
 49
-0.1
  0
LTYPE
  2
PHANTOM
 70
64
  3
_____ _ _ _____ _ _ _____ _ _ _____
 72
65
 73
6
 40
0.8
 49
0.45
 49
-0.05
 49
0.1
 49
-0.05
 49
0.1
 49
-0.05
  0
LTYPE
  2
DOT
 70
64
  3
. . . . . . . . . . . . . . . . . . . .
 72
65
 73
2
 40
0.2
 49
0.1
 49
-0.1
  0
LTYPE
  2
DASHED
 70
64
  3
- - - - - - - - - - - - - - - - - - - -
 72
65
 73
2
 40
0.2
 49
0.1
 49
-0.1
  0
ENDTAB
  0
TABLE
  2
LAYER
 70
36
  0
LAYER
  2
0
 70
0
 62
7
  6
CONTINUOUS
  0
LAYER
  2
DEFAULT_1
 70
0
 62
7
  6
CENTER
  0
LAYER
  2
DEFAULT_2
 70
0
 62
8
  6
HIDDEN
  0
LAYER
  2
DEFAULT_3
 70
0
 62
7
  6
PHANTOM
  0
LAYER
  2
0000_BOM
 70
0
 62
7
  6
CONTINUOUS
  0
LAYER
  2
0000_REV_TABLE
 70
0
 62
7
  6
CONTINUOUS
  0
LAYER
  2
0000_STEVENS_NOTE
 70
0
 62
7
  6
CONTINUOUS
  0
LAYER
  2
01_DATUM_PLANES
 70
0
 62
7
  6
CONTINUOUS
  0
LAYER
  2
01_DEF_PLANES
 70
0
 62
7
  6
CONTINUOUS
  0
LAYER
  2
02_DATUM_COS
 70
0
 62
7
  6
CONTINUOUS
  0
LAYER
  2
90_IMP_FEAT
 70
0
 62
7
  6
CONTINUOUS
  0
LAYER
  2
95_STL
 70
0
 62
7
  6
CONTINUOUS
  0
LAYER
  2
99_SOLID
 70
0
 62
7
  6
CONTINUOUS
  0
LAYER
  2
CAD-MASTER_ZINC-PL
 70
0
 62
7
  6
CONTINUOUS
  0
LAYER
  2
CURVE
 70
0
 62
7
  6
CONTINUOUS
  0
LAYER
  2
SHELL
 70
0
 62
7
  6
CONTINUOUS
  0
LAYER
  2
SKEL
 70
0
 62
7
  6
CONTINUOUS
  0
LAYER
  2
SKETCH
 70
0
 62
7
  6
CONTINUOUS
  0
LAYER
  2
SURFACE
 70
0
 62
7
  6
CONTINUOUS
  0
ENDTAB
  0
TABLE
  2
STYLE
 70
1
  0
STYLE
  2
STANDARD
 70
0
 40
0.0
 41
0.75
 50
0.0
 71
0
 42
0.2
  3
txt
  4

  0
STYLE
  2
TEXTSTYLE_1
 70
0
 40
0.0
 41
0.8
 50
0.0
 71
0
 42
0.2
  3
gdt
  4

  0
ENDTAB
  0
ENDSEC
  0
SECTION
  2
BLOCKS
  0
BLOCK
  8
0
 62
1
  6
CONTINUOUS
  2
PLUMBING_BL1
 70
64
 10
186.0327043678
 20
290.0151017723
  0
CIRCLE
  8
0
 62
1
  6
CONTINUOUS
 10
186.0327043678
 20
290.0151017723
 40
12.5
  0
LINE
  8
0
 62
1
  6
CONTINUOUS
 10
198.5327043678
 20
302.5151017723
 11
173.5327043678
 21
277.5151017723
  0
LINE
  8
0
 62
1
  6
CONTINUOUS
 10
186.0327043678
 20
290.0151017723
 11
173.5327043678
 21
302.5151017723
  0
LINE
  8
0
 62
1
  6
CONTINUOUS
 10
186.0327043678
 20
290.0151017723
 11
198.5327043678
 21
277.5151017723
  0
ENDBLK
  8
0
  6
BYBLOCK
 62
0
  0
BLOCK
  8
0
 62
5
  6
CONTINUOUS
  2
PLUMBING_BL0
 70
64
 10
186.0327043678
 20
490.0151017723
  0
CIRCLE
  8
0
 62
5
  6
CONTINUOUS
 10
186.0327043678
 20
490.0151017723
 40
12.5
  0
LINE
  8
0
 62
5
  6
CONTINUOUS
 10
198.5327043678
 20
502.5151017723
 11
173.5327043678
 21
477.5151017723
  0
LINE
  8
0
 62
5
  6
CONTINUOUS
 10
186.0327043678
 20
490.0151017723
 11
173.5327043678
 21
502.5151017723
  0
LINE
  8
0
 62
5
  6
CONTINUOUS
 10
186.0327043678
 20
490.0151017723
 11
198.5327043678
 21
477.5151017723
  0
ENDBLK
  8
0
  6
BYBLOCK
 62
0
  0
ENDSEC
  0
SECTION
  2
ENTITIES
  0
INSERT
  8
0
 62
5
  6
CONTINUOUS
  2
PLUMBING_BL0
 10
186.0327043678
 20
490.0151017723
  0
INSERT
  8
0
 62
1
  6
CONTINUOUS
  2
PLUMBING_BL1
 10
186.0327043678
 20
290.0151017723
  0
POLYLINE
  8
0
 62
7
  6
CONTINUOUS
 66
1
 70
0
  0
VERTEX
  8
0
 62
7
  6
CONTINUOUS
 10
276.7827607447
 20
-180.997644288
  0
VERTEX
  8
0
 62
7
  6
CONTINUOUS
 10
278.345832926
 20
-180.7777020893
  0
VERTEX
  8
0
 62
7
  6
CONTINUOUS
 10
279.861426027
 20
-180.5390438983
  0
VERTEX
  8
0
 62
7
  6
CONTINUOUS
 10
281.3159714926
 20
-180.286296417
  0
VERTEX
  8
0
 62
7
  6
CONTINUOUS
 10
282.713787412
 20
-180.021347366
  0
VERTEX
  8
0
 62
7
  6
CONTINUOUS
 10
284.0523313264
 20
-179.7471912611
  0
VERTEX
  8
0
 62
7
  6
CONTINUOUS
 10
285.3487270165
 20
-179.4624308659
  0
VERTEX
  8
0
 62
7
  6
CONTINUOUS
 10
286.6158064566
 20
-179.1656466882
  0
VERTEX
  8
0
 62
7
  6
CONTINUOUS
 10
287.8631418033
 20
-178.8554859813
  0
VERTEX
  8
0
 62
7
  6
CONTINUOUS
 10
289.1030339595
 20
-178.5292960634
  0
VERTEX
  8
0
 62
7
  6
CONTINUOUS
 10
290.3393848416
 20
-178.1860985524
  0
VERTEX
  8
0
 62
7
  6
CONTINUOUS
 10
291.5815629555
 20
-177.8230405991
  0
VERTEX
  8
0
 62
7
  6
CONTINUOUS
 10
292.8249405319
 20
-177.4411034851
  0
VERTEX
  8
0
 62
7
  6
CONTINUOUS
 10
294.0687411501
 20
-177.0402581649
  0
VERTEX
  8
0
 62
7
  6
CONTINUOUS
 10
295.3108277877
 20
-176.6209773333
  0
VERTEX
  8
0
 62
7
  6
CONTINUOUS
 10
296.5494088004
 20
-176.1837262621
  0
VERTEX
  8
0
 62
7
  6
CONTINUOUS
 10
297.7828126256
 20
-175.7290241533
  0
VERTEX
  8
0
 62
7
  6
CONTINUOUS
 10
299.0088958113
 20
-175.2576682604
  0
VERTEX
  8
0
 62
7
  6
CONTINUOUS
 10
300.2274454591
 20
-174.7697943374
  0
VERTEX
  8
0
 62
7
  6
CONTINUOUS
 10
301.4373322976
 20
-174.265931625
  0
VERTEX
  8
0
 62
7
  6
CONTINUOUS
 10
302.6392352357
 20
-173.7458767188
  0
VERTEX
  8
0
 62
7
  6
CONTINUOUS
 10
303.8333554787
 20
-173.2095917614
  0
VERTEX
  8
0
 62
7
  6
CONTINUOUS
 10
305.0199553051
 20
-172.6569873388
  0
VERTEX
  8
0
 62
7
  6
CONTINUOUS
 10
306.19929254
 20
-172.0879493584
  0
VERTEX
  8
0
 62
7
  6
CONTINUOUS
 10
307.3715292928
 20
-171.5023851304
  0
VERTEX
  8
0
 62
7
  6
CONTINUOUS
 10
308.5370157003
 20
-170.9000795311
  0
VERTEX
  8
0
 62
7
  6
CONTINUOUS
 10
309.695391325
 20
-170.2811678339
  0
VERTEX
  8
0
 62
7
  6
CONTINUOUS
 10
310.8465605653
 20
-169.6456527283
  0
VERTEX
  8
0
 62
7
  6
CONTINUOUS
 10
311.9900748841
 20
-168.9937345342
  0
VERTEX
  8
0
 62
7
  6
CONTINUOUS
 10
313.1255508999
 20
-168.3255931007
  0
VERTEX
  8
0
 62
7
  6
CONTINUOUS
 10
314.2527231888
 20
-167.6413520241
  0
VERTEX
  8
0
 62
7
  6
CONTINUOUS
 10
315.3712371367
 20
-166.9412018352
  0
VERTEX
  8
0
 62
7
  6
CONTINUOUS
 10
316.4809949255
 20
-166.2251784176
  0
VERTEX
  8
0
 62
7
  6
CONTINUOUS
 10
317.5818267937
 20
-165.4933611445
  0
VERTEX
  8
0
 62
7
  6
CONTINUOUS
 10
318.6735899249
 20
-164.7458147314
  0
VERTEX
  8
0
 62
7
  6
CONTINUOUS
 10
319.756146017
 20
-163.9825982403
  0
VERTEX
  8
0
 62
7
  6
CONTINUOUS
 10
320.8293045013
 20
-163.203805191
  0
VERTEX
  8
0
 62
7
  6
CONTINUOUS
 10
321.892895286
 20
-162.409515638
  0
VERTEX
  8
0
 62
7
  6
CONTINUOUS
 10
322.9467160792
 20
-161.5998393854
  0
VERTEX
  8
0
 62
7
  6
CONTINUOUS
 10
323.9905694825
 20
-160.7748848637
  0
VERTEX
  8
0
 62
7
  6
CONTINUOUS
 10
325.0242716175
 20
-159.9347501987
  0
VERTEX
  8
0
 62
7
  6
CONTINUOUS
 10
326.0476320858
 20
-159.0795411391
  0
VERTEX
  8
0
 62
7
  6
CONTINUOUS
 10
327.0604731886
 20
-158.2093616377
  0
VERTEX
  8
0
 62
7
  6
CONTINUOUS
 10
328.0626174609
 20
-157.3243165315
  0
VERTEX
  8
0
 62
7
  6
CONTINUOUS
 10
329.0538722836
 20
-156.4245235513
  0
VERTEX
  8
0
 62
7
  6
CONTINUOUS
 10
330.0340510046
 20
-155.5100952068
  0
VERTEX
  8
0
 62
7
  6
CONTINUOUS
 10
331.0029582039
 20
-154.5811540685
  0
VERTEX
  8
0
 62
7
  6
CONTINUOUS
 10
331.9604015675
 20
-153.6378292779
  0
VERTEX
  8
0
 62
7
  6
CONTINUOUS
 10
332.9061885692
 20
-152.6802537017
  0
VERTEX
  8
0
 62
7
  6
CONTINUOUS
 10
333.8401259731
 20
-151.7085651126
  0
VERTEX
  8
0
 62
7
  6
CONTINUOUS
 10
334.7620273092
 20
-150.7228990046
  0
VERTEX
  8
0
 62
7
  6
CONTINUOUS
 10
335.6717021022
 20
-149.7233956898
  0
VERTEX
  8
0
 62
7
  6
CONTINUOUS
 10
336.5689707728
 20
-148.7101876291
  0
VERTEX
  8
0
 62
7
  6
CONTINUOUS
 10
337.4536517097
 20
-147.6834164397
  0
VERTEX
  8
0
 62
7
  6
CONTINUOUS
 10
338.3255635903
 20
-146.6432238055
  0
VERTEX
  8
0
 62
7
  6
CONTINUOUS
 10
339.1845266918
 20
-145.5897528187
  0
VERTEX
  8
0
 62
7
  6
CONTINUOUS
 10
340.0303579172
 20
-144.523161428
  0
VERTEX
  8
0
 62
7
  6
CONTINUOUS
 10
340.8628788813
 20
-143.4436034781
  0
VERTEX
  8
0
 62
7
  6
CONTINUOUS
 10
341.6818985382
 20
-142.3512493633
  0
VERTEX
  8
0
 62
7
  6
CONTINUOUS
 10
342.4872307153
 20
-141.2462679456
  0
VERTEX
  8
0
 62
7
  6
CONTINUOUS
 10
343.2786898399
 20
-140.1288400371
  0
VERTEX
  8
0
 62
7
  6
CONTINUOUS
 10
344.0560900642
 20
-138.9991503177
  0
VERTEX
  8
0
 62
7
  6
CONTINUOUS
 10
344.8192534689
 20
-137.8573757541
  0
VERTEX
  8
0
 62
7
  6
CONTINUOUS
 10
345.5679979305
 20
-136.7037146107
  0
VERTEX
  8
0
 62
7
  6
CONTINUOUS
 10
346.3021667138
 20
-135.5383304153
  0
VERTEX
  8
0
 62
7
  6
CONTINUOUS
 10
347.0215947428
 20
-134.3613975857
  0
VERTEX
  8
0
 62
7
  6
CONTINUOUS
 10
347.7261222292
 20
-133.1730828277
  0
VERTEX
  8
0
 62
7
  6
CONTINUOUS
 10
348.4155906895
 20
-131.973563144
  0
VERTEX
  8
0
 62
7
  6
CONTINUOUS
 10
349.089842509
 20
-130.7630191018
  0
VERTEX
  8
0
 62
7
  6
CONTINUOUS
 10
349.7487270834
 20
-129.5416224832
  0
VERTEX
  8
0
 62
7
  6
CONTINUOUS
 10
350.3920688363
 20
-128.3095927986
  0
VERTEX
  8
0
 62
7
  6
CONTINUOUS
 10
351.0197252722
 20
-127.06709734
  0
VERTEX
  8
0
 62
7
  6
CONTINUOUS
 10
351.6314619932
 20
-125.8144941177
  0
VERTEX
  8
0
 62
7
  6
CONTINUOUS
 10
352.2270798421
 20
-124.552099571
  0
VERTEX
  8
0
 62
7
  6
CONTINUOUS
 10
352.8063793167
 20
-123.2802543022
  0
VERTEX
  8
0
 62
7
  6
CONTINUOUS
 10
353.3691054065
 20
-121.9994465578
  0
VERTEX
  8
0
 62
7
  6
CONTINUOUS
 10
353.9152681683
 20
-120.7095816521
  0
VERTEX
  8
0
 62
7
  6
CONTINUOUS
 10
354.4447470739
 20
-119.4108520678
  0
VERTEX
  8
0
 62
7
  6
CONTINUOUS
 10
354.9576417931
 20
-118.1028785665
  0
VERTEX
  8
0
 62
7
  6
CONTINUOUS
 10
355.4540190069
 20
-116.7852808418
  0
VERTEX
  8
0
 62
7
  6
CONTINUOUS
 10
355.9337260061
 20
-115.4582046029
  0
VERTEX
  8
0
 62
7
  6
CONTINUOUS
 10
356.3968297738
 20
-114.1211505873
  0
VERTEX
  8
0
 62
7
  6
CONTINUOUS
 10
356.8426904437
 20
-112.775674479
  0
VERTEX
  8
0
 62
7
  6
CONTINUOUS
 10
357.2709372022
 20
-111.4227320686
  0
VERTEX
  8
0
 62
7
  6
CONTINUOUS
 10
357.6811025576
 20
-110.0637635601
  0
VERTEX
  8
0
 62
7
  6
CONTINUOUS
 10
358.0728166099
 20
-108.7001257076
  0
VERTEX
  8
0
 62
7
  6
CONTINUOUS
 10
358.4457743843
 20
-107.3331730551
  0
VERTEX
  8
0
 62
7
  6
CONTINUOUS
 10
358.7995844578
 20
-105.9648676087
  0
VERTEX
  8
0
 62
7
  6
CONTINUOUS
 10
359.1345007326
 20
-104.5948637287
  0
VERTEX
  8
0
 62
7
  6
CONTINUOUS
 10
359.4502549365
 20
-103.2249968651
  0
VERTEX
  8
0
 62
7
  6
CONTINUOUS
 10
359.7480199047
 20
-101.85065921
  0
VERTEX
  8
0
 62
7
  6
CONTINUOUS
 10
360.0283469495
 20
-100.4690549682
  0
VERTEX
  8
0
 62
7
  6
CONTINUOUS
 10
360.2918257311
 20
-99.0762773306
  0
VERTEX
  8
0
 62
7
  6
CONTINUOUS
 10
360.5387873865
 20
-97.6686315553
  0
VERTEX
  8
0
 62
7
  6
CONTINUOUS
 10
360.7693510369
 20
-96.2424167062
  0
VERTEX
  8
0
 62
7
  6
CONTINUOUS
 10
360.9834198656
 20
-94.7939370874
  0
VERTEX
  8
0
 62
7
  6
CONTINUOUS
 10
361.1807015428
 20
-93.3193039052
  0
VERTEX
  8
0
 62
7
  6
CONTINUOUS
 10
361.360681222
 20
-91.8145052044
  0
VERTEX
  8
0
 62
7
  6
CONTINUOUS
 10
361.5225332777
 20
-90.2761244773
  0
VERTEX
  8
0
 62
7
  6
CONTINUOUS
 10
361.6652239648
 20
-88.7005101205
  0
VERTEX
  8
0
 62
7
  6
CONTINUOUS
 10
361.7874407089
 20
-87.0843948685
  0
VERTEX
  8
0
 62
7
  6
CONTINUOUS
 10
361.8876349077
 20
-85.4243845759
  0
VERTEX
  8
0
 62
7
  6
CONTINUOUS
 10
361.9639816193
 20
-83.7173977542
  0
VERTEX
  8
0
 62
7
  6
CONTINUOUS
 10
362.0144321933
 20
-81.9585378374
  0
VERTEX
  8
0
 62
7
  6
CONTINUOUS
 10
362.0364282487
 20
-80.1707776104
  0
SEQEND
  0
POLYLINE
  8
0
 62
7
  6
CONTINUOUS
 66
1
 70
0
  0
VERTEX
  8
0
 62
7
  6
CONTINUOUS
 10
10.0289804989
 20
-80.170772919
  0
VERTEX
  8
0
 62
7
  6
CONTINUOUS
 10
10.0394648904
 20
-81.3015586258
  0
VERTEX
  8
0
 62
7
  6
CONTINUOUS
 10
10.0637495329
 20
-82.5112739782
  0
VERTEX
  8
0
 62
7
  6
CONTINUOUS
 10
10.1037681911
 20
-83.7804830648
  0
VERTEX
  8
0
 62
7
  6
CONTINUOUS
 10
10.1610926834
 20
-85.0981203682
  0
VERTEX
  8
0
 62
7
  6
CONTINUOUS
 10
10.2370262776
 20
-86.4560309373
  0
VERTEX
  8
0
 62
7
  6
CONTINUOUS
 10
10.3325252191
 20
-87.8460074201
  0
VERTEX
  8
0
 62
7
  6
CONTINUOUS
 10
10.4481657775
 20
-89.2597633139
  0
VERTEX
  8
0
 62
7
  6
CONTINUOUS
 10
10.5841729167
 20
-90.6894893843
  0
VERTEX
  8
0
 62
7
  6
CONTINUOUS
 10
10.7403218921
 20
-92.1268737117
  0
VERTEX
  8
0
 62
7
  6
CONTINUOUS
 10
10.9161792097
 20
-93.5653297826
  0
VERTEX
  8
0
 62
7
  6
CONTINUOUS
 10
11.1105265036
 20
-94.9951939541
  0
VERTEX
  8
0
 62
7
  6
CONTINUOUS
 10
11.3233377519
 20
-96.4177297483
  0
VERTEX
  8
0
 62
7
  6
CONTINUOUS
 10
11.5540192062
 20
-97.8303988165
  0
VERTEX
  8
0
 62
7
  6
CONTINUOUS
 10
11.802656669
 20
-99.2350588243
  0
VERTEX
  8
0
 62
7
  6
CONTINUOUS
 10
12.0692277266
 20
-100.6324559528
  0
VERTEX
  8
0
 62
7
  6
CONTINUOUS
 10
12.3537645452
 20
-102.0233514123
  0
VERTEX
  8
0
 62
7
  6
CONTINUOUS
 10
12.6563670926
 20
-103.4085797913
  0
VERTEX
  8
0
 62
7
  6
CONTINUOUS
 10
12.9771050432
 20
-104.7886074622
  0
VERTEX
  8
0
 62
7
  6
CONTINUOUS
 10
13.3162126543
 20
-106.1644049744
  0
VERTEX
  8
0
 62
7
  6
CONTINUOUS
 10
13.6735298464
 20
-107.535228823
  0
VERTEX
  8
0
 62
7
  6
CONTINUOUS
 10
14.0490244228
 20
-108.900890373
  0
VERTEX
  8
0
 62
7
  6
CONTINUOUS
 10
14.4425167041
 20
-110.2607049473
  0
VERTEX
  8
0
 62
7
  6
CONTINUOUS
 10
14.8538403469
 20
-111.6141232793
  0
VERTEX
  8
0
 62
7
  6
CONTINUOUS
 10
15.2828098833
 20
-112.9605967811
  0
VERTEX
  8
0
 62
7
  6
CONTINUOUS
 10
15.729209658
 20
-114.2995537691
  0
VERTEX
  8
0
 62
7
  6
CONTINUOUS
 10
16.1928526237
 20
-115.6305697792
  0
VERTEX
  8
0
 62
7
  6
CONTINUOUS
 10
16.6734785269
 20
-116.9530628947
  0
VERTEX
  8
0
 62
7
  6
CONTINUOUS
 10
17.1710092561
 20
-118.2669839624
  0
VERTEX
  8
0
 62
7
  6
CONTINUOUS
 10
17.6853089509
 20
-119.5721258209
  0
VERTEX
  8
0
 62
7
  6
CONTINUOUS
 10
18.2162879028
 20
-120.868397874
  0
VERTEX
  8
0
 62
7
  6
CONTINUOUS
 10
18.7638657282
 20
-122.1557197561
  0
VERTEX
  8
0
 62
7
  6
CONTINUOUS
 10
19.3278991233
 20
-123.4338570758
  0
VERTEX
  8
0
 62
7
  6
CONTINUOUS
 10
19.908274971
 20
-124.7026528158
  0
VERTEX
  8
0
 62
7
  6
CONTINUOUS
 10
20.5048140376
 20
-125.9618157889
  0
VERTEX
  8
0
 62
7
  6
CONTINUOUS
 10
21.1173488526
 20
-127.2110883651
  0
VERTEX
  8
0
 62
7
  6
CONTINUOUS
 10
21.7457133308
 20
-128.4502305273
  0
VERTEX
  8
0
 62
7
  6
CONTINUOUS
 10
22.3897284771
 20
-129.6789920219
  0
VERTEX
  8
0
 62
7
  6
CONTINUOUS
 10
23.0492406603
 20
-130.8971790461
  0
VERTEX
  8
0
 62
7
  6
CONTINUOUS
 10
23.7240855528
 20
-132.1045879318
  0
VERTEX
  8
0
 62
7
  6
CONTINUOUS
 10
24.4141032369
 20
-133.3010253046
  0
VERTEX
  8
0
 62
7
  6
CONTINUOUS
 10
25.1191310553
 20
-134.4862989013
  0
VERTEX
  8
0
 62
7
  6
CONTINUOUS
 10
25.8390045466
 20
-135.6602207107
  0
VERTEX
  8
0
 62
7
  6
CONTINUOUS
 10
26.5735570341
 20
-136.8226123869
  0
VERTEX
  8
0
 62
7
  6
CONTINUOUS
 10
27.3226187232
 20
-137.9732917908
  0
VERTEX
  8
0
 62
7
  6
CONTINUOUS
 10
28.0860233258
 20
-139.112081515
  0
VERTEX
  8
0
 62
7
  6
CONTINUOUS
 10
28.8635927467
 20
-140.2387918354
  0
VERTEX
  8
0
 62
7
  6
CONTINUOUS
 10
29.6551488586
 20
-141.3532472179
  0
VERTEX
  8
0
 62
7
  6
CONTINUOUS
 10
30.4605103042
 20
-142.455270036
  0
VERTEX
  8
0
 62
7
  6
CONTINUOUS
 10
31.2794950492
 20
-143.5446853806
  0
VERTEX
  8
0
 62
7
  6
CONTINUOUS
 10
32.1119203956
 20
-144.621329734
  0
VERTEX
  8
0
 62
7
  6
CONTINUOUS
 10
32.9576005299
 20
-145.6850389544
  0
VERTEX
  8
0
 62
7
  6
CONTINUOUS
 10
33.816356973
 20
-146.7356584508
  0
VERTEX
  8
0
 62
7
  6
CONTINUOUS
 10
34.6880083039
 20
-147.773032411
  0
VERTEX
  8
0
 62
7
  6
CONTINUOUS
 10
35.5723741619
 20
-148.7970171437
  0
VERTEX
  8
0
 62
7
  6
CONTINUOUS
 10
36.4692732404
 20
-149.8074705148
  0
VERTEX
  8
0
 62
7
  6
CONTINUOUS
 10
37.3785236693
 20
-150.8042506333
  0
VERTEX
  8
0
 62
7
  6
CONTINUOUS
 10
38.2999453587
 20
-151.7872248317
  0
VERTEX
  8
0
 62
7
  6
CONTINUOUS
 10
39.2333487766
 20
-152.7562536045
  0
VERTEX
  8
0
 62
7
  6
CONTINUOUS
 10
40.1785474338
 20
-153.7112014835
  0
VERTEX
  8
0
 62
7
  6
CONTINUOUS
 10
41.1353496384
 20
-154.6519326551
  0
VERTEX
  8
0
 62
7
  6
CONTINUOUS
 10
42.1035640717
 20
-155.578315425
  0
VERTEX
  8
0
 62
7
  6
CONTINUOUS
 10
43.082999656
 20
-156.4902222919
  0
VERTEX
  8
0
 62
7
  6
CONTINUOUS
 10
44.0734626371
 20
-157.387532124
  0
VERTEX
  8
0
 62
7
  6
CONTINUOUS
 10
45.0747679237
 20
-158.270133392
  0
VERTEX
  8
0
 62
7
  6
CONTINUOUS
 10
46.086724477
 20
-159.1379094811
  0
VERTEX
  8
0
 62
7
  6
CONTINUOUS
 10
47.1091553072
 20
-159.9907558274
  0
VERTEX
  8
0
 62
7
  6
CONTINUOUS
 10
48.1418836642
 20
-160.8285696042
  0
VERTEX
  8
0
 62
7
  6
CONTINUOUS
 10
49.1847194374
 20
-161.6512452766
  0
VERTEX
  8
0
 62
7
  6
CONTINUOUS
 10
50.2374790571
 20
-162.4586846222
  0
VERTEX
  8
0
 62
7
  6
CONTINUOUS
 10
51.2999659536
 20
-163.2507797547
  0
VERTEX
  8
0
 62
7
  6
CONTINUOUS
 10
52.3719778481
 20
-164.0274211425
  0
VERTEX
  8
0
 62
7
  6
CONTINUOUS
 10
53.4533471905
 20
-164.7885304624
  0
VERTEX
  8
0
 62
7
  6
CONTINUOUS
 10
54.5438854953
 20
-165.5340152967
  0
VERTEX
  8
0
 62
7
  6
CONTINUOUS
 10
55.6434558065
 20
-166.2638172553
  0
VERTEX
  8
0
 62
7
  6
CONTINUOUS
 10
56.751917598
 20
-166.9778731387
  0
VERTEX
  8
0
 62
7
  6
CONTINUOUS
 10
57.8691001711
 20
-167.6761027782
  0
VERTEX
  8
0
 62
7
  6
CONTINUOUS
 10
58.9949063914
 20
-168.3584703934
  0
VERTEX
  8
0
 62
7
  6
CONTINUOUS
 10
60.1289787114
 20
-169.0247839592
  0
VERTEX
  8
0
 62
7
  6
CONTINUOUS
 10
61.2710482038
 20
-169.6749180667
  0
VERTEX
  8
0
 62
7
  6
CONTINUOUS
 10
62.4207342763
 20
-170.3086946401
  0
VERTEX
  8
0
 62
7
  6
CONTINUOUS
 10
63.5775866399
 20
-170.9259128327
  0
VERTEX
  8
0
 62
7
  6
CONTINUOUS
 10
64.7415190625
 20
-171.5265751864
  0
VERTEX
  8
0
 62
7
  6
CONTINUOUS
 10
65.9121805181
 20
-172.1105510702
  0
VERTEX
  8
0
 62
7
  6
CONTINUOUS
 10
67.0899210157
 20
-172.678054461
  0
VERTEX
  8
0
 62
7
  6
CONTINUOUS
 10
68.2749061448
 20
-173.229179034
  0
VERTEX
  8
0
 62
7
  6
CONTINUOUS
 10
69.4673918375
 20
-173.7640373308
  0
VERTEX
  8
0
 62
7
  6
CONTINUOUS
 10
70.6676404202
 20
-174.2827181729
  0
VERTEX
  8
0
 62
7
  6
CONTINUOUS
 10
71.8758504441
 20
-174.7852578993
  0
VERTEX
  8
0
 62
7
  6
CONTINUOUS
 10
73.092700688
 20
-175.2718594215
  0
VERTEX
  8
0
 62
7
  6
CONTINUOUS
 10
74.3170540306
 20
-175.7419910457
  0
VERTEX
  8
0
 62
7
  6
CONTINUOUS
 10
75.5486860005
 20
-176.1955133027
  0
VERTEX
  8
0
 62
7
  6
CONTINUOUS
 10
76.7854634478
 20
-176.6316341615
  0
VERTEX
  8
0
 62
7
  6
CONTINUOUS
 10
78.0257189149
 20
-177.0498367031
  0
VERTEX
  8
0
 62
7
  6
CONTINUOUS
 10
79.2676685797
 20
-177.4496587523
  0
VERTEX
  8
0
 62
7
  6
CONTINUOUS
 10
80.5091887836
 20
-177.8306318676
  0
VERTEX
  8
0
 62
7
  6
CONTINUOUS
 10
81.7494915515
 20
-178.1927809172
  0
VERTEX
  8
0
 62
7
  6
CONTINUOUS
 10
82.983957455
 20
-178.5351275288
  0
VERTEX
  8
0
 62
7
  6
CONTINUOUS
 10
84.2219081629
 20
-178.8605092626
  0
VERTEX
  8
0
 62
7
  6
CONTINUOUS
 10
85.4671900943
 20
-179.1698919434
  0
VERTEX
  8
0
 62
7
  6
CONTINUOUS
 10
86.732134453
 20
-179.4659373025
  0
VERTEX
  8
0
 62
7
  6
CONTINUOUS
 10
88.026108174
 20
-179.7499571551
  0
VERTEX
  8
0
 62
7
  6
CONTINUOUS
 10
89.3625936136
 20
-180.0235117868
  0
VERTEX
  8
0
 62
7
  6
CONTINUOUS
 10
90.7600820056
 20
-180.288230891
  0
VERTEX
  8
0
 62
7
  6
CONTINUOUS
 10
92.2137020129
 20
-180.5406544676
  0
VERTEX
  8
0
 62
7
  6
CONTINUOUS
 10
93.7256426171
 20
-180.7786070428
  0
VERTEX
  8
0
 62
7
  6
CONTINUOUS
 10
95.2827410334
 20
-180.9976565575
  0
SEQEND
  0
POLYLINE
  8
0
 62
7
  6
CONTINUOUS
 66
1
 70
0
  0
VERTEX
  8
0
 62
7
  6
CONTINUOUS
 10
0.5937490982
 20
484.9755096098
  0
VERTEX
  8
0
 62
7
  6
CONTINUOUS
 10
0.644554746
 20
478.6247393148
  0
VERTEX
  8
0
 62
7
  6
CONTINUOUS
 10
0.6967353082
 20
472.2323095087
  0
VERTEX
  8
0
 62
7
  6
CONTINUOUS
 10
0.7499833646
 20
465.837038644
  0
VERTEX
  8
0
 62
7
  6
CONTINUOUS
 10
0.8042968466
 20
459.4391716666
  0
VERTEX
  8
0
 62
7
  6
CONTINUOUS
 10
0.859673671
 20
453.0389541407
  0
VERTEX
  8
0
 62
7
  6
CONTINUOUS
 10
0.9161116684
 20
446.6366317633
  0
VERTEX
  8
0
 62
7
  6
CONTINUOUS
 10
0.9736086693
 20
440.2324502497
  0
VERTEX
  8
0
 62
7
  6
CONTINUOUS
 10
1.0321625093
 20
433.8266553675
  0
VERTEX
  8
0
 62
7
  6
CONTINUOUS
 10
1.0917709329
 20
427.4194929942
  0
VERTEX
  8
0
 62
7
  6
CONTINUOUS
 10
1.1524316348
 20
421.0112090737
  0
VERTEX
  8
0
 62
7
  6
CONTINUOUS
 10
1.2141422848
 20
414.6020495019
  0
VERTEX
  8
0
 62
7
  6
CONTINUOUS
 10
1.2769005233
 20
408.1922603748
  0
VERTEX
  8
0
 62
7
  6
CONTINUOUS
 10
1.3407039427
 20
401.7820876014
  0
VERTEX
  8
0
 62
7
  6
CONTINUOUS
 10
1.4055500883
 20
395.3717777961
  0
VERTEX
  8
0
 62
7
  6
CONTINUOUS
 10
1.4714364498
 20
388.9615773832
  0
VERTEX
  8
0
 62
7
  6
CONTINUOUS
 10
1.5383605173
 20
382.5517329448
  0
VERTEX
  8
0
 62
7
  6
CONTINUOUS
 10
1.6063197127
 20
376.1424909748
  0
VERTEX
  8
0
 62
7
  6
CONTINUOUS
 10
1.6753114306
 20
369.7340979746
  0
VERTEX
  8
0
 62
7
  6
CONTINUOUS
 10
1.7453330013
 20
363.3268003666
  0
VERTEX
  8
0
 62
7
  6
CONTINUOUS
 10
1.816381747
 20
356.9208445649
  0
VERTEX
  8
0
 62
7
  6
CONTINUOUS
 10
1.8884549446
 20
350.5164769436
  0
VERTEX
  8
0
 62
7
  6
CONTINUOUS
 10
1.9615498029
 20
344.113943792
  0
VERTEX
  8
0
 62
7
  6
CONTINUOUS
 10
2.0356635373
 20
337.713491078
  0
VERTEX
  8
0
 62
7
  6
CONTINUOUS
 10
2.1104461697
 20
331.3447239743
  0
SEQEND
  0
LINE
  8
0
 62
7
  6
CONTINUOUS
 10
8.3913352501
 20
323.6270114977
 11
10.0289804681
 21
-80.1707729192
  0
LINE
  8
0
 62
7
  6
CONTINUOUS
 10
194.6937700393
 20
429.6529652584
 11
187.2981243479
 21
422.2573195669
  0
LINE
  8
0
 62
7
  6
CONTINUOUS
 10
187.6516777385
 20
421.9037661763
 11
194.9380083411
 21
429.190096779
  0
LINE
  8
0
 62
7
  6
CONTINUOUS
 10
14.0443860487
 20
-83.9612496526
 11
12.6154510419
 21
268.3743988133
  0
LINE
  8
0
 62
7
  6
CONTINUOUS
 10
54.0327043678
 20
271.3855206368
 11
54.0327043678
 21
256.3969775527
  0
LINE
  8
CURVE
 62
1
  6
CONTINUOUS
 10
188.5327043678
 20
292.5151017723
 11
183.5327043678
 21
287.5151017723
  0
LINE
  8
0
 62
7
  6
CONTINUOUS
 10
186.272998082
 20
400.2479552759
 11
186.272998082
 21
419.7824147445
  0
LINE
  8
0
 62
7
  6
CONTINUOUS
 10
186.772998082
 20
419.7824458328
 11
186.772998082
 21
400.2477577119
  0
LINE
  8
0
 62
7
  6
CONTINUOUS
 10
54.0327043678
 20
257.7371119759
 11
318.0327043678
 21
257.7371119759
  0
LINE
  8
CURVE
 62
1
  6
CONTINUOUS
 10
188.5327043678
 20
287.5151017723
 11
183.5327043678
 21
292.5151017723
  0
LINE
  8
0
 62
7
  6
CONTINUOUS
 10
318.0327043678
 20
256.3969775527
 11
318.0327043678
 21
271.3855198404
  0
LINE
  8
0
 62
7
  6
CONTINUOUS
 10
54.0327043678
 20
268.0848038725
 11
318.0327043678
 21
268.0848038725
  0
LINE
  8
0
 62
7
  6
CONTINUOUS
 10
15.6154263702
 20
271.386565535
 11
54.0327043678
 21
271.386565535
  0
LINE
  8
0
 62
7
  6
CONTINUOUS
 10
318.0327043678
 20
271.386565535
 11
356.4499823654
 21
271.386565535
  0
POLYLINE
  8
0
 62
7
  6
CONTINUOUS
 66
1
 70
0
  0
VERTEX
  8
0
 62
7
  6
CONTINUOUS
 10
9.4648812731
 20
323.4653479173
  0
VERTEX
  8
0
 62
7
  6
CONTINUOUS
 10
14.8171120168
 20
323.0392538062
  0
VERTEX
  8
0
 62
7
  6
CONTINUOUS
 10
20.2809270399
 20
322.6183863839
  0
VERTEX
  8
0
 62
7
  6
CONTINUOUS
 10
25.78944444
 20
322.2084967691
  0
VERTEX
  8
0
 62
7
  6
CONTINUOUS
 10
31.3208467201
 20
321.8114648146
  0
VERTEX
  8
0
 62
7
  6
CONTINUOUS
 10
36.8598887025
 20
321.4284957315
  0
VERTEX
  8
0
 62
7
  6
CONTINUOUS
 10
42.3913882033
 20
321.0606305081
  0
VERTEX
  8
0
 62
7
  6
CONTINUOUS
 10
48.0509664465
 20
320.6993210212
  0
VERTEX
  8
0
 62
7
  6
CONTINUOUS
 10
53.3713679963
 20
320.3735597734
  0
VERTEX
  8
0
 62
7
  6
CONTINUOUS
 10
57.7643072866
 20
320.1147301962
  0
VERTEX
  8
0
 62
7
  6
CONTINUOUS
 10
61.72665108
 20
319.8891385302
  0
VERTEX
  8
0
 62
7
  6
CONTINUOUS
 10
65.0600538361
 20
319.7051322661
  0
VERTEX
  8
0
 62
7
  6
CONTINUOUS
 10
69.2639293822
 20
319.4806000385
  0
VERTEX
  8
0
 62
7
  6
CONTINUOUS
 10
75.7635384316
 20
319.1499659047
  0
VERTEX
  8
0
 62
7
  6
CONTINUOUS
 10
84.582179863
 20
318.7334156873
  0
VERTEX
  8
0
 62
7
  6
CONTINUOUS
 10
91.5250988526
 20
318.4314177513
  0
VERTEX
  8
0
 62
7
  6
CONTINUOUS
 10
94.2702512134
 20
318.3182922435
  0
VERTEX
  8
0
 62
7
  6
CONTINUOUS
 10
98.1791470037
 20
318.1630221398
  0
VERTEX
  8
0
 62
7
  6
CONTINUOUS
 10
105.3454109657
 20
317.8959406417
  0
VERTEX
  8
0
 62
7
  6
CONTINUOUS
 10
115.3356638479
 20
317.5615591894
  0
VERTEX
  8
0
 62
7
  6
CONTINUOUS
 10
123.7096741661
 20
317.3153090436
  0
VERTEX
  8
0
 62
7
  6
CONTINUOUS
 10
130.9970338114
 20
317.126263193
  0
VERTEX
  8
0
 62
7
  6
CONTINUOUS
 10
137.7934521383
 20
316.9711239362
  0
VERTEX
  8
0
 62
7
  6
CONTINUOUS
 10
145.1390784204
 20
316.8264190956
  0
VERTEX
  8
0
 62
7
  6
CONTINUOUS
 10
152.7316851732
 20
316.7019239395
  0
VERTEX
  8
0
 62
7
  6
CONTINUOUS
 10
160.609008007
 20
316.5996969547
  0
VERTEX
  8
0
 62
7
  6
CONTINUOUS
 10
168.7912806558
 20
316.5225542789
  0
VERTEX
  8
0
 62
7
  6
CONTINUOUS
 10
177.3154219991
 20
316.4736588023
  0
VERTEX
  8
0
 62
7
  6
CONTINUOUS
 10
186.0327043678
 20
316.4568672613
  0
SEQEND
  0
POLYLINE
  8
0
 62
7
  6
CONTINUOUS
 66
1
 70
0
  0
VERTEX
  8
0
 62
7
  6
CONTINUOUS
 10
9.464881273
 20
323.4653479178
  0
VERTEX
  8
0
 62
7
  6
CONTINUOUS
 10
9.2196722242
 20
323.4889879318
  0
VERTEX
  8
0
 62
7
  6
CONTINUOUS
 10
8.9753143694
 20
323.5201656117
  0
VERTEX
  8
0
 62
7
  6
CONTINUOUS
 10
8.7320315775
 20
323.5588520949
  0
VERTEX
  8
0
 62
7
  6
CONTINUOUS
 10
8.4900737875
 20
323.6050067838
  0
VERTEX
  8
0
 62
7
  6
CONTINUOUS
 10
8.2497579616
 20
323.6585631877
  0
VERTEX
  8
0
 62
7
  6
CONTINUOUS
 10
8.0110950938
 20
323.7195190244
  0
VERTEX
  8
0
 62
7
  6
CONTINUOUS
 10
7.7740279927
 20
323.7879139216
  0
VERTEX
  8
0
 62
7
  6
CONTINUOUS
 10
7.5390952867
 20
323.8636167512
  0
VERTEX
  8
0
 62
7
  6
CONTINUOUS
 10
7.3067478586
 20
323.946479555
  0
VERTEX
  8
0
 62
7
  6
CONTINUOUS
 10
7.0771437418
 20
324.0364345957
  0
VERTEX
  8
0
 62
7
  6
CONTINUOUS
 10
6.8505743469
 20
324.1333551918
  0
VERTEX
  8
0
 62
7
  6
CONTINUOUS
 10
6.6270673646
 20
324.2372227584
  0
VERTEX
  8
0
 62
7
  6
CONTINUOUS
 10
6.4066042032
 20
324.3480626976
  0
VERTEX
  8
0
 62
7
  6
CONTINUOUS
 10
6.1896365091
 20
324.4656648768
  0
VERTEX
  8
0
 62
7
  6
CONTINUOUS
 10
5.9765424426
 20
324.5898172201
  0
VERTEX
  8
0
 62
7
  6
CONTINUOUS
 10
5.76745745
 20
324.7204267261
  0
VERTEX
  8
0
 62
7
  6
CONTINUOUS
 10
5.5626149042
 20
324.857334497
  0
VERTEX
  8
0
 62
7
  6
CONTINUOUS
 10
5.3620739197
 20
325.0004937967
  0
VERTEX
  8
0
 62
7
  6
CONTINUOUS
 10
5.1658615221
 20
325.1498987996
  0
VERTEX
  8
0
 62
7
  6
CONTINUOUS
 10
4.9743272488
 20
325.3052978409
  0
VERTEX
  8
0
 62
7
  6
CONTINUOUS
 10
4.7877617129
 20
325.4664497612
  0
VERTEX
  8
0
 62
7
  6
CONTINUOUS
 10
4.6062979994
 20
325.6332284537
  0
VERTEX
  8
0
 62
7
  6
CONTINUOUS
 10
4.4301210775
 20
325.8054541614
  0
VERTEX
  8
0
 62
7
  6
CONTINUOUS
 10
4.2593359464
 20
325.9830179825
  0
VERTEX
  8
0
 62
7
  6
CONTINUOUS
 10
4.0940338927
 20
326.1658311482
  0
VERTEX
  8
0
 62
7
  6
CONTINUOUS
 10
3.9344390473
 20
326.3536529208
  0
VERTEX
  8
0
 62
7
  6
CONTINUOUS
 10
3.7807458272
 20
326.5462501361
  0
VERTEX
  8
0
 62
7
  6
CONTINUOUS
 10
3.6330770573
 20
326.7434614933
  0
VERTEX
  8
0
 62
7
  6
CONTINUOUS
 10
3.4915653058
 20
326.9451053385
  0
VERTEX
  8
0
 62
7
  6
CONTINUOUS
 10
3.3563441763
 20
327.1509869922
  0
VERTEX
  8
0
 62
7
  6
CONTINUOUS
 10
3.2275427335
 20
327.3609047309
  0
VERTEX
  8
0
 62
7
  6
CONTINUOUS
 10
3.1052711181
 20
327.5746747403
  0
VERTEX
  8
0
 62
7
  6
CONTINUOUS
 10
2.9896366952
 20
327.7921080457
  0
VERTEX
  8
0
 62
7
  6
CONTINUOUS
 10
2.8807477932
 20
328.0130014999
  0
VERTEX
  8
0
 62
7
  6
CONTINUOUS
 10
2.7786929178
 20
328.2371803951
  0
VERTEX
  8
0
 62
7
  6
CONTINUOUS
 10
2.6836049766
 20
328.4643523503
  0
VERTEX
  8
0
 62
7
  6
CONTINUOUS
 10
2.5956112832
 20
328.6941879339
  0
VERTEX
  8
0
 62
7
  6
CONTINUOUS
 10
2.5147391333
 20
328.9265902475
  0
VERTEX
  8
0
 62
7
  6
CONTINUOUS
 10
2.4410333429
 20
329.1614355103
  0
VERTEX
  8
0
 62
7
  6
CONTINUOUS
 10
2.3745763825
 20
329.3984780221
  0
VERTEX
  8
0
 62
7
  6
CONTINUOUS
 10
2.3154212962
 20
329.6375534166
  0
VERTEX
  8
0
 62
7
  6
CONTINUOUS
 10
2.2636646239
 20
329.8782803146
  0
VERTEX
  8
0
 62
7
  6
CONTINUOUS
 10
2.2193859071
 20
330.1202161436
  0
VERTEX
  8
0
 62
7
  6
CONTINUOUS
 10
2.1825715943
 20
330.3633530357
  0
VERTEX
  8
0
 62
7
  6
CONTINUOUS
 10
2.1532343855
 20
330.6076316246
  0
VERTEX
  8
0
 62
7
  6
CONTINUOUS
 10
2.1314172934
 20
330.8527712584
  0
VERTEX
  8
0
 62
7
  6
CONTINUOUS
 10
2.1171476447
 20
331.0985447546
  0
VERTEX
  8
0
 62
7
  6
CONTINUOUS
 10
2.1104461675
 20
331.3447239672
  0
SEQEND
  0
LINE
  8
0
 62
7
  6
CONTINUOUS
 10
359.4499576932
 20
268.3743986791
 11
358.0210226869
 21
-83.9612496526
  0
LINE
  8
0
 62
7
  6
CONTINUOUS
 10
363.6740734817
 20
323.6270105461
 11
362.036428252
 21
-80.170776758
  0
POLYLINE
  8
0
 62
7
  6
CONTINUOUS
 66
1
 70
0
  0
VERTEX
  8
0
 62
7
  6
CONTINUOUS
 10
369.9549625668
 20
331.3447239762
  0
VERTEX
  8
0
 62
7
  6
CONTINUOUS
 10
370.029745198
 20
337.713491073
  0
VERTEX
  8
0
 62
7
  6
CONTINUOUS
 10
370.1038589326
 20
344.1139437487
  0
VERTEX
  8
0
 62
7
  6
CONTINUOUS
 10
370.1769537933
 20
350.5164768633
  0
VERTEX
  8
0
 62
7
  6
CONTINUOUS
 10
370.2490269881
 20
356.9208444454
  0
VERTEX
  8
0
 62
7
  6
CONTINUOUS
 10
370.3200757339
 20
363.3268001996
  0
VERTEX
  8
0
 62
7
  6
CONTINUOUS
 10
370.3900973053
 20
369.7340977526
  0
VERTEX
  8
0
 62
7
  6
CONTINUOUS
 10
370.4590890198
 20
376.142490698
  0
VERTEX
  8
0
 62
7
  6
CONTINUOUS
 10
370.5270482148
 20
382.5517326212
  0
VERTEX
  8
0
 62
7
  6
CONTINUOUS
 10
370.5939722824
 20
388.9615770122
  0
VERTEX
  8
0
 62
7
  6
CONTINUOUS
 10
370.6598586467
 20
395.3717773749
  0
VERTEX
  8
0
 62
7
  6
CONTINUOUS
 10
370.7247047895
 20
401.7820871332
  0
VERTEX
  8
0
 62
7
  6
CONTINUOUS
 10
370.7885082072
 20
408.1922598676
  0
VERTEX
  8
0
 62
7
  6
CONTINUOUS
 10
370.8512664456
 20
414.6020489686
  0
VERTEX
  8
0
 62
7
  6
CONTINUOUS
 10
370.912977097
 20
421.0112085228
  0
VERTEX
  8
0
 62
7
  6
CONTINUOUS
 10
370.9736377983
 20
427.4194924357
  0
VERTEX
  8
0
 62
7
  6
CONTINUOUS
 10
371.0332462199
 20
433.8266548135
  0
VERTEX
  8
0
 62
7
  6
CONTINUOUS
 10
371.0918000626
 20
440.2324497152
  0
VERTEX
  8
0
 62
7
  6
CONTINUOUS
 10
371.1492970731
 20
446.6366312788
  0
VERTEX
  8
0
 62
7
  6
CONTINUOUS
 10
371.2057350709
 20
453.0389537325
  0
VERTEX
  8
0
 62
7
  6
CONTINUOUS
 10
371.2611118864
 20
459.4391713323
  0
VERTEX
  8
0
 62
7
  6
CONTINUOUS
 10
371.3154253652
 20
465.8370383794
  0
VERTEX
  8
0
 62
7
  6
CONTINUOUS
 10
371.3686734221
 20
472.2323093409
  0
VERTEX
  8
0
 62
7
  6
CONTINUOUS
 10
371.4208539977
 20
478.6247393145
  0
VERTEX
  8
0
 62
7
  6
CONTINUOUS
 10
371.4716596663
 20
484.9755098558
  0
SEQEND
  0
POLYLINE
  8
0
 62
7
  6
CONTINUOUS
 66
1
 70
0
  0
VERTEX
  8
0
 62
7
  6
CONTINUOUS
 10
369.9549625681
 20
331.3447239691
  0
VERTEX
  8
0
 62
7
  6
CONTINUOUS
 10
369.9482523719
 20
331.0983403047
  0
VERTEX
  8
0
 62
7
  6
CONTINUOUS
 10
369.933956422
 20
330.8522950804
  0
VERTEX
  8
0
 62
7
  6
CONTINUOUS
 10
369.9120886066
 20
330.6068117198
  0
VERTEX
  8
0
 62
7
  6
CONTINUOUS
 10
369.8826719417
 20
330.3621365899
  0
VERTEX
  8
0
 62
7
  6
CONTINUOUS
 10
369.8457464753
 20
330.1185641206
  0
VERTEX
  8
0
 62
7
  6
CONTINUOUS
 10
369.8013231766
 20
329.8761660435
  0
VERTEX
  8
0
 62
7
  6
CONTINUOUS
 10
369.7493879548
 20
329.6349619783
  0
VERTEX
  8
0
 62
7
  6
CONTINUOUS
 10
369.6900222069
 20
329.395409804
  0
VERTEX
  8
0
 62
7
  6
CONTINUOUS
 10
369.623326124
 20
329.157905934
  0
VERTEX
  8
0
 62
7
  6
CONTINUOUS
 10
369.549356707
 20
328.9226252462
  0
VERTEX
  8
0
 62
7
  6
CONTINUOUS
 10
369.4682021228
 20
328.6898249276
  0
VERTEX
  8
0
 62
7
  6
CONTINUOUS
 10
369.3799134526
 20
328.4596379705
  0
VERTEX
  8
0
 62
7
  6
CONTINUOUS
 10
369.2845274498
 20
328.2321748322
  0
VERTEX
  8
0
 62
7
  6
CONTINUOUS
 10
369.1821742177
 20
328.0077596827
  0
VERTEX
  8
0
 62
7
  6
CONTINUOUS
 10
369.0729917058
 20
327.7866852188
  0
VERTEX
  8
0
 62
7
  6
CONTINUOUS
 10
368.9570708269
 20
327.569121408
  0
VERTEX
  8
0
 62
7
  6
CONTINUOUS
 10
368.8345222593
 20
327.3552673937
  0
VERTEX
  8
0
 62
7
  6
CONTINUOUS
 10
368.7054563415
 20
327.1453097926
  0
VERTEX
  8
0
 62
7
  6
CONTINUOUS
 10
368.5699852154
 20
326.9394288308
  0
VERTEX
  8
0
 62
7
  6
CONTINUOUS
 10
368.4282416114
 20
326.7378253712
  0
VERTEX
  8
0
 62
7
  6
CONTINUOUS
 10
368.2803618722
 20
326.5406918136
  0
VERTEX
  8
0
 62
7
  6
CONTINUOUS
 10
368.1264827537
 20
326.3482093794
  0
VERTEX
  8
0
 62
7
  6
CONTINUOUS
 10
367.9667317936
 20
326.160539166
  0
VERTEX
  8
0
 62
7
  6
CONTINUOUS
 10
367.8013045992
 20
325.9779097226
  0
VERTEX
  8
0
 62
7
  6
CONTINUOUS
 10
367.6304269291
 20
325.8005580411
  0
VERTEX
  8
0
 62
7
  6
CONTINUOUS
 10
367.4541918256
 20
325.6285697621
  0
VERTEX
  8
0
 62
7
  6
CONTINUOUS
 10
367.2727056879
 20
325.4620504373
  0
VERTEX
  8
0
 62
7
  6
CONTINUOUS
 10
367.0861548001
 20
325.3011764451
  0
VERTEX
  8
0
 62
7
  6
CONTINUOUS
 10
366.8946745566
 20
325.1460715145
  0
VERTEX
  8
0
 62
7
  6
CONTINUOUS
 10
366.6985526052
 20
324.9969702572
  0
VERTEX
  8
0
 62
7
  6
CONTINUOUS
 10
366.4981337491
 20
324.8541174309
  0
VERTEX
  8
0
 62
7
  6
CONTINUOUS
 10
366.2934497569
 20
324.717519512
  0
VERTEX
  8
0
 62
7
  6
CONTINUOUS
 10
366.0845620001
 20
324.5872216249
  0
VERTEX
  8
0
 62
7
  6
CONTINUOUS
 10
365.8717066361
 20
324.4633809528
  0
VERTEX
  8
0
 62
7
  6
CONTINUOUS
 10
365.6550244083
 20
324.3460898725
  0
VERTEX
  8
0
 62
7
  6
CONTINUOUS
 10
365.4348880316
 20
324.2355537959
  0
VERTEX
  8
0
 62
7
  6
CONTINUOUS
 10
365.2117485293
 20
324.1319793166
  0
VERTEX
  8
0
 62
7
  6
CONTINUOUS
 10
364.9855756745
 20
324.035333429
  0
VERTEX
  8
0
 62
7
  6
CONTINUOUS
 10
364.7563890513
 20
323.9456300352
  0
VERTEX
  8
0
 62
7
  6
CONTINUOUS
 10
364.5244654119
 20
323.8629898755
  0
VERTEX
  8
0
 62
7
  6
CONTINUOUS
 10
364.2899496537
 20
323.787477177
  0
VERTEX
  8
0
 62
7
  6
CONTINUOUS
 10
364.0532766524
 20
323.719237171
  0
VERTEX
  8
0
 62
7
  6
CONTINUOUS
 10
363.8149684985
 20
323.6584001088
  0
VERTEX
  8
0
 62
7
  6
CONTINUOUS
 10
363.5749542395
 20
323.6049280784
  0
VERTEX
  8
0
 62
7
  6
CONTINUOUS
 10
363.3332306489
 20
323.5588264799
  0
VERTEX
  8
0
 62
7
  6
CONTINUOUS
 10
363.0900992725
 20
323.5201663147
  0
VERTEX
  8
0
 62
7
  6
CONTINUOUS
 10
362.8457885293
 20
323.4889937566
  0
VERTEX
  8
0
 62
7
  6
CONTINUOUS
 10
362.6005274581
 20
323.4653479175
  0
SEQEND
  0
POLYLINE
  8
0
 62
7
  6
CONTINUOUS
 66
1
 70
0
  0
VERTEX
  8
0
 62
7
  6
CONTINUOUS
 10
186.0327043678
 20
316.4568673774
  0
VERTEX
  8
0
 62
7
  6
CONTINUOUS
 10
193.1493151461
 20
316.468058353
  0
VERTEX
  8
0
 62
7
  6
CONTINUOUS
 10
200.2116458338
 20
316.5012917711
  0
VERTEX
  8
0
 62
7
  6
CONTINUOUS
 10
207.1507580663
 20
316.5554135095
  0
VERTEX
  8
0
 62
7
  6
CONTINUOUS
 10
214.0027191132
 20
316.629743366
  0
VERTEX
  8
0
 62
7
  6
CONTINUOUS
 10
220.7889612276
 20
316.7238107006
  0
VERTEX
  8
0
 62
7
  6
CONTINUOUS
 10
227.5240051307
 20
316.8373013533
  0
VERTEX
  8
0
 62
7
  6
CONTINUOUS
 10
234.1261086564
 20
316.9680361469
  0
VERTEX
  8
0
 62
7
  6
CONTINUOUS
 10
240.8691365018
 20
317.1214204262
  0
VERTEX
  8
0
 62
7
  6
CONTINUOUS
 10
247.8908867339
 20
317.3025420476
  0
VERTEX
  8
0
 62
7
  6
CONTINUOUS
 10
254.6627465219
 20
317.4978949565
  0
VERTEX
  8
0
 62
7
  6
CONTINUOUS
 10
261.3049413606
 20
317.7092144678
  0
VERTEX
  8
0
 62
7
  6
CONTINUOUS
 10
267.5067567062
 20
317.9241518943
  0
VERTEX
  8
0
 62
7
  6
CONTINUOUS
 10
273.1449028028
 20
318.134341304
  0
VERTEX
  8
0
 62
7
  6
CONTINUOUS
 10
278.2025608162
 20
318.3346448262
  0
VERTEX
  8
0
 62
7
  6
CONTINUOUS
 10
283.0321073107
 20
318.5370340891
  0
VERTEX
  8
0
 62
7
  6
CONTINUOUS
 10
288.4183375889
 20
318.7756307974
  0
VERTEX
  8
0
 62
7
  6
CONTINUOUS
 10
293.9640155092
 20
319.0359280621
  0
VERTEX
  8
0
 62
7
  6
CONTINUOUS
 10
299.3198422439
 20
319.3009946257
  0
VERTEX
  8
0
 62
7
  6
CONTINUOUS
 10
304.4940658475
 20
319.5699932242
  0
VERTEX
  8
0
 62
7
  6
CONTINUOUS
 10
309.5577635145
 20
319.845553563
  0
VERTEX
  8
0
 62
7
  6
CONTINUOUS
 10
314.5700584305
 20
320.1303133946
  0
VERTEX
  8
0
 62
7
  6
CONTINUOUS
 10
319.5765491902
 20
320.4266633568
  0
VERTEX
  8
0
 62
7
  6
CONTINUOUS
 10
324.6437645659
 20
320.738743977
  0
VERTEX
  8
0
 62
7
  6
CONTINUOUS
 10
329.767578989
 20
321.0667313837
  0
VERTEX
  8
0
 62
7
  6
CONTINUOUS
 10
334.9591557021
 20
321.4118016608
  0
VERTEX
  8
0
 62
7
  6
CONTINUOUS
 10
340.238506217
 20
321.7758691359
  0
VERTEX
  8
0
 62
7
  6
CONTINUOUS
 10
345.6209463517
 20
322.1607194357
  0
VERTEX
  8
0
 62
7
  6
CONTINUOUS
 10
351.1313917522
 20
322.5690338815
  0
VERTEX
  8
0
 62
7
  6
CONTINUOUS
 10
356.8046640361
 20
323.0045516043
  0
VERTEX
  8
0
 62
7
  6
CONTINUOUS
 10
362.6005187469
 20
323.4653421985
  0
SEQEND
  0
LINE
  8
0
 62
7
  6
CONTINUOUS
 10
187.2985402463
 20
397.7724680793
 11
194.6937700393
 21
390.3772382863
  0
LINE
  8
0
 62
7
  6
CONTINUOUS
 10
194.9380083411
 20
390.8401067657
 11
187.6516777385
 21
398.1264373683
  0
POLYLINE
  8
0
 62
7
  6
CONTINUOUS
 66
1
 70
0
  0
VERTEX
  8
0
 62
7
  6
CONTINUOUS
 10
371.4716591627
 20
484.9755087121
  0
VERTEX
  8
0
 62
7
  6
CONTINUOUS
 10
371.4708081355
 20
485.115485471
  0
VERTEX
  8
0
 62
7
  6
CONTINUOUS
 10
371.4643860815
 20
485.2875778696
  0
VERTEX
  8
0
 62
7
  6
CONTINUOUS
 10
371.4520414345
 20
485.4593470158
  0
VERTEX
  8
0
 62
7
  6
CONTINUOUS
 10
371.4337888401
 20
485.6305891479
  0
VERTEX
  8
0
 62
7
  6
CONTINUOUS
 10
371.4096499519
 20
485.8011011277
  0
VERTEX
  8
0
 62
7
  6
CONTINUOUS
 10
371.379653406
 20
485.9706806833
  0
VERTEX
  8
0
 62
7
  6
CONTINUOUS
 10
371.343834787
 20
486.1391266488
  0
VERTEX
  8
0
 62
7
  6
CONTINUOUS
 10
371.3022365854
 20
486.306239203
  0
VERTEX
  8
0
 62
7
  6
CONTINUOUS
 10
371.2549081479
 20
486.4718201064
  0
VERTEX
  8
0
 62
7
  6
CONTINUOUS
 10
371.2019056179
 20
486.6356729365
  0
VERTEX
  8
0
 62
7
  6
CONTINUOUS
 10
371.14329187
 20
486.7976033207
  0
VERTEX
  8
0
 62
7
  6
CONTINUOUS
 10
371.0791364344
 20
486.9574191668
  0
VERTEX
  8
0
 62
7
  6
CONTINUOUS
 10
371.0095154152
 20
487.1149308906
  0
VERTEX
  8
0
 62
7
  6
CONTINUOUS
 10
370.9345114
 20
487.269951641
  0
VERTEX
  8
0
 62
7
  6
CONTINUOUS
 10
370.8542133601
 20
487.4222975242
  0
VERTEX
  8
0
 62
7
  6
CONTINUOUS
 10
370.7687165529
 20
487.5717878083
  0
VERTEX
  8
0
 62
7
  6
CONTINUOUS
 10
370.6781223995
 20
487.7182451562
  0
VERTEX
  8
0
 62
7
  6
CONTINUOUS
 10
370.5825383794
 20
487.8614958114
  0
VERTEX
  8
0
 62
7
  6
CONTINUOUS
 10
370.4820778903
 20
488.0013698276
  0
VERTEX
  8
0
 62
7
  6
CONTINUOUS
 10
370.3768601179
 20
488.137701263
  0
VERTEX
  8
0
 62
7
  6
CONTINUOUS
 10
370.2670098928
 20
488.2703283803
  0
VERTEX
  8
0
 62
7
  6
CONTINUOUS
 10
370.1526575418
 20
488.3990938386
  0
VERTEX
  8
0
 62
7
  6
CONTINUOUS
 10
370.0339387456
 20
488.523844868
  0
VERTEX
  8
0
 62
7
  6
CONTINUOUS
 10
369.9109943202
 20
488.6444335084
  0
VERTEX
  8
0
 62
7
  6
CONTINUOUS
 10
369.7839701185
 20
488.7607167105
  0
VERTEX
  8
0
 62
7
  6
CONTINUOUS
 10
369.65301677
 20
488.872556585
  0
VERTEX
  8
0
 62
7
  6
CONTINUOUS
 10
369.5182895743
 20
488.9798204929
  0
VERTEX
  8
0
 62
7
  6
CONTINUOUS
 10
369.3799483026
 20
489.0823812175
  0
VERTEX
  8
0
 62
7
  6
CONTINUOUS
 10
369.2381570016
 20
489.1801171193
  0
VERTEX
  8
0
 62
7
  6
CONTINUOUS
 10
369.0930838361
 20
489.272912256
  0
VERTEX
  8
0
 62
7
  6
CONTINUOUS
 10
368.944900791
 20
489.3606565826
  0
VERTEX
  8
0
 62
7
  6
CONTINUOUS
 10
368.7937837947
 20
489.4432458943
  0
VERTEX
  8
0
 62
7
  6
CONTINUOUS
 10
368.6399121635
 20
489.5205821737
  0
VERTEX
  8
0
 62
7
  6
CONTINUOUS
 10
368.4834686462
 20
489.5925735716
  0
VERTEX
  8
0
 62
7
  6
CONTINUOUS
 10
368.3246390011
 20
489.6591346313
  0
VERTEX
  8
0
 62
7
  6
CONTINUOUS
 10
368.1636118835
 20
489.7201863401
  0
VERTEX
  8
0
 62
7
  6
CONTINUOUS
 10
368.0005779194
 20
489.77565646
  0
VERTEX
  8
0
 62
7
  6
CONTINUOUS
 10
367.8357326432
 20
489.8254785951
  0
VERTEX
  8
0
 62
7
  6
CONTINUOUS
 10
367.66927291
 20
489.8695935675
  0
VERTEX
  8
0
 62
7
  6
CONTINUOUS
 10
367.5013985858
 20
489.9079489191
  0
VERTEX
  8
0
 62
7
  6
CONTINUOUS
 10
367.3323118779
 20
489.9404992403
  0
VERTEX
  8
0
 62
7
  6
CONTINUOUS
 10
367.1622128905
 20
489.9672069194
  0
VERTEX
  8
0
 62
7
  6
CONTINUOUS
 10
366.9913159004
 20
489.9880398371
  0
VERTEX
  8
0
 62
7
  6
CONTINUOUS
 10
366.8197875361
 20
490.0029779596
  0
VERTEX
  8
0
 62
7
  6
CONTINUOUS
 10
366.6477948925
 20
490.0120032496
  0
SEQEND
  0
POLYLINE
  8
0
 62
7
  6
CONTINUOUS
 66
1
 70
0
  0
VERTEX
  8
0
 62
7
  6
CONTINUOUS
 10
370.0272327608
 20
488.5304223568
  0
VERTEX
  8
0
 62
7
  6
CONTINUOUS
 10
369.98314257
 20
488.6039659822
  0
VERTEX
  8
0
 62
7
  6
CONTINUOUS
 10
369.9239250773
 20
488.6950912201
  0
SEQEND
  0
LINE
  8
0
 62
7
  6
CONTINUOUS
 10
370.0272357015
 20
488.5304194725
 11
369.9830853108
 21
488.6040576841
  0
LINE
  8
0
 62
7
  6
CONTINUOUS
 10
367.4402089098
 20
490.0151012978
 11
4.6269684755
 21
490.0151017723
  0
LINE
  8
0
 62
7
  6
CONTINUOUS
 10
367.5447443954
 20
490.0132176603
 11
367.4384403121
 21
490.0151016797
  0
LINE
  8
0
 62
7
  6
CONTINUOUS
 10
367.5450359742
 20
490.0132073075
 11
367.4384403144
 21
490.0151016796
  0
LINE
  8
0
 62
7
  6
CONTINUOUS
 10
366.6477948925
 20
490.0120032496
 11
366.4755537333
 21
490.0150996545
  0
LINE
  8
0
 62
7
  6
CONTINUOUS
 10
367.6534395809
 20
490.0073876415
 11
367.5447443954
 21
490.0132176603
  0
LINE
  8
0
 62
7
  6
CONTINUOUS
 10
367.8689919857
 20
489.9840451216
 11
367.7612851128
 21
489.9976796195
  0
POLYLINE
  8
0
 62
7
  6
CONTINUOUS
 66
1
 70
0
  0
VERTEX
  8
0
 62
7
  6
CONTINUOUS
 10
367.8692600776
 20
489.984006231
  0
VERTEX
  8
0
 62
7
  6
CONTINUOUS
 10
367.7615613124
 20
489.9976497097
  0
VERTEX
  8
0
 62
7
  6
CONTINUOUS
 10
367.6531555472
 20
490.0074080362
  0
SEQEND
  0
LINE
  8
0
 62
7
  6
CONTINUOUS
 10
367.9763954035
 20
489.966474953
 11
367.8689919857
 21
489.9840451216
  0
LINE
  8
0
 62
7
  6
CONTINUOUS
 10
368.1881719069
 20
489.9199084484
 11
368.0825755062
 21
489.9451340523
  0
POLYLINE
  8
0
 62
7
  6
CONTINUOUS
 66
1
 70
0
  0
VERTEX
  8
0
 62
7
  6
CONTINUOUS
 10
368.1884142546
 20
489.9198458876
  0
VERTEX
  8
0
 62
7
  6
CONTINUOUS
 10
368.0828266424
 20
489.9450788315
  0
VERTEX
  8
0
 62
7
  6
CONTINUOUS
 10
367.9761356764
 20
489.9665222824
  0
SEQEND
  0
LINE
  8
0
 62
7
  6
CONTINUOUS
 10
368.2930199701
 20
489.8908091424
 11
368.1881719069
 21
489.9199084484
  0
LINE
  8
0
 62
7
  6
CONTINUOUS
 10
368.4985240293
 20
489.8215624877
 11
368.396282482
 21
489.8580821854
  0
POLYLINE
  8
0
 62
7
  6
CONTINUOUS
 66
1
 70
0
  0
VERTEX
  8
0
 62
7
  6
CONTINUOUS
 10
368.4987390745
 20
489.8214812493
  0
VERTEX
  8
0
 62
7
  6
CONTINUOUS
 10
368.3965067587
 20
489.8580066134
  0
VERTEX
  8
0
 62
7
  6
CONTINUOUS
 10
368.292786584
 20
489.8908784879
  0
SEQEND
  0
POLYLINE
  8
0
 62
7
  6
CONTINUOUS
 66
1
 70
0
  0
VERTEX
  8
0
 62
7
  6
CONTINUOUS
 10
368.7963925116
 20
489.6901653251
  0
VERTEX
  8
0
 62
7
  6
CONTINUOUS
 10
368.6987101602
 20
489.7375490376
  0
VERTEX
  8
0
 62
7
  6
CONTINUOUS
 10
368.5993772926
 20
489.7813672233
  0
SEQEND
  0
POLYLINE
  8
0
 62
7
  6
CONTINUOUS
 66
1
 70
0
  0
VERTEX
  8
0
 62
7
  6
CONTINUOUS
 10
368.796579383
 20
489.6900704547
  0
VERTEX
  8
0
 62
7
  6
CONTINUOUS
 10
368.6989064772
 20
489.7374581503
  0
VERTEX
  8
0
 62
7
  6
CONTINUOUS
 10
368.5995830093
 20
489.7812808798
  0
VERTEX
  8
0
 62
7
  6
CONTINUOUS
 10
368.4985240293
 20
489.8215624877
  0
SEQEND
  0
POLYLINE
  8
0
 62
7
  6
CONTINUOUS
 66
1
 70
0
  0
VERTEX
  8
0
 62
7
  6
CONTINUOUS
 10
369.0784272555
 20
489.5271610817
  0
VERTEX
  8
0
 62
7
  6
CONTINUOUS
 10
368.9864641139
 20
489.584853019
  0
VERTEX
  8
0
 62
7
  6
CONTINUOUS
 10
368.892473798
 20
489.6391798572
  0
VERTEX
  8
0
 62
7
  6
CONTINUOUS
 10
368.7963925116
 20
489.6901653251
  0
SEQEND
  0
POLYLINE
  8
0
 62
7
  6
CONTINUOUS
 66
1
 70
0
  0
VERTEX
  8
0
 62
7
  6
CONTINUOUS
 10
369.0782687402
 20
489.5272645606
  0
VERTEX
  8
0
 62
7
  6
CONTINUOUS
 10
368.9862961695
 20
489.5849541816
  0
VERTEX
  8
0
 62
7
  6
CONTINUOUS
 10
368.8922963923
 20
489.639278152
  0
SEQEND
  0
POLYLINE
  8
0
 62
7
  6
CONTINUOUS
 66
1
 70
0
  0
VERTEX
  8
0
 62
7
  6
CONTINUOUS
 10
369.3409635807
 20
489.334671631
  0
VERTEX
  8
0
 62
7
  6
CONTINUOUS
 10
369.2557931095
 20
489.4019884342
  0
VERTEX
  8
0
 62
7
  6
CONTINUOUS
 10
369.1682427876
 20
489.4661796032
  0
VERTEX
  8
0
 62
7
  6
CONTINUOUS
 10
369.0782687402
 20
489.5272645606
  0
SEQEND
  0
POLYLINE
  8
0
 62
7
  6
CONTINUOUS
 66
1
 70
0
  0
VERTEX
  8
0
 62
7
  6
CONTINUOUS
 10
369.340832894
 20
489.3347788148
  0
VERTEX
  8
0
 62
7
  6
CONTINUOUS
 10
369.25565325
 20
489.4020949154
  0
VERTEX
  8
0
 62
7
  6
CONTINUOUS
 10
369.1680936431
 20
489.4662848524
  0
SEQEND
  0
POLYLINE
  8
0
 62
7
  6
CONTINUOUS
 66
1
 70
0
  0
VERTEX
  8
0
 62
7
  6
CONTINUOUS
 10
369.7273319199
 20
488.9544249239
  0
VERTEX
  8
0
 62
7
  6
CONTINUOUS
 10
369.6556662422
 20
489.0359699669
  0
VERTEX
  8
0
 62
7
  6
CONTINUOUS
 10
369.5810970968
 20
489.114868663
  0
VERTEX
  8
0
 62
7
  6
CONTINUOUS
 10
369.5037221359
 20
489.1910176917
  0
VERTEX
  8
0
 62
7
  6
CONTINUOUS
 10
369.4236426768
 20
489.2643173421
  0
VERTEX
  8
0
 62
7
  6
CONTINUOUS
 10
369.340832894
 20
489.3347788148
  0
SEQEND
  0
POLYLINE
  8
0
 62
7
  6
CONTINUOUS
 66
1
 70
0
  0
VERTEX
  8
0
 62
7
  6
CONTINUOUS
 10
369.7272445224
 20
488.9545280704
  0
VERTEX
  8
0
 62
7
  6
CONTINUOUS
 10
369.6555706114
 20
489.0360748847
  0
VERTEX
  8
0
 62
7
  6
CONTINUOUS
 10
369.5809929969
 20
489.114974884
  0
VERTEX
  8
0
 62
7
  6
CONTINUOUS
 10
369.503609354
 20
489.1911247336
  0
VERTEX
  8
0
 62
7
  6
CONTINUOUS
 10
369.4235210244
 20
489.264424709
  0
SEQEND
  0
POLYLINE
  8
0
 62
7
  6
CONTINUOUS
 66
1
 70
0
  0
VERTEX
  8
0
 62
7
  6
CONTINUOUS
 10
369.9239894104
 20
488.6949960376
  0
VERTEX
  8
0
 62
7
  6
CONTINUOUS
 10
369.8615814063
 20
488.7838262577
  0
VERTEX
  8
0
 62
7
  6
CONTINUOUS
 10
369.7960002826
 20
488.8703403172
  0
VERTEX
  8
0
 62
7
  6
CONTINUOUS
 10
369.7272445224
 20
488.9545280704
  0
SEQEND
  0
POLYLINE
  8
0
 62
7
  6
CONTINUOUS
 66
1
 70
0
  0
VERTEX
  8
0
 62
7
  6
CONTINUOUS
 10
369.9239250773
 20
488.6950912201
  0
VERTEX
  8
0
 62
7
  6
CONTINUOUS
 10
369.8615096787
 20
488.7839245198
  0
VERTEX
  8
0
 62
7
  6
CONTINUOUS
 10
369.79592086
 20
488.8704412397
  0
SEQEND
  0
ARC
  8
0
 62
7
  6
CONTINUOUS
 10
108.3323919545
 20
-83.5788545332
 40
94.2887813248
 50
180.2323679042
 51
262.4825736802
  0
ARC
  8
0
 62
7
  6
CONTINUOUS
 10
111.3001768504
 20
266.0059473811
 40
28.0
 50
4.257903996
 51
175.7420932998
  0
ARC
  8
0
 62
7
  6
CONTINUOUS
 10
5.5935925032
 20
485.0151017723
 40
5.0
 50
90.0
 51
180.4537082306
  0
ARC
  8
0
 62
7
  6
CONTINUOUS
 10
4.6269685377
 20
487.0151017723
 40
3.0
 50
90.0
 51
149.6614374288
  0
ARC
  8
0
 62
7
  6
CONTINUOUS
 10
15.6154263702
 20
268.386565535
 40
3.0
 50
90.0
 51
180.2239795785
  0
ARC
  8
0
 62
7
  6
CONTINUOUS
 10
263.7330167811
 20
-83.5788545332
 40
94.2887813248
 50
277.5174263198
 51
359.7676320958
  0
ARC
  8
0
 62
7
  6
CONTINUOUS
 10
186.0327043678
 20
505.2297015081
 40
692.2019519285
 50
262.4666395514
 51
277.5333604486
  0
ARC
  8
0
 62
7
  6
CONTINUOUS
 10
186.0327043678
 20
505.229701508
 40
688.2019519285
 50
262.4825736802
 51
277.5174263198
  0
ARC
  8
0
 62
7
  6
CONTINUOUS
 10
260.7652318852
 20
266.0059473811
 40
28.0
 50
4.257903996
 51
175.7420932998
  0
ARC
  8
0
 62
7
  6
CONTINUOUS
 10
186.0327043678
 20
410.0151017723
 40
21.462985367
 50
66.2006451423
 51
293.7993548577
  0
ARC
  8
0
 62
7
  6
CONTINUOUS
 10
186.0327043678
 20
410.0151017723
 40
21.1420168659
 50
293.4615672859
 51
66.5384327141
  0
ARC
  8
0
 62
7
  6
CONTINUOUS
 10
186.0327043678
 20
410.0151017723
 40
18.624232976
 50
69.6299755874
 51
290.3700244126
  0
ARC
  8
0
 62
7
  6
CONTINUOUS
 10
186.0327043678
 20
410.0151017723
 40
18.5087010099
 50
291.8996949002
 51
68.1004275185
  0
ARC
  8
0
 62
7
  6
CONTINUOUS
 10
189.772998082
 20
419.7824458328
 40
3.5
 50
135.0
 51
180.0
  0
ARC
  8
0
 62
7
  6
CONTINUOUS
 10
189.772998082
 20
400.2477577119
 40
3.5
 50
179.9967658328
 51
225.0096284608
  0
ARC
  8
0
 62
7
  6
CONTINUOUS
 10
189.772998082
 20
400.2477577119
 40
3.0
 50
180.0
 51
225.0
  0
ARC
  8
0
 62
7
  6
CONTINUOUS
 10
189.772998082
 20
419.7824458328
 40
3.0
 50
135.0
 51
180.0
  0
ARC
  8
0
 62
7
  6
CONTINUOUS
 10
356.4499823654
 20
268.386565535
 40
3.0
 50
359.7676320958
 51
90.0000000011
  0
ENDSEC
  0
EOF
