999
DXF file: k:\Client\125_Heirloom\001\00\Creo\ASM WITH VIEWS\veloso-373112s_2.dxf
999
Pro/ENGINEER 2017110 by Parametric Technology Corporation
  0
SECTION
  2
HEADER
  9
$EXTMAX
 10
420.0
 20
297.0
 30
0.0
  9
$EXTMIN
 10
0.0
 20
0.0
 30
0.0
  9
$LIMMIN
 10
0.0
 20
0.0
  9
$LIMMAX
 10
420.0
 20
297.0
  9
$VIEWCTR
 10
210.0
 20
148.5
  9
$VIEWSIZE
 40
297.0
  9
$CLAYER
  8
0
  9
$LTSCALE
 40
23.1
  9
$CELTYPE
  6
BYLAYER
  9
$DIMSCALE
 40
1.0
  9
$DIMASZ
 40
3.0
  9
$DIMEXO
 40
1.0
  9
$DIMDLI
 40
15.96
  9
$DIMEXE
 40
1.0
  9
$DIMCEN
 40
3.78
  9
$DIMLFAC
 40
1.0
  9
$DIMBLK
  1
_FILLED
  9
$DIMALT
 70
0
  9
$DIMALTF
 40
0.0393700787
  9
$DIMTXT
 40
3.0
  9
$AUNITS
 70
0
  9
$PDMODE
 70
3
  9
$PDSIZE
 40
5.0
  9
$TILEMODE
 70
1
  0
ENDSEC
  0
SECTION
  2
TABLES
  0
TABLE
  2
LTYPE
 70
6
  0
LTYPE
  2
BYBLOCK
 70
0
  3

 72
65
 73
0
 40
0.0
  0
LTYPE
  2
BYLAYER
 70
0
  3

 72
65
 73
0
 40
0.0
  0
LTYPE
  2
CONTINUOUS
 70
64
  3
Solid line
 72
65
 73
0
 40
0.0
  0
LTYPE
  2
CENTER
 70
64
  3
____ _ ____ _ ____ _ ____ _ ____ _ ____ _ ____
 72
65
 73
4
 40
0.6
 49
0.375
 49
-0.075
 49
0.075
 49
-0.075
  0
LTYPE
  2
HIDDEN
 70
64
  3
- - - - - - - - - - - - - - - - - - - -
 72
65
 73
2
 40
0.2
 49
0.1
 49
-0.1
  0
LTYPE
  2
PHANTOM
 70
64
  3
_____ _ _ _____ _ _ _____ _ _ _____
 72
65
 73
6
 40
0.8
 49
0.45
 49
-0.05
 49
0.1
 49
-0.05
 49
0.1
 49
-0.05
  0
LTYPE
  2
DOT
 70
64
  3
. . . . . . . . . . . . . . . . . . . .
 72
65
 73
2
 40
0.2
 49
0.1
 49
-0.1
  0
LTYPE
  2
DASHED
 70
64
  3
- - - - - - - - - - - - - - - - - - - -
 72
65
 73
2
 40
0.2
 49
0.1
 49
-0.1
  0
ENDTAB
  0
TABLE
  2
LAYER
 70
36
  0
LAYER
  2
0
 70
0
 62
7
  6
CONTINUOUS
  0
LAYER
  2
DEFAULT_1
 70
0
 62
7
  6
CENTER
  0
LAYER
  2
DEFAULT_2
 70
0
 62
8
  6
HIDDEN
  0
LAYER
  2
DEFAULT_3
 70
0
 62
7
  6
PHANTOM
  0
LAYER
  2
0000_BOM
 70
0
 62
7
  6
CONTINUOUS
  0
LAYER
  2
0000_REV_TABLE
 70
0
 62
7
  6
CONTINUOUS
  0
LAYER
  2
0000_STEVENS_NOTE
 70
0
 62
7
  6
CONTINUOUS
  0
LAYER
  2
01_DATUM_PLANES
 70
0
 62
7
  6
CONTINUOUS
  0
LAYER
  2
01_DEF_PLANES
 70
0
 62
7
  6
CONTINUOUS
  0
LAYER
  2
02_DATUM_COS
 70
0
 62
7
  6
CONTINUOUS
  0
LAYER
  2
90_IMP_FEAT
 70
0
 62
7
  6
CONTINUOUS
  0
LAYER
  2
95_STL
 70
0
 62
7
  6
CONTINUOUS
  0
LAYER
  2
99_SOLID
 70
0
 62
7
  6
CONTINUOUS
  0
LAYER
  2
CAD-MASTER_ZINC-PL
 70
0
 62
7
  6
CONTINUOUS
  0
LAYER
  2
CURVE
 70
0
 62
7
  6
CONTINUOUS
  0
LAYER
  2
SHELL
 70
0
 62
7
  6
CONTINUOUS
  0
LAYER
  2
SKEL
 70
0
 62
7
  6
CONTINUOUS
  0
LAYER
  2
SKETCH
 70
0
 62
7
  6
CONTINUOUS
  0
LAYER
  2
SURFACE
 70
0
 62
7
  6
CONTINUOUS
  0
ENDTAB
  0
TABLE
  2
STYLE
 70
1
  0
STYLE
  2
STANDARD
 70
0
 40
0.0
 41
0.75
 50
0.0
 71
0
 42
0.2
  3
txt
  4

  0
STYLE
  2
TEXTSTYLE_1
 70
0
 40
0.0
 41
0.8
 50
0.0
 71
0
 42
0.2
  3
gdt
  4

  0
ENDTAB
  0
ENDSEC
  0
SECTION
  2
BLOCKS
  0
BLOCK
  8
0
 62
1
  6
CONTINUOUS
  2
PLUMBING_BL1
 70
64
 10
316.5099480327
 20
-94.3058158042
  0
CIRCLE
  8
0
 62
1
  6
CONTINUOUS
 10
316.5099480327
 20
-94.3058158042
 40
12.5
  0
LINE
  8
0
 62
1
  6
CONTINUOUS
 10
329.0099480327
 20
-81.8058158042
 11
304.0099480327
 21
-106.8058158042
  0
LINE
  8
0
 62
1
  6
CONTINUOUS
 10
316.5099480327
 20
-94.3058158042
 11
304.0099480327
 21
-81.8058158042
  0
LINE
  8
0
 62
1
  6
CONTINUOUS
 10
316.5099480327
 20
-94.3058158042
 11
329.0099480327
 21
-106.8058158042
  0
ENDBLK
  8
0
  6
BYBLOCK
 62
0
  0
BLOCK
  8
0
 62
5
  6
CONTINUOUS
  2
PLUMBING_BL0
 70
64
 10
516.5099480327
 20
-274.3058158042
  0
CIRCLE
  8
0
 62
5
  6
CONTINUOUS
 10
516.5099480327
 20
-274.3058158042
 40
12.5
  0
LINE
  8
0
 62
5
  6
CONTINUOUS
 10
529.0099480327
 20
-261.8058158042
 11
504.0099480327
 21
-286.8058158042
  0
LINE
  8
0
 62
5
  6
CONTINUOUS
 10
516.5099480327
 20
-274.3058158042
 11
504.0099480327
 21
-261.8058158042
  0
LINE
  8
0
 62
5
  6
CONTINUOUS
 10
516.5099480327
 20
-274.3058158042
 11
529.0099480327
 21
-286.8058158042
  0
ENDBLK
  8
0
  6
BYBLOCK
 62
0
  0
ENDSEC
  0
SECTION
  2
ENTITIES
  0
INSERT
  8
0
 62
5
  6
CONTINUOUS
  2
PLUMBING_BL0
 10
516.5099480327
 20
-274.3058158042
  0
INSERT
  8
0
 62
1
  6
CONTINUOUS
  2
PLUMBING_BL1
 10
316.5099480327
 20
-94.3058158042
  0
LINE
  8
DEFAULT_2
 62
8
  6
HIDDEN
 10
266.7006330181
 20
-144.3058158042
 11
316.7006330181
 21
-144.3058158042
  0
LINE
  8
DEFAULT_2
 62
8
  6
HIDDEN
 10
266.7006330181
 20
-44.3058158042
 11
316.7006330181
 21
-44.3058158042
  0
LINE
  8
DEFAULT_2
 62
8
  6
HIDDEN
 10
316.7006330181
 20
-44.3058158042
 11
316.7006330181
 21
-144.3058158042
  0
LINE
  8
0
 62
7
  6
CONTINUOUS
 10
513.5099480327
 20
-274.3058158042
 11
-19.460350149
 21
-274.3058158042
  0
LINE
  8
0
 62
7
  6
CONTINUOUS
 10
-157.218754264
 20
161.1009481298
 11
-157.9451783964
 21
140.298882686
  0
POLYLINE
  8
0
 62
7
  6
CONTINUOUS
 66
1
 70
0
  0
VERTEX
  8
0
 62
7
  6
CONTINUOUS
 10
419.0504619121
 20
577.1892201358
  0
VERTEX
  8
0
 62
7
  6
CONTINUOUS
 10
420.9515751179
 20
577.7459766959
  0
VERTEX
  8
0
 62
7
  6
CONTINUOUS
 10
422.6922590219
 20
578.1687690565
  0
VERTEX
  8
0
 62
7
  6
CONTINUOUS
 10
424.2677302381
 20
578.4809284177
  0
SEQEND
  0
LINE
  8
0
 62
7
  6
CONTINUOUS
 10
-22.2969058758
 20
-272.2825202675
 11
-160.0960341893
 21
127.9152071146
  0
LINE
  8
0
 62
7
  6
CONTINUOUS
 10
417.1157979407
 20
573.6142792623
 11
416.8705820586
 21
573.5260977905
  0
LINE
  8
0
 62
7
  6
CONTINUOUS
 10
417.8857150567
 20
577.1892008664
 11
415.0469626657
 21
573.5266385046
  0
POLYLINE
  8
0
 62
7
  6
CONTINUOUS
 66
1
 70
0
  0
VERTEX
  8
0
 62
7
  6
CONTINUOUS
 10
416.8705820586
 20
573.5260977905
  0
VERTEX
  8
0
 62
7
  6
CONTINUOUS
 10
418.0107158242
 20
575.4526412353
  0
VERTEX
  8
0
 62
7
  6
CONTINUOUS
 10
419.0504619121
 20
577.1892201358
  0
SEQEND
  0
POLYLINE
  8
0
 62
7
  6
CONTINUOUS
 66
1
 70
0
  0
VERTEX
  8
0
 62
7
  6
CONTINUOUS
 10
419.3368570154
 20
577.0117872784
  0
VERTEX
  8
0
 62
7
  6
CONTINUOUS
 10
418.7087208524
 20
575.9535201369
  0
VERTEX
  8
0
 62
7
  6
CONTINUOUS
 10
418.0412997638
 20
574.8209260455
  0
VERTEX
  8
0
 62
7
  6
CONTINUOUS
 10
417.3349529407
 20
573.6142786412
  0
SEQEND
  0
POLYLINE
  8
0
 62
7
  6
CONTINUOUS
 66
1
 70
0
  0
VERTEX
  8
0
 62
7
  6
CONTINUOUS
 10
251.281496408
 20
138.3441870301
  0
VERTEX
  8
0
 62
7
  6
CONTINUOUS
 10
252.3933070376
 20
138.5140899723
  0
VERTEX
  8
0
 62
7
  6
CONTINUOUS
 10
254.0236852984
 20
138.7898742225
  0
VERTEX
  8
0
 62
7
  6
CONTINUOUS
 10
255.6499063091
 20
139.0916682331
  0
VERTEX
  8
0
 62
7
  6
CONTINUOUS
 10
257.2722678495
 20
139.4195669183
  0
VERTEX
  8
0
 62
7
  6
CONTINUOUS
 10
258.8910326923
 20
139.7736981819
  0
VERTEX
  8
0
 62
7
  6
CONTINUOUS
 10
260.5057954855
 20
140.1540663885
  0
VERTEX
  8
0
 62
7
  6
CONTINUOUS
 10
262.1151586773
 20
140.5604119595
  0
VERTEX
  8
0
 62
7
  6
CONTINUOUS
 10
263.7176642396
 20
140.9923854924
  0
VERTEX
  8
0
 62
7
  6
CONTINUOUS
 10
264.5007936414
 20
141.2169675425
  0
SEQEND
  0
POLYLINE
  8
0
 62
7
  6
CONTINUOUS
 66
1
 70
0
  0
VERTEX
  8
0
 62
7
  6
CONTINUOUS
 10
235.8889297739
 20
137.1941841958
  0
VERTEX
  8
0
 62
7
  6
CONTINUOUS
 10
237.5445500613
 20
137.2073828747
  0
VERTEX
  8
0
 62
7
  6
CONTINUOUS
 10
239.201933054
 20
137.2470451237
  0
VERTEX
  8
0
 62
7
  6
CONTINUOUS
 10
240.8599282801
 20
137.3132305101
  0
VERTEX
  8
0
 62
7
  6
CONTINUOUS
 10
242.5173821834
 20
137.405945328
  0
VERTEX
  8
0
 62
7
  6
CONTINUOUS
 10
244.1731406202
 20
137.5251423939
  0
VERTEX
  8
0
 62
7
  6
CONTINUOUS
 10
245.8260500593
 20
137.6707208801
  0
VERTEX
  8
0
 62
7
  6
CONTINUOUS
 10
247.4749609745
 20
137.8425264307
  0
VERTEX
  8
0
 62
7
  6
CONTINUOUS
 10
249.1190997423
 20
138.0403988619
  0
VERTEX
  8
0
 62
7
  6
CONTINUOUS
 10
250.7585000762
 20
138.2642645926
  0
VERTEX
  8
0
 62
7
  6
CONTINUOUS
 10
251.2083821148
 20
138.3330139641
  0
SEQEND
  0
POLYLINE
  8
0
 62
7
  6
CONTINUOUS
 66
1
 70
0
  0
VERTEX
  8
0
 62
7
  6
CONTINUOUS
 10
514.4017314145
 20
147.8297955351
  0
VERTEX
  8
0
 62
7
  6
CONTINUOUS
 10
470.4409854291
 20
147.7983301798
  0
VERTEX
  8
0
 62
7
  6
CONTINUOUS
 10
421.5145643575
 20
147.7681684549
  0
VERTEX
  8
0
 62
7
  6
CONTINUOUS
 10
367.6752865011
 20
147.7408852971
  0
SEQEND
  0
LINE
  8
0
 62
7
  6
CONTINUOUS
 10
-154.9469954422
 20
137.1941841958
 11
361.4146082962
 21
137.1941841958
  0
LINE
  8
0
 62
7
  6
CONTINUOUS
 10
280.2597015389
 20
147.1941841958
 11
320.5007922988
 21
147.1941841958
  0
LINE
  8
0
 62
7
  6
CONTINUOUS
 10
358.5924509334
 20
147.6941841958
 11
513.5099480327
 21
147.6941841958
  0
LINE
  8
0
 62
7
  6
CONTINUOUS
 10
-154.3865103998
 20
163.9916574073
 11
284.897266941
 21
188.3254898366
  0
POLYLINE
  8
0
 62
7
  6
CONTINUOUS
 66
1
 70
0
  0
VERTEX
  8
0
 62
7
  6
CONTINUOUS
 10
365.9749781707
 20
147.8035974257
  0
VERTEX
  8
0
 62
7
  6
CONTINUOUS
 10
366.1051420032
 20
147.7930399853
  0
VERTEX
  8
0
 62
7
  6
CONTINUOUS
 10
366.2350874805
 20
147.7837078504
  0
VERTEX
  8
0
 62
7
  6
CONTINUOUS
 10
366.3648904182
 20
147.7755096175
  0
VERTEX
  8
0
 62
7
  6
CONTINUOUS
 10
366.4946322468
 20
147.768360726
  0
VERTEX
  8
0
 62
7
  6
CONTINUOUS
 10
366.6245395712
 20
147.7621769294
  0
VERTEX
  8
0
 62
7
  6
CONTINUOUS
 10
366.7547750368
 20
147.7568861636
  0
VERTEX
  8
0
 62
7
  6
CONTINUOUS
 10
366.8853023092
 20
147.752432159
  0
VERTEX
  8
0
 62
7
  6
CONTINUOUS
 10
367.0160946964
 20
147.7487638484
  0
VERTEX
  8
0
 62
7
  6
CONTINUOUS
 10
367.1472419073
 20
147.7458339159
  0
VERTEX
  8
0
 62
7
  6
CONTINUOUS
 10
367.2787673208
 20
147.7436046898
  0
VERTEX
  8
0
 62
7
  6
CONTINUOUS
 10
367.4105686477
 20
147.7420490609
  0
VERTEX
  8
0
 62
7
  6
CONTINUOUS
 10
367.5426807204
 20
147.7411463777
  0
VERTEX
  8
0
 62
7
  6
CONTINUOUS
 10
367.6752865011
 20
147.7408852971
  0
SEQEND
  0
LINE
  8
0
 62
7
  6
CONTINUOUS
 10
408.7556712524
 20
571.3707911254
 11
408.1261316343
 21
569.64114524
  0
LINE
  8
0
 62
7
  6
CONTINUOUS
 10
280.3457215641
 20
147.1941841958
 11
280.7661570757
 21
147.3917967449
  0
POLYLINE
  8
0
 62
7
  6
CONTINUOUS
 66
1
 70
0
  0
VERTEX
  8
0
 62
7
  6
CONTINUOUS
 10
280.7661570757
 20
147.3917967449
  0
VERTEX
  8
0
 62
7
  6
CONTINUOUS
 10
266.2946955547
 20
141.7452153734
  0
VERTEX
  8
0
 62
7
  6
CONTINUOUS
 10
251.2437963624
 20
138.335646617
  0
VERTEX
  8
0
 62
7
  6
CONTINUOUS
 10
235.8889297739
 20
137.1941841958
  0
SEQEND
  0
LINE
  8
0
 62
7
  6
CONTINUOUS
 10
264.5007936414
 20
141.3388322173
 11
264.5007936414
 21
137.1941841958
  0
POLYLINE
  8
0
 62
7
  6
CONTINUOUS
 66
1
 70
0
  0
VERTEX
  8
0
 62
7
  6
CONTINUOUS
 10
281.5600625583
 20
148.3336019982
  0
VERTEX
  8
0
 62
7
  6
CONTINUOUS
 10
281.8061968275
 20
148.6421906611
  0
VERTEX
  8
0
 62
7
  6
CONTINUOUS
 10
282.0855854328
 20
149.0028479299
  0
SEQEND
  0
LINE
  8
0
 62
7
  6
CONTINUOUS
 10
320.5007936414
 20
147.1941841958
 11
320.5007936414
 21
137.1941841958
  0
LINE
  8
0
 62
7
  6
CONTINUOUS
 10
288.0073426435
 20
185.9062747044
 11
291.6966792418
 21
167.0550278834
  0
LINE
  8
0
 62
7
  6
CONTINUOUS
 10
353.5941643085
 20
152.5632994543
 11
344.142417557
 21
513.5109455576
  0
LINE
  8
0
 62
7
  6
CONTINUOUS
 10
343.7758146551
 20
527.5109455577
 11
342.9544549219
 21
558.8774082952
  0
LINE
  8
0
 62
7
  6
CONTINUOUS
 10
365.9556856663
 20
147.6941841958
 11
365.9749781283
 21
147.8035971851
  0
LINE
  8
0
 62
7
  6
CONTINUOUS
 10
513.5099543241
 20
152.5241126895
 11
513.4795819869
 21
152.563291308
  0
LINE
  8
0
 62
7
  6
CONTINUOUS
 10
516.5054715822
 20
561.4645607876
 11
516.5051678108
 21
561.4690658062
  0
LINE
  8
0
 62
7
  6
CONTINUOUS
 10
516.5053452981
 20
561.4672447702
 11
516.4949823192
 21
561.6393201607
  0
LINE
  8
0
 62
7
  6
CONTINUOUS
 10
516.5068181573
 20
561.4296411546
 11
516.5041199642
 21
561.4940975098
  0
LINE
  8
0
 62
7
  6
CONTINUOUS
 10
516.5084908032
 20
561.37346125
 11
516.5053452981
 21
561.4672447702
  0
LINE
  8
0
 62
7
  6
CONTINUOUS
 10
516.508059324
 20
561.3901716238
 11
516.5068181573
 21
561.4296411546
  0
LINE
  8
0
 62
7
  6
CONTINUOUS
 10
516.5091254203
 20
561.3434485548
 11
516.508059324
 21
561.3901716238
  0
LINE
  8
0
 62
7
  6
CONTINUOUS
 10
516.509962122
 20
561.2526783433
 11
516.509706659
 21
561.2647321548
  0
LINE
  8
0
 62
7
  6
CONTINUOUS
 10
516.5074027929
 20
561.3734381912
 11
516.5055897035
 21
561.4589873323
  0
LINE
  8
0
 62
7
  6
CONTINUOUS
 10
516.5055338301
 20
561.4616236727
 11
516.5054715822
 21
561.4645607876
  0
LINE
  8
0
 62
7
  6
CONTINUOUS
 10
516.5099178433
 20
561.2701293669
 11
516.5091254203
 21
561.3434485548
  0
LINE
  8
0
 62
7
  6
CONTINUOUS
 10
516.510072308
 20
560.005405792
 11
516.5099480327
 21
560.0638306612
  0
LINE
  8
0
 62
7
  6
CONTINUOUS
 10
516.5097296663
 20
556.9533087335
 11
516.5096955269
 21
556.9712533837
  0
LINE
  8
0
 62
7
  6
CONTINUOUS
 10
516.5101300126
 20
557.3984498525
 11
516.5099480327
 21
557.4819477128
  0
LINE
  8
0
 62
7
  6
CONTINUOUS
 10
516.5101008996
 20
559.3111239078
 11
516.5099480327
 21
559.3992208403
  0
LINE
  8
0
 62
7
  6
CONTINUOUS
 10
516.5100232353
 20
560.4369090439
 11
516.5099480327
 21
560.4786356994
  0
LINE
  8
0
 62
7
  6
CONTINUOUS
 10
516.5100106602
 20
560.2473911706
 11
516.5099480327
 21
560.3055233074
  0
LINE
  8
0
 62
7
  6
CONTINUOUS
 10
516.510035469
 20
559.682908227
 11
516.5099480327
 21
559.7590848209
  0
LINE
  8
0
 62
7
  6
CONTINUOUS
 10
516.5101999371
 20
557.3268298554
 11
516.5101300126
 21
557.3984498525
  0
LINE
  8
0
 62
7
  6
CONTINUOUS
 10
516.5099178433
 20
561.2701293669
 11
516.5099754437
 21
560.9313234095
  0
LINE
  8
0
 62
7
  6
CONTINUOUS
 10
516.5099480327
 20
560.9893363336
 11
516.5099480327
 21
525.6941841958
  0
LINE
  8
0
 62
7
  6
CONTINUOUS
 10
516.5099480327
 20
517.6941841958
 11
516.5099480327
 21
150.6941841958
  0
LINE
  8
0
 62
7
  6
CONTINUOUS
 10
516.5099480327
 20
144.6941841958
 11
516.5099480327
 21
-271.3058158042
  0
LINE
  8
0
 62
7
  6
CONTINUOUS
 10
516.509948029
 20
561.2529019704
 11
516.5099480327
 21
561.2527082392
  0
LINE
  8
0
 62
7
  6
CONTINUOUS
 10
415.0469626657
 20
573.5266385046
 11
409.43195584
 21
571.9934554943
  0
LINE
  8
0
 62
7
  6
CONTINUOUS
 10
516.4949823192
 20
561.6393201607
 11
516.4735597488
 21
561.854882803
  0
POLYLINE
  8
0
 62
7
  6
CONTINUOUS
 66
1
 70
0
  0
VERTEX
  8
0
 62
7
  6
CONTINUOUS
 10
424.6212836287
 20
578.3276902107
  0
VERTEX
  8
0
 62
7
  6
CONTINUOUS
 10
423.0380063117
 20
578.0131819942
  0
VERTEX
  8
0
 62
7
  6
CONTINUOUS
 10
421.2748228992
 20
577.5831369444
  0
VERTEX
  8
0
 62
7
  6
CONTINUOUS
 10
419.3368570154
 20
577.0117872784
  0
SEQEND
  0
POLYLINE
  8
0
 62
7
  6
CONTINUOUS
 66
1
 70
0
  0
VERTEX
  8
0
 62
7
  6
CONTINUOUS
 10
424.2677302381
 20
578.4809129438
  0
VERTEX
  8
0
 62
7
  6
CONTINUOUS
 10
424.5633377218
 20
578.5317043135
  0
VERTEX
  8
0
 62
7
  6
CONTINUOUS
 10
424.8870492511
 20
578.5843265126
  0
VERTEX
  8
0
 62
7
  6
CONTINUOUS
 10
425.2347814284
 20
578.6381236838
  0
VERTEX
  8
0
 62
7
  6
CONTINUOUS
 10
425.6017824829
 20
578.6923577763
  0
VERTEX
  8
0
 62
7
  6
CONTINUOUS
 10
425.98411261
 20
578.7464409778
  0
VERTEX
  8
0
 62
7
  6
CONTINUOUS
 10
426.3716286669
 20
578.7989738158
  0
SEQEND
  0
POLYLINE
  8
0
 62
7
  6
CONTINUOUS
 66
1
 70
0
  0
VERTEX
  8
0
 62
7
  6
CONTINUOUS
 10
426.7426039723
 20
578.6423982458
  0
VERTEX
  8
0
 62
7
  6
CONTINUOUS
 10
426.4401132922
 20
578.6029874025
  0
VERTEX
  8
0
 62
7
  6
CONTINUOUS
 10
426.1234258759
 20
578.5600740843
  0
VERTEX
  8
0
 62
7
  6
CONTINUOUS
 10
425.7999946376
 20
578.5144091398
  0
VERTEX
  8
0
 62
7
  6
CONTINUOUS
 10
425.4798947933
 20
578.4672106776
  0
VERTEX
  8
0
 62
7
  6
CONTINUOUS
 10
425.1702632156
 20
578.4193801159
  0
VERTEX
  8
0
 62
7
  6
CONTINUOUS
 10
424.88153974
 20
578.3724520314
  0
VERTEX
  8
0
 62
7
  6
CONTINUOUS
 10
424.6212836287
 20
578.3276902107
  0
SEQEND
  0
LINE
  8
0
 62
7
  6
CONTINUOUS
 10
426.3716286669
 20
578.7989738158
 11
426.7426039723
 21
578.8472278656
  0
LINE
  8
0
 62
7
  6
CONTINUOUS
 10
350.3739252042
 20
567.0659316485
 11
350.3460607289
 21
567.0638649806
  0
LINE
  8
0
 62
7
  6
CONTINUOUS
 10
350.3893273972
 20
567.0670474702
 11
350.3739252042
 21
567.0659316485
  0
LINE
  8
0
 62
7
  6
CONTINUOUS
 10
350.3883867003
 20
567.0669793457
 11
350.3848340706
 21
567.066721983
  0
LINE
  8
0
 62
7
  6
CONTINUOUS
 10
350.3923505469
 20
567.0672664842
 11
350.3883867003
 21
567.0669793457
  0
POLYLINE
  8
0
 62
7
  6
CONTINUOUS
 66
1
 70
0
  0
VERTEX
  8
0
 62
7
  6
CONTINUOUS
 10
350.3818169833
 20
567.0665034016
  0
VERTEX
  8
0
 62
7
  6
CONTINUOUS
 10
350.4028998867
 20
567.06803055
  0
VERTEX
  8
0
 62
7
  6
CONTINUOUS
 10
350.432631513
 20
567.0701834464
  0
VERTEX
  8
0
 62
7
  6
CONTINUOUS
 10
350.4680057464
 20
567.0727438211
  0
SEQEND
  0
LINE
  8
0
 62
7
  6
CONTINUOUS
 10
350.426263339
 20
567.0697224684
 11
350.3788909828
 21
567.0662914239
  0
LINE
  8
0
 62
7
  6
CONTINUOUS
 10
350.4290034282
 20
567.0699207787
 11
350.3893273972
 21
567.0670474702
  0
POLYLINE
  8
0
 62
7
  6
CONTINUOUS
 66
1
 70
0
  0
VERTEX
  8
0
 62
7
  6
CONTINUOUS
 10
350.4160422754
 20
567.0689823757
  0
VERTEX
  8
0
 62
7
  6
CONTINUOUS
 10
350.41116826
 20
567.0686294187
  0
VERTEX
  8
0
 62
7
  6
CONTINUOUS
 10
350.4065590904
 20
567.0682956185
  0
VERTEX
  8
0
 62
7
  6
CONTINUOUS
 10
350.4022211224
 20
567.067981439
  0
VERTEX
  8
0
 62
7
  6
CONTINUOUS
 10
350.3981610257
 20
567.0676873667
  0
VERTEX
  8
0
 62
7
  6
CONTINUOUS
 10
350.3943858514
 20
567.0674139164
  0
VERTEX
  8
0
 62
7
  6
CONTINUOUS
 10
350.3923505469
 20
567.0672664842
  0
SEQEND
  0
LINE
  8
0
 62
7
  6
CONTINUOUS
 10
350.426560737
 20
567.0697440011
 11
350.4211750501
 21
567.0693540454
  0
LINE
  8
0
 62
7
  6
CONTINUOUS
 10
350.432893795
 20
567.070202517
 11
350.426263339
 21
567.0697224684
  0
LINE
  8
0
 62
7
  6
CONTINUOUS
 10
350.4799033803
 20
567.0736048343
 11
350.432893795
 21
567.070202517
  0
POLYLINE
  8
0
 62
7
  6
CONTINUOUS
 66
1
 70
0
  0
VERTEX
  8
0
 62
7
  6
CONTINUOUS
 10
350.4781680226
 20
567.0734792759
  0
VERTEX
  8
0
 62
7
  6
CONTINUOUS
 10
350.4709330431
 20
567.0729557718
  0
VERTEX
  8
0
 62
7
  6
CONTINUOUS
 10
350.463912467
 20
567.0724477329
  0
VERTEX
  8
0
 62
7
  6
CONTINUOUS
 10
350.4571107597
 20
567.0719554865
  0
VERTEX
  8
0
 62
7
  6
CONTINUOUS
 10
350.4505329446
 20
567.0714794005
  0
VERTEX
  8
0
 62
7
  6
CONTINUOUS
 10
350.4441840955
 20
567.0710198466
  0
VERTEX
  8
0
 62
7
  6
CONTINUOUS
 10
350.4380692845
 20
567.0705771969
  0
VERTEX
  8
0
 62
7
  6
CONTINUOUS
 10
350.4321937066
 20
567.0701518321
  0
SEQEND
  0
LINE
  8
0
 62
7
  6
CONTINUOUS
 10
350.5486189961
 20
567.0785740747
 11
350.4781680226
 21
567.0734792759
  0
POLYLINE
  8
0
 62
7
  6
CONTINUOUS
 66
1
 70
0
  0
VERTEX
  8
0
 62
7
  6
CONTINUOUS
 10
350.5258625091
 20
567.0769290735
  0
VERTEX
  8
0
 62
7
  6
CONTINUOUS
 10
350.5174206042
 20
567.0763186194
  0
VERTEX
  8
0
 62
7
  6
CONTINUOUS
 10
350.5091710814
 20
567.0757220102
  0
VERTEX
  8
0
 62
7
  6
CONTINUOUS
 10
350.4680057464
 20
567.0727438211
  0
SEQEND
  0
LINE
  8
0
 62
7
  6
CONTINUOUS
 10
350.8067632317
 20
567.0972023117
 11
350.4891467773
 21
567.0742735736
  0
POLYLINE
  8
0
 62
7
  6
CONTINUOUS
 66
1
 70
0
  0
VERTEX
  8
0
 62
7
  6
CONTINUOUS
 10
350.6715040136
 20
567.0874495222
  0
VERTEX
  8
0
 62
7
  6
CONTINUOUS
 10
350.7112648904
 20
567.0903181565
  0
VERTEX
  8
0
 62
7
  6
CONTINUOUS
 10
350.7496781404
 20
567.0930881144
  0
VERTEX
  8
0
 62
7
  6
CONTINUOUS
 10
350.7865520358
 20
567.0957457304
  0
SEQEND
  0
LINE
  8
0
 62
7
  6
CONTINUOUS
 10
350.7645795202
 20
567.0941622611
 11
350.6912818123
 21
567.0888766249
  0
POLYLINE
  8
0
 62
7
  6
CONTINUOUS
 66
1
 70
0
  0
VERTEX
  8
0
 62
7
  6
CONTINUOUS
 10
350.8018560968
 20
567.0968488064
  0
VERTEX
  8
0
 62
7
  6
CONTINUOUS
 10
350.7894446157
 20
567.0959545914
  0
VERTEX
  8
0
 62
7
  6
CONTINUOUS
 10
350.7771993521
 20
567.0950722061
  0
VERTEX
  8
0
 62
7
  6
CONTINUOUS
 10
350.7650968056
 20
567.0941999627
  0
VERTEX
  8
0
 62
7
  6
CONTINUOUS
 10
350.7531332896
 20
567.0933376004
  0
VERTEX
  8
0
 62
7
  6
CONTINUOUS
 10
350.7413079118
 20
567.0924850596
  0
VERTEX
  8
0
 62
7
  6
CONTINUOUS
 10
350.7296196566
 20
567.0916422719
  0
VERTEX
  8
0
 62
7
  6
CONTINUOUS
 10
350.7180675044
 20
567.0908091684
  0
VERTEX
  8
0
 62
7
  6
CONTINUOUS
 10
350.7066505015
 20
567.0899856847
  0
VERTEX
  8
0
 62
7
  6
CONTINUOUS
 10
350.6953680886
 20
567.0891717851
  0
VERTEX
  8
0
 62
7
  6
CONTINUOUS
 10
350.6842199223
 20
567.0883674492
  0
SEQEND
  0
POLYLINE
  8
0
 62
7
  6
CONTINUOUS
 66
1
 70
0
  0
VERTEX
  8
0
 62
7
  6
CONTINUOUS
 10
350.8618729144
 20
567.1011702612
  0
VERTEX
  8
0
 62
7
  6
CONTINUOUS
 10
350.8998631444
 20
567.1039042
  0
VERTEX
  8
0
 62
7
  6
CONTINUOUS
 10
350.9341884323
 20
567.1063731957
  0
VERTEX
  8
0
 62
7
  6
CONTINUOUS
 10
350.9647871965
 20
567.1085731859
  0
VERTEX
  8
0
 62
7
  6
CONTINUOUS
 10
350.9937807617
 20
567.1106569315
  0
SEQEND
  0
LINE
  8
0
 62
7
  6
CONTINUOUS
 10
350.976690181
 20
567.1094287427
 11
350.9080739414
 21
567.1044949008
  0
POLYLINE
  8
0
 62
7
  6
CONTINUOUS
 66
1
 70
0
  0
VERTEX
  8
0
 62
7
  6
CONTINUOUS
 10
351.0050286997
 20
567.1114657195
  0
VERTEX
  8
0
 62
7
  6
CONTINUOUS
 10
350.9908480657
 20
567.1104468115
  0
VERTEX
  8
0
 62
7
  6
CONTINUOUS
 10
350.9767512543
 20
567.1094337335
  0
VERTEX
  8
0
 62
7
  6
CONTINUOUS
 10
350.9627019757
 20
567.1084238808
  0
VERTEX
  8
0
 62
7
  6
CONTINUOUS
 10
350.9487054684
 20
567.1074176316
  0
VERTEX
  8
0
 62
7
  6
CONTINUOUS
 10
350.9347749956
 20
567.1064159422
  0
VERTEX
  8
0
 62
7
  6
CONTINUOUS
 10
350.9209242128
 20
567.1054197974
  0
VERTEX
  8
0
 62
7
  6
CONTINUOUS
 10
350.9071669206
 20
567.104430193
  0
VERTEX
  8
0
 62
7
  6
CONTINUOUS
 10
350.8935156066
 20
567.1034480309
  0
VERTEX
  8
0
 62
7
  6
CONTINUOUS
 10
350.879982824
 20
567.1024742187
  0
SEQEND
  0
POLYLINE
  8
0
 62
7
  6
CONTINUOUS
 66
1
 70
0
  0
VERTEX
  8
0
 62
7
  6
CONTINUOUS
 10
350.976690181
 20
567.1094287427
  0
VERTEX
  8
0
 62
7
  6
CONTINUOUS
 10
351.0641428201
 20
567.1157104244
  0
VERTEX
  8
0
 62
7
  6
CONTINUOUS
 10
351.0998859114
 20
567.118275708
  0
VERTEX
  8
0
 62
7
  6
CONTINUOUS
 10
351.1321208215
 20
567.1205881512
  0
VERTEX
  8
0
 62
7
  6
CONTINUOUS
 10
351.1614023383
 20
567.1226878565
  0
VERTEX
  8
0
 62
7
  6
CONTINUOUS
 10
351.1884443465
 20
567.1246262368
  0
SEQEND
  0
POLYLINE
  8
0
 62
7
  6
CONTINUOUS
 66
1
 70
0
  0
VERTEX
  8
0
 62
7
  6
CONTINUOUS
 10
351.1653595214
 20
567.1229715529
  0
VERTEX
  8
0
 62
7
  6
CONTINUOUS
 10
351.1055276684
 20
567.1186805045
  0
VERTEX
  8
0
 62
7
  6
CONTINUOUS
 10
351.0425924643
 20
567.1141631582
  0
SEQEND
  0
POLYLINE
  8
0
 62
7
  6
CONTINUOUS
 66
1
 70
0
  0
VERTEX
  8
0
 62
7
  6
CONTINUOUS
 10
351.1685511254
 20
567.123201117
  0
VERTEX
  8
0
 62
7
  6
CONTINUOUS
 10
351.1531619047
 20
567.1220977894
  0
VERTEX
  8
0
 62
7
  6
CONTINUOUS
 10
351.1378582136
 20
567.1210003684
  0
VERTEX
  8
0
 62
7
  6
CONTINUOUS
 10
351.122657443
 20
567.1199101049
  0
VERTEX
  8
0
 62
7
  6
CONTINUOUS
 10
351.1075764785
 20
567.1188282133
  0
VERTEX
  8
0
 62
7
  6
CONTINUOUS
 10
351.0926294
 20
567.1177557088
  0
VERTEX
  8
0
 62
7
  6
CONTINUOUS
 10
351.0777815297
 20
567.1166901093
  0
VERTEX
  8
0
 62
7
  6
CONTINUOUS
 10
351.0630184767
 20
567.1156303858
  0
VERTEX
  8
0
 62
7
  6
CONTINUOUS
 10
351.0483493732
 20
567.1145771975
  0
SEQEND
  0
LINE
  8
0
 62
7
  6
CONTINUOUS
 10
351.1995135589
 20
567.1254202721
 11
351.1840077909
 21
567.1243090509
  0
LINE
  8
0
 62
7
  6
CONTINUOUS
 10
351.1653595214
 20
567.1229715529
 11
351.2428467277
 21
567.1285236787
  0
LINE
  8
0
 62
7
  6
CONTINUOUS
 10
351.2463026139
 20
567.128772
 11
351.2306561538
 21
567.1276514029
  0
LINE
  8
0
 62
7
  6
CONTINUOUS
 10
351.2755693976
 20
567.1308665875
 11
351.2220366854
 21
567.1270331636
  0
LINE
  8
0
 62
7
  6
CONTINUOUS
 10
351.3253393352
 20
567.1344289856
 11
351.3094239662
 21
567.1332903417
  0
POLYLINE
  8
0
 62
7
  6
CONTINUOUS
 66
1
 70
0
  0
VERTEX
  8
0
 62
7
  6
CONTINUOUS
 10
351.3016736348
 20
567.1327348819
  0
VERTEX
  8
0
 62
7
  6
CONTINUOUS
 10
351.3325834997
 20
567.1349462669
  0
VERTEX
  8
0
 62
7
  6
CONTINUOUS
 10
351.3646281526
 20
567.137237864
  0
SEQEND
  0
LINE
  8
0
 62
7
  6
CONTINUOUS
 10
351.3413087431
 20
567.1355712499
 11
351.3253393352
 21
567.1344289856
  0
POLYLINE
  8
0
 62
7
  6
CONTINUOUS
 66
1
 70
0
  0
VERTEX
  8
0
 62
7
  6
CONTINUOUS
 10
351.3443388991
 20
567.1357879639
  0
VERTEX
  8
0
 62
7
  6
CONTINUOUS
 10
351.3323817287
 20
567.1349327463
  0
VERTEX
  8
0
 62
7
  6
CONTINUOUS
 10
351.3235266962
 20
567.1342993028
  0
SEQEND
  0
POLYLINE
  8
0
 62
7
  6
CONTINUOUS
 66
1
 70
0
  0
VERTEX
  8
0
 62
7
  6
CONTINUOUS
 10
351.3734473142
 20
567.1378683714
  0
VERTEX
  8
0
 62
7
  6
CONTINUOUS
 10
351.3260114769
 20
567.1344761618
  0
VERTEX
  8
0
 62
7
  6
CONTINUOUS
 10
350.7645795202
 20
567.0941622611
  0
SEQEND
  0
POLYLINE
  8
0
 62
7
  6
CONTINUOUS
 66
1
 70
0
  0
VERTEX
  8
0
 62
7
  6
CONTINUOUS
 10
351.3813902413
 20
567.1384371261
  0
VERTEX
  8
0
 62
7
  6
CONTINUOUS
 10
351.3688538232
 20
567.1375409236
  0
VERTEX
  8
0
 62
7
  6
CONTINUOUS
 10
351.3565001079
 20
567.1366576336
  0
SEQEND
  0
POLYLINE
  8
0
 62
7
  6
CONTINUOUS
 66
1
 70
0
  0
VERTEX
  8
0
 62
7
  6
CONTINUOUS
 10
351.3895478104
 20
567.1390202123
  0
VERTEX
  8
0
 62
7
  6
CONTINUOUS
 10
351.3734101065
 20
567.1378666604
  0
VERTEX
  8
0
 62
7
  6
CONTINUOUS
 10
351.357332126
 20
567.1367171274
  0
SEQEND
  0
POLYLINE
  8
0
 62
7
  6
CONTINUOUS
 66
1
 70
0
  0
VERTEX
  8
0
 62
7
  6
CONTINUOUS
 10
351.3646281526
 20
567.137237864
  0
VERTEX
  8
0
 62
7
  6
CONTINUOUS
 10
351.4328173415
 20
567.1421109514
  0
VERTEX
  8
0
 62
7
  6
CONTINUOUS
 10
351.4647055203
 20
567.1443882743
  0
VERTEX
  8
0
 62
7
  6
CONTINUOUS
 10
351.495848488
 20
567.1466114295
  0
VERTEX
  8
0
 62
7
  6
CONTINUOUS
 10
351.528169268
 20
567.148917673
  0
VERTEX
  8
0
 62
7
  6
CONTINUOUS
 10
351.5616309284
 20
567.1513042609
  0
SEQEND
  0
LINE
  8
0
 62
7
  6
CONTINUOUS
 10
351.4332401069
 20
567.1421421538
 11
351.4200256712
 21
567.1411981383
  0
POLYLINE
  8
0
 62
7
  6
CONTINUOUS
 66
1
 70
0
  0
VERTEX
  8
0
 62
7
  6
CONTINUOUS
 10
351.4738607928
 20
567.1450429667
  0
VERTEX
  8
0
 62
7
  6
CONTINUOUS
 10
351.4601596387
 20
567.144064715
  0
VERTEX
  8
0
 62
7
  6
CONTINUOUS
 10
351.4466188288
 20
567.1430977338
  0
SEQEND
  0
POLYLINE
  8
0
 62
7
  6
CONTINUOUS
 66
1
 70
0
  0
VERTEX
  8
0
 62
7
  6
CONTINUOUS
 10
351.5695752809
 20
567.1518707176
  0
VERTEX
  8
0
 62
7
  6
CONTINUOUS
 10
351.5354121829
 20
567.1494343515
  0
VERTEX
  8
0
 62
7
  6
CONTINUOUS
 10
351.498832639
 20
567.1468244054
  0
VERTEX
  8
0
 62
7
  6
CONTINUOUS
 10
351.4597352245
 20
567.1440333808
  0
VERTEX
  8
0
 62
7
  6
CONTINUOUS
 10
351.4179820862
 20
567.1410511436
  0
SEQEND
  0
POLYLINE
  8
0
 62
7
  6
CONTINUOUS
 66
1
 70
0
  0
VERTEX
  8
0
 62
7
  6
CONTINUOUS
 10
351.5688855817
 20
567.1518226748
  0
VERTEX
  8
0
 62
7
  6
CONTINUOUS
 10
351.5526003015
 20
567.1506613921
  0
VERTEX
  8
0
 62
7
  6
CONTINUOUS
 10
351.5362964468
 20
567.1494985286
  0
VERTEX
  8
0
 62
7
  6
CONTINUOUS
 10
351.5199772104
 20
567.1483343112
  0
VERTEX
  8
0
 62
7
  6
CONTINUOUS
 10
351.5036453803
 20
567.1471689379
  0
VERTEX
  8
0
 62
7
  6
CONTINUOUS
 10
351.4873099885
 20
567.1460030526
  0
VERTEX
  8
0
 62
7
  6
CONTINUOUS
 10
351.470971532
 20
567.1448366908
  0
VERTEX
  8
0
 62
7
  6
CONTINUOUS
 10
351.4546337474
 20
567.1436701194
  0
VERTEX
  8
0
 62
7
  6
CONTINUOUS
 10
351.4383085412
 20
567.1425041889
  0
VERTEX
  8
0
 62
7
  6
CONTINUOUS
 10
351.4220089508
 20
567.141339831
  0
VERTEX
  8
0
 62
7
  6
CONTINUOUS
 10
351.3734473142
 20
567.1378683714
  0
SEQEND
  0
POLYLINE
  8
0
 62
7
  6
CONTINUOUS
 66
1
 70
0
  0
VERTEX
  8
0
 62
7
  6
CONTINUOUS
 10
351.5745341516
 20
567.1522254074
  0
VERTEX
  8
0
 62
7
  6
CONTINUOUS
 10
351.5596005038
 20
567.151160599
  0
VERTEX
  8
0
 62
7
  6
CONTINUOUS
 10
351.5448598839
 20
567.150109343
  0
VERTEX
  8
0
 62
7
  6
CONTINUOUS
 10
351.5303073064
 20
567.1490712921
  0
VERTEX
  8
0
 62
7
  6
CONTINUOUS
 10
351.5159376973
 20
567.1480460919
  0
VERTEX
  8
0
 62
7
  6
CONTINUOUS
 10
351.501744532
 20
567.1470332843
  0
VERTEX
  8
0
 62
7
  6
CONTINUOUS
 10
351.4877210485
 20
567.1460323939
  0
SEQEND
  0
POLYLINE
  8
0
 62
7
  6
CONTINUOUS
 66
1
 70
0
  0
VERTEX
  8
0
 62
7
  6
CONTINUOUS
 10
351.5963161999
 20
567.1537769791
  0
VERTEX
  8
0
 62
7
  6
CONTINUOUS
 10
351.6330047025
 20
567.1563912436
  0
VERTEX
  8
0
 62
7
  6
CONTINUOUS
 10
351.6673000574
 20
567.1588338071
  0
VERTEX
  8
0
 62
7
  6
CONTINUOUS
 10
351.7000617192
 20
567.1611660781
  0
VERTEX
  8
0
 62
7
  6
CONTINUOUS
 10
351.7336614778
 20
567.1635569357
  0
SEQEND
  0
POLYLINE
  8
0
 62
7
  6
CONTINUOUS
 66
1
 70
0
  0
VERTEX
  8
0
 62
7
  6
CONTINUOUS
 10
351.6363637534
 20
567.1566317281
  0
VERTEX
  8
0
 62
7
  6
CONTINUOUS
 10
351.6205744539
 20
567.1555068462
  0
VERTEX
  8
0
 62
7
  6
CONTINUOUS
 10
351.6050113779
 20
567.1543978457
  0
VERTEX
  8
0
 62
7
  6
CONTINUOUS
 10
351.5896679618
 20
567.1533042684
  0
SEQEND
  0
POLYLINE
  8
0
 62
7
  6
CONTINUOUS
 66
1
 70
0
  0
VERTEX
  8
0
 62
7
  6
CONTINUOUS
 10
351.7453225141
 20
567.1643877539
  0
VERTEX
  8
0
 62
7
  6
CONTINUOUS
 10
351.7296738236
 20
567.163274536
  0
VERTEX
  8
0
 62
7
  6
CONTINUOUS
 10
351.7139224246
 20
567.1621537731
  0
VERTEX
  8
0
 62
7
  6
CONTINUOUS
 10
351.6980730426
 20
567.1610257966
  0
VERTEX
  8
0
 62
7
  6
CONTINUOUS
 10
351.6821304314
 20
567.1598909402
  0
VERTEX
  8
0
 62
7
  6
CONTINUOUS
 10
351.6660991927
 20
567.1587495271
  0
VERTEX
  8
0
 62
7
  6
CONTINUOUS
 10
351.6499899455
 20
567.15760231
  0
VERTEX
  8
0
 62
7
  6
CONTINUOUS
 10
351.6338229236
 20
567.1564507272
  0
VERTEX
  8
0
 62
7
  6
CONTINUOUS
 10
351.6176189905
 20
567.1552962625
  0
VERTEX
  8
0
 62
7
  6
CONTINUOUS
 10
351.601394055
 20
567.1541400473
  0
VERTEX
  8
0
 62
7
  6
CONTINUOUS
 10
351.5616309284
 20
567.1513042609
  0
SEQEND
  0
POLYLINE
  8
0
 62
7
  6
CONTINUOUS
 66
1
 70
0
  0
VERTEX
  8
0
 62
7
  6
CONTINUOUS
 10
351.7527621271
 20
567.1649169109
  0
VERTEX
  8
0
 62
7
  6
CONTINUOUS
 10
351.7355003397
 20
567.1636890508
  0
VERTEX
  8
0
 62
7
  6
CONTINUOUS
 10
351.7184593826
 20
567.1624766169
  0
VERTEX
  8
0
 62
7
  6
CONTINUOUS
 10
351.7016317336
 20
567.1612790844
  0
VERTEX
  8
0
 62
7
  6
CONTINUOUS
 10
351.685011233
 20
567.160096025
  0
VERTEX
  8
0
 62
7
  6
CONTINUOUS
 10
351.6685919827
 20
567.1589270284
  0
VERTEX
  8
0
 62
7
  6
CONTINUOUS
 10
351.6523729323
 20
567.1577720297
  0
SEQEND
  0
POLYLINE
  8
0
 62
7
  6
CONTINUOUS
 66
1
 70
0
  0
VERTEX
  8
0
 62
7
  6
CONTINUOUS
 10
351.7565560679
 20
567.165185421
  0
VERTEX
  8
0
 62
7
  6
CONTINUOUS
 10
351.7377916473
 20
567.1638507509
  0
VERTEX
  8
0
 62
7
  6
CONTINUOUS
 10
351.7196647484
 20
567.1625611031
  0
VERTEX
  8
0
 62
7
  6
CONTINUOUS
 10
351.7008433459
 20
567.1612217087
  0
VERTEX
  8
0
 62
7
  6
CONTINUOUS
 10
351.6798916092
 20
567.1597303102
  0
VERTEX
  8
0
 62
7
  6
CONTINUOUS
 10
351.6565454799
 20
567.1580679732
  0
VERTEX
  8
0
 62
7
  6
CONTINUOUS
 10
351.6303547982
 20
567.1562024664
  0
VERTEX
  8
0
 62
7
  6
CONTINUOUS
 10
351.6012977183
 20
567.1541320169
  0
SEQEND
  0
POLYLINE
  8
0
 62
7
  6
CONTINUOUS
 66
1
 70
0
  0
VERTEX
  8
0
 62
7
  6
CONTINUOUS
 10
351.7336614778
 20
567.1635569357
  0
VERTEX
  8
0
 62
7
  6
CONTINUOUS
 10
351.8052259502
 20
567.1686456083
  0
VERTEX
  8
0
 62
7
  6
CONTINUOUS
 10
351.8417068218
 20
567.1712377084
  0
VERTEX
  8
0
 62
7
  6
CONTINUOUS
 10
351.8775106301
 20
567.1737804394
  0
VERTEX
  8
0
 62
7
  6
CONTINUOUS
 10
351.9126234046
 20
567.1762728776
  0
SEQEND
  0
POLYLINE
  8
0
 62
7
  6
CONTINUOUS
 66
1
 70
0
  0
VERTEX
  8
0
 62
7
  6
CONTINUOUS
 10
351.8429190998
 20
567.1713252533
  0
VERTEX
  8
0
 62
7
  6
CONTINUOUS
 10
351.8242747343
 20
567.1700006582
  0
VERTEX
  8
0
 62
7
  6
CONTINUOUS
 10
351.8059799934
 20
567.1687005764
  0
VERTEX
  8
0
 62
7
  6
CONTINUOUS
 10
351.7879884821
 20
567.1674217282
  0
VERTEX
  8
0
 62
7
  6
CONTINUOUS
 10
351.7527621271
 20
567.1649169109
  0
SEQEND
  0
POLYLINE
  8
0
 62
7
  6
CONTINUOUS
 66
1
 70
0
  0
VERTEX
  8
0
 62
7
  6
CONTINUOUS
 10
351.8619601861
 20
567.172677687
  0
VERTEX
  8
0
 62
7
  6
CONTINUOUS
 10
351.8428075147
 20
567.1713158966
  0
VERTEX
  8
0
 62
7
  6
CONTINUOUS
 10
351.8253742711
 20
567.1700773808
  0
VERTEX
  8
0
 62
7
  6
CONTINUOUS
 10
351.8087818377
 20
567.1688983242
  0
VERTEX
  8
0
 62
7
  6
CONTINUOUS
 10
351.7926144906
 20
567.1677492167
  0
VERTEX
  8
0
 62
7
  6
CONTINUOUS
 10
351.7753191398
 20
567.1665196545
  0
SEQEND
  0
POLYLINE
  8
0
 62
7
  6
CONTINUOUS
 66
1
 70
0
  0
VERTEX
  8
0
 62
7
  6
CONTINUOUS
 10
351.9219379611
 20
567.1769354482
  0
VERTEX
  8
0
 62
7
  6
CONTINUOUS
 10
351.9014215652
 20
567.1754794005
  0
VERTEX
  8
0
 62
7
  6
CONTINUOUS
 10
351.8814450995
 20
567.1740612817
  0
VERTEX
  8
0
 62
7
  6
CONTINUOUS
 10
351.8619601861
 20
567.172677687
  0
SEQEND
  0
POLYLINE
  8
0
 62
7
  6
CONTINUOUS
 66
1
 70
0
  0
VERTEX
  8
0
 62
7
  6
CONTINUOUS
 10
351.9251236784
 20
567.1771599032
  0
VERTEX
  8
0
 62
7
  6
CONTINUOUS
 10
351.9088490855
 20
567.17600502
  0
VERTEX
  8
0
 62
7
  6
CONTINUOUS
 10
351.8927979133
 20
567.1748657372
  0
VERTEX
  8
0
 62
7
  6
CONTINUOUS
 10
351.8759282792
 20
567.1736680898
  0
VERTEX
  8
0
 62
7
  6
CONTINUOUS
 10
351.8594550207
 20
567.1724983144
  0
SEQEND
  0
POLYLINE
  8
0
 62
7
  6
CONTINUOUS
 66
1
 70
0
  0
VERTEX
  8
0
 62
7
  6
CONTINUOUS
 10
351.9372864526
 20
567.1780244647
  0
VERTEX
  8
0
 62
7
  6
CONTINUOUS
 10
351.9233679349
 20
567.1770369183
  0
VERTEX
  8
0
 62
7
  6
CONTINUOUS
 10
351.9092961431
 20
567.1760383069
  0
VERTEX
  8
0
 62
7
  6
CONTINUOUS
 10
351.8950757432
 20
567.1750289556
  0
VERTEX
  8
0
 62
7
  6
CONTINUOUS
 10
351.8807118491
 20
567.1740092213
  0
VERTEX
  8
0
 62
7
  6
CONTINUOUS
 10
351.8662011276
 20
567.1729788611
  0
VERTEX
  8
0
 62
7
  6
CONTINUOUS
 10
351.8515451923
 20
567.1719379833
  0
VERTEX
  8
0
 62
7
  6
CONTINUOUS
 10
351.8367498761
 20
567.1708869959
  0
VERTEX
  8
0
 62
7
  6
CONTINUOUS
 10
351.8218206375
 20
567.1698262811
  0
VERTEX
  8
0
 62
7
  6
CONTINUOUS
 10
351.8067628397
 20
567.1687562145
  0
VERTEX
  8
0
 62
7
  6
CONTINUOUS
 10
351.7915818104
 20
567.1676771693
  0
VERTEX
  8
0
 62
7
  6
CONTINUOUS
 10
351.7762819725
 20
567.1665894542
  0
SEQEND
  0
LINE
  8
0
 62
7
  6
CONTINUOUS
 10
351.9570917356
 20
567.1794276752
 11
351.9126234046
 21
567.1762728776
  0
POLYLINE
  8
0
 62
7
  6
CONTINUOUS
 66
1
 70
0
  0
VERTEX
  8
0
 62
7
  6
CONTINUOUS
 10
351.9473636438
 20
567.1787376833
  0
VERTEX
  8
0
 62
7
  6
CONTINUOUS
 10
351.9832081268
 20
567.1812795927
  0
VERTEX
  8
0
 62
7
  6
CONTINUOUS
 10
352.0203849209
 20
567.1839146487
  0
SEQEND
  0
POLYLINE
  8
0
 62
7
  6
CONTINUOUS
 66
1
 70
0
  0
VERTEX
  8
0
 62
7
  6
CONTINUOUS
 10
351.9781178528
 20
567.1809204531
  0
VERTEX
  8
0
 62
7
  6
CONTINUOUS
 10
351.9646608682
 20
567.1799661876
  0
VERTEX
  8
0
 62
7
  6
CONTINUOUS
 10
351.9510506002
 20
567.1790008742
  0
SEQEND
  0
POLYLINE
  8
0
 62
7
  6
CONTINUOUS
 66
1
 70
0
  0
VERTEX
  8
0
 62
7
  6
CONTINUOUS
 10
352.0273018932
 20
567.1844067186
  0
VERTEX
  8
0
 62
7
  6
CONTINUOUS
 10
351.9969313502
 20
567.1822542679
  0
VERTEX
  8
0
 62
7
  6
CONTINUOUS
 10
351.9660245204
 20
567.1800628952
  0
VERTEX
  8
0
 62
7
  6
CONTINUOUS
 10
351.943044419
 20
567.1784329491
  0
SEQEND
  0
POLYLINE
  8
0
 62
7
  6
CONTINUOUS
 66
1
 70
0
  0
VERTEX
  8
0
 62
7
  6
CONTINUOUS
 10
352.0630484951
 20
567.1869369585
  0
VERTEX
  8
0
 62
7
  6
CONTINUOUS
 10
352.0485754188
 20
567.1859118714
  0
VERTEX
  8
0
 62
7
  6
CONTINUOUS
 10
352.0337989959
 20
567.1848650953
  0
VERTEX
  8
0
 62
7
  6
CONTINUOUS
 10
352.0189104759
 20
567.1838101672
  0
VERTEX
  8
0
 62
7
  6
CONTINUOUS
 10
352.0037413079
 20
567.1827351329
  0
VERTEX
  8
0
 62
7
  6
CONTINUOUS
 10
351.9884018395
 20
567.1816477998
  0
SEQEND
  0
LINE
  8
0
 62
7
  6
CONTINUOUS
 10
352.0545701211
 20
567.186336483
 11
352.0848533821
 21
567.18848097
  0
LINE
  8
0
 62
7
  6
CONTINUOUS
 10
352.0914365487
 20
567.1889470407
 11
352.0773532119
 21
567.1879499298
  0
POLYLINE
  8
0
 62
7
  6
CONTINUOUS
 66
1
 70
0
  0
VERTEX
  8
0
 62
7
  6
CONTINUOUS
 10
352.1042150445
 20
567.1898538002
  0
VERTEX
  8
0
 62
7
  6
CONTINUOUS
 10
352.0923462046
 20
567.1890136075
  0
VERTEX
  8
0
 62
7
  6
CONTINUOUS
 10
352.0803092592
 20
567.1881613757
  0
VERTEX
  8
0
 62
7
  6
CONTINUOUS
 10
352.0680904172
 20
567.1872961219
  0
VERTEX
  8
0
 62
7
  6
CONTINUOUS
 10
352.0556936524
 20
567.1864181217
  0
VERTEX
  8
0
 62
7
  6
CONTINUOUS
 10
352.0431346554
 20
567.1855284805
  0
VERTEX
  8
0
 62
7
  6
CONTINUOUS
 10
352.0304283382
 20
567.1846282486
  0
VERTEX
  8
0
 62
7
  6
CONTINUOUS
 10
352.0175763966
 20
567.1837175405
  0
VERTEX
  8
0
 62
7
  6
CONTINUOUS
 10
352.0045747853
 20
567.1827960645
  0
VERTEX
  8
0
 62
7
  6
CONTINUOUS
 10
351.9914222379
 20
567.1818637254
  0
VERTEX
  8
0
 62
7
  6
CONTINUOUS
 10
351.9729146182
 20
567.1805497584
  0
SEQEND
  0
POLYLINE
  8
0
 62
7
  6
CONTINUOUS
 66
1
 70
0
  0
VERTEX
  8
0
 62
7
  6
CONTINUOUS
 10
352.1137856219
 20
567.190531201
  0
VERTEX
  8
0
 62
7
  6
CONTINUOUS
 10
352.0857238127
 20
567.1885447507
  0
VERTEX
  8
0
 62
7
  6
CONTINUOUS
 10
352.0568653009
 20
567.1865011099
  0
VERTEX
  8
0
 62
7
  6
CONTINUOUS
 10
352.0203849209
 20
567.1839146487
  0
SEQEND
  0
POLYLINE
  8
0
 62
7
  6
CONTINUOUS
 66
1
 70
0
  0
VERTEX
  8
0
 62
7
  6
CONTINUOUS
 10
352.0848533821
 20
567.18848097
  0
VERTEX
  8
0
 62
7
  6
CONTINUOUS
 10
352.1549156726
 20
567.1934392069
  0
VERTEX
  8
0
 62
7
  6
CONTINUOUS
 10
352.1906870778
 20
567.1959689115
  0
VERTEX
  8
0
 62
7
  6
CONTINUOUS
 10
352.2223875902
 20
567.198209374
  0
SEQEND
  0
LINE
  8
0
 62
7
  6
CONTINUOUS
 10
352.2780867664
 20
567.2021436879
 11
352.2869101058
 21
567.2027680817
  0
LINE
  8
0
 62
7
  6
CONTINUOUS
 10
352.2859137218
 20
567.2027004377
 11
352.264922031
 21
567.2012162011
  0
POLYLINE
  8
0
 62
7
  6
CONTINUOUS
 66
1
 70
0
  0
VERTEX
  8
0
 62
7
  6
CONTINUOUS
 10
352.1947768617
 20
567.1962580385
  0
VERTEX
  8
0
 62
7
  6
CONTINUOUS
 10
352.18278941
 20
567.1954105262
  0
VERTEX
  8
0
 62
7
  6
CONTINUOUS
 10
352.1705877317
 20
567.1945476894
  0
VERTEX
  8
0
 62
7
  6
CONTINUOUS
 10
352.15807985
 20
567.193663029
  0
VERTEX
  8
0
 62
7
  6
CONTINUOUS
 10
352.1452078581
 20
567.192752454
  0
VERTEX
  8
0
 62
7
  6
CONTINUOUS
 10
352.1321828725
 20
567.1918309057
  0
SEQEND
  0
POLYLINE
  8
0
 62
7
  6
CONTINUOUS
 66
1
 70
0
  0
VERTEX
  8
0
 62
7
  6
CONTINUOUS
 10
352.218163289
 20
567.1979132175
  0
VERTEX
  8
0
 62
7
  6
CONTINUOUS
 10
352.1932322288
 20
567.1961509783
  0
VERTEX
  8
0
 62
7
  6
CONTINUOUS
 10
352.1675428368
 20
567.1943344594
  0
VERTEX
  8
0
 62
7
  6
CONTINUOUS
 10
352.1410574444
 20
567.1924610039
  0
SEQEND
  0
POLYLINE
  8
0
 62
7
  6
CONTINUOUS
 66
1
 70
0
  0
VERTEX
  8
0
 62
7
  6
CONTINUOUS
 10
352.213875633
 20
567.1976102068
  0
VERTEX
  8
0
 62
7
  6
CONTINUOUS
 10
352.2036298429
 20
567.1968860291
  0
VERTEX
  8
0
 62
7
  6
CONTINUOUS
 10
352.1932391698
 20
567.196151469
  0
VERTEX
  8
0
 62
7
  6
CONTINUOUS
 10
352.1827067757
 20
567.195406785
  0
VERTEX
  8
0
 62
7
  6
CONTINUOUS
 10
352.1720048366
 20
567.1946500138
  0
VERTEX
  8
0
 62
7
  6
CONTINUOUS
 10
352.1611309343
 20
567.1938809739
  0
VERTEX
  8
0
 62
7
  6
CONTINUOUS
 10
352.1500843075
 20
567.1930996006
  0
VERTEX
  8
0
 62
7
  6
CONTINUOUS
 10
352.1388678273
 20
567.1923060894
  0
SEQEND
  0
LINE
  8
0
 62
7
  6
CONTINUOUS
 10
352.2177920946
 20
567.1978846721
 11
352.2064523288
 21
567.1970833119
  0
LINE
  8
0
 62
7
  6
CONTINUOUS
 10
352.2467190921
 20
567.1999311979
 11
352.218163289
 21
567.1979132175
  0
LINE
  8
0
 62
7
  6
CONTINUOUS
 10
352.2478002833
 20
567.2000075207
 11
352.2176095693
 21
567.1978740781
  0
LINE
  8
0
 62
7
  6
CONTINUOUS
 10
352.2869094044
 20
567.2027707866
 11
352.2848465717
 21
567.2026250207
  0
LINE
  8
0
 62
7
  6
CONTINUOUS
 10
352.2467340635
 20
567.1999294464
 11
352.2501555327
 21
567.2001712008
  0
LINE
  8
0
 62
7
  6
CONTINUOUS
 10
352.2223875902
 20
567.198209374
 11
352.2467340635
 21
567.1999294464
  0
LINE
  8
0
 62
7
  6
CONTINUOUS
 10
352.2501555327
 20
567.2001712008
 11
352.2780867664
 21
567.2021436879
  0
LINE
  8
0
 62
7
  6
CONTINUOUS
 10
352.264922031
 20
567.2012162011
 11
352.2478002833
 21
567.2000075207
  0
LINE
  8
0
 62
7
  6
CONTINUOUS
 10
352.2478002833
 20
567.2000075207
 11
352.2467190921
 21
567.1999311979
  0
LINE
  8
0
 62
7
  6
CONTINUOUS
 10
352.2469902386
 20
567.1960273716
 11
350.373589451
 21
567.0659073217
  0
LINE
  8
0
 62
7
  6
CONTINUOUS
 10
350.7734159299
 20
520.6941841958
 11
513.5099480327
 21
520.6941841958
  0
POLYLINE
  8
0
 62
7
  6
CONTINUOUS
 66
1
 70
0
  0
VERTEX
  8
0
 62
7
  6
CONTINUOUS
 10
516.4866493452
 20
561.7348788156
  0
VERTEX
  8
0
 62
7
  6
CONTINUOUS
 10
516.4406892189
 20
562.0820861753
  0
VERTEX
  8
0
 62
7
  6
CONTINUOUS
 10
516.3705866184
 20
562.4250138896
  0
VERTEX
  8
0
 62
7
  6
CONTINUOUS
 10
516.2770408889
 20
562.7610068344
  0
VERTEX
  8
0
 62
7
  6
CONTINUOUS
 10
516.1606914463
 20
563.0886697962
  0
VERTEX
  8
0
 62
7
  6
CONTINUOUS
 10
516.0220082125
 20
563.4071249606
  0
SEQEND
  0
POLYLINE
  8
0
 62
7
  6
CONTINUOUS
 66
1
 70
0
  0
VERTEX
  8
0
 62
7
  6
CONTINUOUS
 10
516.4719053961
 20
561.8546862273
  0
VERTEX
  8
0
 62
7
  6
CONTINUOUS
 10
516.4580186499
 20
561.9715550436
  0
VERTEX
  8
0
 62
7
  6
CONTINUOUS
 10
516.4115606386
 20
562.2397983052
  0
VERTEX
  8
0
 62
7
  6
CONTINUOUS
 10
516.3468085446
 20
562.5195729647
  0
VERTEX
  8
0
 62
7
  6
CONTINUOUS
 10
516.2606778982
 20
562.8117938579
  0
VERTEX
  8
0
 62
7
  6
CONTINUOUS
 10
516.149812286
 20
563.1160015201
  0
VERTEX
  8
0
 62
7
  6
CONTINUOUS
 10
516.0132418719
 20
563.425395456
  0
VERTEX
  8
0
 62
7
  6
CONTINUOUS
 10
515.9103678259
 20
563.6210553094
  0
SEQEND
  0
LINE
  8
0
 62
7
  6
CONTINUOUS
 10
415.0469626657
 20
573.5266385046
 11
416.8739529082
 21
573.5266385046
  0
LINE
  8
0
 62
7
  6
CONTINUOUS
 10
456.1459431572
 20
573.5266385046
 11
457.9729333997
 21
573.5266385046
  0
LINE
  8
0
 62
7
  6
CONTINUOUS
 10
417.1157979407
 20
573.6142792623
 11
455.9040981248
 21
573.6142792623
  0
LINE
  8
0
 62
7
  6
CONTINUOUS
 10
419.3368553263
 20
577.0117871153
 11
453.6830407391
 21
577.0117871153
  0
LINE
  8
0
 62
7
  6
CONTINUOUS
 10
417.8857150567
 20
577.1892008665
 11
419.0503320881
 21
577.1892008665
  0
LINE
  8
0
 62
7
  6
CONTINUOUS
 10
453.9695639773
 20
577.1892008665
 11
455.1341810087
 21
577.1892008665
  0
LINE
  8
0
 62
7
  6
CONTINUOUS
 10
464.264224813
 20
571.3707911254
 11
465.1091058695
 21
569.0494995006
  0
LINE
  8
0
 62
7
  6
CONTINUOUS
 10
511.9673503916
 20
566.2317875521
 11
511.9225127275
 21
566.2357069356
  0
LINE
  8
0
 62
7
  6
CONTINUOUS
 10
512.0449855717
 20
566.2240382473
 11
511.9673503916
 21
566.2317875521
  0
LINE
  8
0
 62
7
  6
CONTINUOUS
 10
512.1105686527
 20
566.2165514587
 11
511.9225127305
 21
566.2357069402
  0
LINE
  8
0
 62
7
  6
CONTINUOUS
 10
512.2244132906
 20
566.2014449759
 11
511.9225109617
 21
566.2357044142
  0
LINE
  8
0
 62
7
  6
CONTINUOUS
 10
512.2366198695
 20
566.1996736432
 11
511.9276379117
 21
566.2351226153
  0
LINE
  8
0
 62
7
  6
CONTINUOUS
 10
512.2408268251
 20
566.1990474779
 11
511.9225109617
 21
566.235704414
  0
LINE
  8
0
 62
7
  6
CONTINUOUS
 10
512.1246468486
 20
566.2148277162
 11
512.0449855717
 21
566.2240382473
  0
POLYLINE
  8
0
 62
7
  6
CONTINUOUS
 66
1
 70
0
  0
VERTEX
  8
0
 62
7
  6
CONTINUOUS
 10
446.2772920932
 20
578.8472281532
  0
VERTEX
  8
0
 62
7
  6
CONTINUOUS
 10
446.6421220351
 20
578.7997891867
  0
VERTEX
  8
0
 62
7
  6
CONTINUOUS
 10
447.0284201401
 20
578.7474600512
  0
VERTEX
  8
0
 62
7
  6
CONTINUOUS
 10
447.4119584749
 20
578.6932472237
  0
VERTEX
  8
0
 62
7
  6
CONTINUOUS
 10
447.780844996
 20
578.638768858
  0
VERTEX
  8
0
 62
7
  6
CONTINUOUS
 10
448.1302122874
 20
578.5847439961
  0
VERTEX
  8
0
 62
7
  6
CONTINUOUS
 10
448.4554304205
 20
578.5318926114
  0
VERTEX
  8
0
 62
7
  6
CONTINUOUS
 10
448.7521658273
 20
578.4809305353
  0
SEQEND
  0
LINE
  8
0
 62
7
  6
CONTINUOUS
 10
512.2300032414
 20
566.2006375297
 11
512.1105686527
 21
566.2165514587
  0
LINE
  8
0
 62
7
  6
CONTINUOUS
 10
512.3379614533
 20
566.1837199628
 11
512.2300032414
 21
566.2006375297
  0
POLYLINE
  8
0
 62
7
  6
CONTINUOUS
 66
1
 70
0
  0
VERTEX
  8
0
 62
7
  6
CONTINUOUS
 10
448.3986124367
 20
578.3276902107
  0
VERTEX
  8
0
 62
7
  6
CONTINUOUS
 10
448.1497707159
 20
578.3705427441
  0
VERTEX
  8
0
 62
7
  6
CONTINUOUS
 10
447.8731525662
 20
578.4156481589
  0
VERTEX
  8
0
 62
7
  6
CONTINUOUS
 10
447.5750813445
 20
578.4619057521
  0
VERTEX
  8
0
 62
7
  6
CONTINUOUS
 10
447.260223152
 20
578.50857823
  0
VERTEX
  8
0
 62
7
  6
CONTINUOUS
 10
446.9336278466
 20
578.5549247482
  0
VERTEX
  8
0
 62
7
  6
CONTINUOUS
 10
446.603796759
 20
578.5997932903
  0
VERTEX
  8
0
 62
7
  6
CONTINUOUS
 10
446.2772920932
 20
578.6423982458
  0
SEQEND
  0
LINE
  8
0
 62
7
  6
CONTINUOUS
 10
512.5526156723
 20
566.1428303939
 11
512.2244132906
 21
566.2014449759
  0
LINE
  8
0
 62
7
  6
CONTINUOUS
 10
512.5794375695
 20
566.1370406381
 11
512.2366198695
 21
566.1996736432
  0
LINE
  8
0
 62
7
  6
CONTINUOUS
 10
512.5849672658
 20
566.1358203101
 11
512.2408268251
 21
566.1990474779
  0
POLYLINE
  8
0
 62
7
  6
CONTINUOUS
 66
1
 70
0
  0
VERTEX
  8
0
 62
7
  6
CONTINUOUS
 10
448.7521658273
 20
578.4809284177
  0
VERTEX
  8
0
 62
7
  6
CONTINUOUS
 10
450.3276367523
 20
578.1687691203
  0
VERTEX
  8
0
 62
7
  6
CONTINUOUS
 10
452.068320658
 20
577.7459767731
  0
VERTEX
  8
0
 62
7
  6
CONTINUOUS
 10
453.9694341533
 20
577.1892201358
  0
SEQEND
  0
POLYLINE
  8
0
 62
7
  6
CONTINUOUS
 66
1
 70
0
  0
VERTEX
  8
0
 62
7
  6
CONTINUOUS
 10
512.5364569053
 20
566.1462509568
  0
VERTEX
  8
0
 62
7
  6
CONTINUOUS
 10
512.4397190418
 20
566.1655493439
  0
VERTEX
  8
0
 62
7
  6
CONTINUOUS
 10
512.3379614533
 20
566.1837199628
  0
SEQEND
  0
LINE
  8
0
 62
7
  6
CONTINUOUS
 10
512.6290322673
 20
566.1259135662
 11
512.5364569053
 21
566.1462509568
  0
POLYLINE
  8
0
 62
7
  6
CONTINUOUS
 66
1
 70
0
  0
VERTEX
  8
0
 62
7
  6
CONTINUOUS
 10
453.9694341533
 20
577.1892201358
  0
VERTEX
  8
0
 62
7
  6
CONTINUOUS
 10
455.0091802412
 20
575.4526412353
  0
VERTEX
  8
0
 62
7
  6
CONTINUOUS
 10
456.1493140069
 20
573.5260977905
  0
SEQEND
  0
POLYLINE
  8
0
 62
7
  6
CONTINUOUS
 66
1
 70
0
  0
VERTEX
  8
0
 62
7
  6
CONTINUOUS
 10
455.6849431247
 20
573.6142786412
  0
VERTEX
  8
0
 62
7
  6
CONTINUOUS
 10
454.9785963016
 20
574.8209260455
  0
VERTEX
  8
0
 62
7
  6
CONTINUOUS
 10
454.3111752131
 20
575.9535201369
  0
VERTEX
  8
0
 62
7
  6
CONTINUOUS
 10
453.68303905
 20
577.0117872784
  0
SEQEND
  0
LINE
  8
0
 62
7
  6
CONTINUOUS
 10
512.876182251
 20
566.0624740498
 11
512.5526156723
 21
566.1428303939
  0
LINE
  8
0
 62
7
  6
CONTINUOUS
 10
512.9171157429
 20
566.0506639674
 11
512.5794375695
 21
566.1370406381
  0
LINE
  8
0
 62
7
  6
CONTINUOUS
 10
512.9237909918
 20
566.0486950938
 11
512.5849672658
 21
566.1358203101
  0
POLYLINE
  8
0
 62
7
  6
CONTINUOUS
 66
1
 70
0
  0
VERTEX
  8
0
 62
7
  6
CONTINUOUS
 10
512.8025531577
 20
566.0827858076
  0
VERTEX
  8
0
 62
7
  6
CONTINUOUS
 10
512.7176770585
 20
566.1047046453
  0
VERTEX
  8
0
 62
7
  6
CONTINUOUS
 10
512.6290322673
 20
566.1259135662
  0
SEQEND
  0
LINE
  8
0
 62
7
  6
CONTINUOUS
 10
457.9729333997
 20
573.5266385046
 11
463.5879402254
 21
571.9934554943
  0
LINE
  8
0
 62
7
  6
CONTINUOUS
 10
512.8839474337
 20
566.0602649723
 11
512.8025531577
 21
566.0827858076
  0
LINE
  8
0
 62
7
  6
CONTINUOUS
 10
512.907614614
 20
566.0534377514
 11
512.8157342325
 21
566.0791387598
  0
LINE
  8
0
 62
7
  6
CONTINUOUS
 10
512.9616182195
 20
566.0373846665
 11
512.8839474337
 21
566.0602649723
  0
POLYLINE
  8
0
 62
7
  6
CONTINUOUS
 66
1
 70
0
  0
VERTEX
  8
0
 62
7
  6
CONTINUOUS
 10
453.68303905
 20
577.0117872784
  0
VERTEX
  8
0
 62
7
  6
CONTINUOUS
 10
451.7450735535
 20
577.5831368406
  0
VERTEX
  8
0
 62
7
  6
CONTINUOUS
 10
449.9818901434
 20
578.0131819086
  0
VERTEX
  8
0
 62
7
  6
CONTINUOUS
 10
448.3986124367
 20
578.3276902107
  0
SEQEND
  0
LINE
  8
0
 62
7
  6
CONTINUOUS
 10
513.0091554564
 20
566.0227031179
 11
512.907614614
 21
566.0534377514
  0
LINE
  8
0
 62
7
  6
CONTINUOUS
 10
513.0347767841
 20
566.0145745621
 11
512.9616182195
 21
566.0373846665
  0
LINE
  8
0
 62
7
  6
CONTINUOUS
 10
513.1936744179
 20
565.9607332157
 11
512.876182251
 21
566.0624740498
  0
LINE
  8
0
 62
7
  6
CONTINUOUS
 10
513.1031676135
 20
565.9921305222
 11
513.0091554564
 21
566.0227031179
  0
LINE
  8
0
 62
7
  6
CONTINUOUS
 10
513.1031676135
 20
565.9921305222
 11
513.0347767841
 21
566.0145745621
  0
LINE
  8
0
 62
7
  6
CONTINUOUS
 10
513.2479686094
 20
565.9409670952
 11
512.9171157429
 21
566.0506639674
  0
LINE
  8
0
 62
7
  6
CONTINUOUS
 10
513.2556586414
 20
565.9381032178
 11
512.9237909918
 21
566.0486950938
  0
LINE
  8
0
 62
7
  6
CONTINUOUS
 10
456.1493140069
 20
573.5260977905
 11
455.9040981248
 21
573.6142792623
  0
LINE
  8
0
 62
7
  6
CONTINUOUS
 10
455.1341810087
 20
577.1892008664
 11
457.9729333997
 21
573.5266385046
  0
POLYLINE
  8
0
 62
7
  6
CONTINUOUS
 66
1
 70
0
  0
VERTEX
  8
0
 62
7
  6
CONTINUOUS
 10
515.9127987736
 20
563.6223334532
  0
VERTEX
  8
0
 62
7
  6
CONTINUOUS
 10
515.7450975076
 20
563.9104805717
  0
VERTEX
  8
0
 62
7
  6
CONTINUOUS
 10
515.5585663477
 20
564.1868111758
  0
VERTEX
  8
0
 62
7
  6
CONTINUOUS
 10
515.3540346299
 20
564.4500966721
  0
VERTEX
  8
0
 62
7
  6
CONTINUOUS
 10
515.1324117226
 20
564.6991664673
  0
VERTEX
  8
0
 62
7
  6
CONTINUOUS
 10
514.8946829831
 20
564.9329131725
  0
VERTEX
  8
0
 62
7
  6
CONTINUOUS
 10
514.6419053775
 20
565.1502975264
  0
VERTEX
  8
0
 62
7
  6
CONTINUOUS
 10
514.3752027793
 20
565.3503530173
  0
VERTEX
  8
0
 62
7
  6
CONTINUOUS
 10
514.0957609757
 20
565.5321901781
  0
VERTEX
  8
0
 62
7
  6
CONTINUOUS
 10
513.8048223922
 20
565.6950005432
  0
VERTEX
  8
0
 62
7
  6
CONTINUOUS
 10
513.503680571
 20
565.8380602415
  0
VERTEX
  8
0
 62
7
  6
CONTINUOUS
 10
513.1936744179
 20
565.9607332157
  0
SEQEND
  0
POLYLINE
  8
0
 62
7
  6
CONTINUOUS
 66
1
 70
0
  0
VERTEX
  8
0
 62
7
  6
CONTINUOUS
 10
515.8806755801
 20
563.6775280612
  0
VERTEX
  8
0
 62
7
  6
CONTINUOUS
 10
515.8525179389
 20
563.7310820932
  0
VERTEX
  8
0
 62
7
  6
CONTINUOUS
 10
515.6697551938
 20
564.0269254717
  0
VERTEX
  8
0
 62
7
  6
CONTINUOUS
 10
515.4661173317
 20
564.3103263534
  0
VERTEX
  8
0
 62
7
  6
CONTINUOUS
 10
515.2429561331
 20
564.5791149816
  0
VERTEX
  8
0
 62
7
  6
CONTINUOUS
 10
515.0018550099
 20
564.8313872823
  0
VERTEX
  8
0
 62
7
  6
CONTINUOUS
 10
514.7441228361
 20
565.0659086214
  0
VERTEX
  8
0
 62
7
  6
CONTINUOUS
 10
514.4708897887
 20
565.2817567847
  0
VERTEX
  8
0
 62
7
  6
CONTINUOUS
 10
514.1833122185
 20
565.4780549683
  0
VERTEX
  8
0
 62
7
  6
CONTINUOUS
 10
513.8826436357
 20
565.6539316433
  0
VERTEX
  8
0
 62
7
  6
CONTINUOUS
 10
513.5703461503
 20
565.8084990679
  0
VERTEX
  8
0
 62
7
  6
CONTINUOUS
 10
513.2479686094
 20
565.9409670952
  0
SEQEND
  0
POLYLINE
  8
0
 62
7
  6
CONTINUOUS
 66
1
 70
0
  0
VERTEX
  8
0
 62
7
  6
CONTINUOUS
 10
516.0220082125
 20
563.4071249606
  0
VERTEX
  8
0
 62
7
  6
CONTINUOUS
 10
515.8613715688
 20
563.7154993578
  0
VERTEX
  8
0
 62
7
  6
CONTINUOUS
 10
515.6793037522
 20
564.0125501067
  0
VERTEX
  8
0
 62
7
  6
CONTINUOUS
 10
515.4766646251
 20
564.2966267492
  0
VERTEX
  8
0
 62
7
  6
CONTINUOUS
 10
515.2544569385
 20
564.5661593561
  0
VERTEX
  8
0
 62
7
  6
CONTINUOUS
 10
515.0138019231
 20
564.8196868654
  0
VERTEX
  8
0
 62
7
  6
CONTINUOUS
 10
514.7559110656
 20
565.055874598
  0
VERTEX
  8
0
 62
7
  6
CONTINUOUS
 10
514.4820739606
 20
565.2735088909
  0
VERTEX
  8
0
 62
7
  6
CONTINUOUS
 10
514.1936677766
 20
565.4714802152
  0
VERTEX
  8
0
 62
7
  6
CONTINUOUS
 10
513.8921392287
 20
565.6487940083
  0
VERTEX
  8
0
 62
7
  6
CONTINUOUS
 10
513.5789630737
 20
565.8045865433
  0
VERTEX
  8
0
 62
7
  6
CONTINUOUS
 10
513.2556586414
 20
565.9381032178
  0
SEQEND
  0
ARC
  8
0
 62
7
  6
CONTINUOUS
 10
425.9919225509
 20
-473.808424034
 40
1043.603690512
 50
85.2663991798
 51
94.0416305089
  0
ARC
  8
0
 62
7
  6
CONTINUOUS
 10
-153.4774041601
 20
130.1941841958
 40
7.0
 50
90.0
 51
199.0
  0
ARC
  8
0
 62
7
  6
CONTINUOUS
 10
-154.9470059153
 20
140.1941841958
 40
3.0
 50
178.0
 51
270.0
  0
ARC
  8
0
 62
7
  6
CONTINUOUS
 10
-19.460350149
 20
-271.3058158042
 40
3.0
 50
199.0
 51
270.0
  0
ARC
  8
0
 62
7
  6
CONTINUOUS
 10
-154.220581783
 20
160.9962496397
 40
3.0
 50
93.1706211646
 51
178.0
  0
ARC
  8
0
 62
7
  6
CONTINUOUS
 10
372.6684827157
 20
139.6941841958
 40
8.0
 50
90.0
 51
162.5423968763
  0
ARC
  8
0
 62
7
  6
CONTINUOUS
 10
358.3593946944
 20
144.1941841958
 40
7.0
 50
270.0
 51
342.5423968763
  0
ARC
  8
0
 62
7
  6
CONTINUOUS
 10
513.5099480327
 20
144.6941841958
 40
3.0
 50
0.0
 51
90.0
  0
ARC
  8
0
 62
7
  6
CONTINUOUS
 10
513.5099480327
 20
-271.3058158042
 40
3.0
 50
270.0
 51
360.0
  0
ARC
  8
0
 62
7
  6
CONTINUOUS
 10
258.2302867521
 20
167.1941841958
 40
30.0
 50
318.6940575737
 51
321.0467502059
  0
ARC
  8
0
 62
7
  6
CONTINUOUS
 10
274.6727258742
 20
163.7233069207
 40
17.3469119106
 50
290.9804015281
 51
11.0732738075
  0
ARC
  8
0
 62
7
  6
CONTINUOUS
 10
358.5924509334
 20
152.6941841958
 40
5.0
 50
181.5
 51
270.0
  0
ARC
  8
0
 62
7
  6
CONTINUOUS
 10
285.0631955604
 20
185.3300820691
 40
3.0
 50
11.0732738075
 51
93.1706211646
  0
ARC
  8
0
 62
7
  6
CONTINUOUS
 10
350.9517135702
 20
559.0868240012
 40
7.9999999326
 50
94.3418551476
 51
181.4999999999
  0
ARC
  8
0
 62
7
  6
CONTINUOUS
 10
350.7734159299
 20
527.6941841958
 40
7.0
 50
181.5
 51
270.0
  0
ARC
  8
0
 62
7
  6
CONTINUOUS
 10
351.1400188319
 20
513.6941841958
 40
7.0
 50
90.0
 51
181.5
  0
ARC
  8
0
 62
7
  6
CONTINUOUS
 10
513.5099480327
 20
150.6941841958
 40
3.0
 50
270.0
 51
360.0
  0
ARC
  8
0
 62
7
  6
CONTINUOUS
 10
436.5099480327
 20
502.2042284429
 40
77.2632392753
 50
98.8713542082
 51
103.9484663514
  0
ARC
  8
0
 62
7
  6
CONTINUOUS
 10
436.5099480327
 20
502.2042284429
 40
77.2632392753
 50
76.0515336486
 51
81.1286457918
  0
ARC
  8
0
 62
7
  6
CONTINUOUS
 10
436.5099480327
 20
502.2042284429
 40
77.2628656098
 50
82.7374036211
 51
97.2625963789
  0
ARC
  8
0
 62
7
  6
CONTINUOUS
 10
436.5099480327
 20
502.2042284429
 40
77.0596834461
 50
82.7181508037
 51
97.2818491963
  0
ARC
  8
0
 62
7
  6
CONTINUOUS
 10
409.6953638732
 20
571.0287709821
 40
1.0
 50
105.2723793093
 51
160.0
  0
ARC
  8
0
 62
7
  6
CONTINUOUS
 10
511.5099480327
 20
525.6941841958
 40
5.0
 50
270.0
 51
360.0
  0
ARC
  8
0
 62
7
  6
CONTINUOUS
 10
513.5099480327
 20
517.6941841958
 40
3.0
 50
0.0
 51
90.0
  0
ARC
  8
0
 62
7
  6
CONTINUOUS
 10
463.3245321922
 20
571.0287709821
 40
1.0
 50
20.0
 51
74.7276206907
  0
ARC
  8
0
 62
7
  6
CONTINUOUS
 10
511.5099480327
 20
561.2527542993
 40
5.0
 50
0.0
 51
85.2669960326
  0
ENDSEC
  0
EOF
