999
DXF file: K:\Client\125_Heirloom\001\00\Final_Data\Drawings\LADDER TOWEL WARMERS\wg510n_FRONT.dxf
999
Pro/ENGINEER 2017110 by Parametric Technology Corporation
  0
SECTION
  2
HEADER
  9
$EXTMAX
 10
420.0
 20
297.0
 30
0.0
  9
$EXTMIN
 10
0.0
 20
0.0
 30
0.0
  9
$LIMMIN
 10
0.0
 20
0.0
  9
$LIMMAX
 10
420.0
 20
297.0
  9
$VIEWCTR
 10
210.0
 20
148.5
  9
$VIEWSIZE
 40
297.0
  9
$CLAYER
  8
0
  9
$LTSCALE
 40
23.1
  9
$CELTYPE
  6
BYLAYER
  9
$DIMSCALE
 40
1.0
  9
$DIMASZ
 40
3.0
  9
$DIMEXO
 40
1.0
  9
$DIMDLI
 40
15.96
  9
$DIMEXE
 40
1.0
  9
$DIMCEN
 40
3.78
  9
$DIMLFAC
 40
1.0
  9
$DIMBLK
  1
_FILLED
  9
$DIMALT
 70
0
  9
$DIMALTF
 40
0.0393700787
  9
$DIMTXT
 40
3.0
  9
$AUNITS
 70
0
  9
$PDMODE
 70
3
  9
$PDSIZE
 40
5.0
  9
$TILEMODE
 70
1
  0
ENDSEC
  0
SECTION
  2
TABLES
  0
TABLE
  2
LTYPE
 70
6
  0
LTYPE
  2
BYBLOCK
 70
0
  3

 72
65
 73
0
 40
0.0
  0
LTYPE
  2
BYLAYER
 70
0
  3

 72
65
 73
0
 40
0.0
  0
LTYPE
  2
CONTINUOUS
 70
64
  3
Solid line
 72
65
 73
0
 40
0.0
  0
LTYPE
  2
CENTER
 70
64
  3
____ _ ____ _ ____ _ ____ _ ____ _ ____ _ ____
 72
65
 73
4
 40
0.6
 49
0.375
 49
-0.075
 49
0.075
 49
-0.075
  0
LTYPE
  2
HIDDEN
 70
64
  3
- - - - - - - - - - - - - - - - - - - -
 72
65
 73
2
 40
0.2
 49
0.1
 49
-0.1
  0
LTYPE
  2
PHANTOM
 70
64
  3
_____ _ _ _____ _ _ _____ _ _ _____
 72
65
 73
6
 40
0.8
 49
0.45
 49
-0.05
 49
0.1
 49
-0.05
 49
0.1
 49
-0.05
  0
LTYPE
  2
DOT
 70
64
  3
. . . . . . . . . . . . . . . . . . . .
 72
65
 73
2
 40
0.2
 49
0.1
 49
-0.1
  0
LTYPE
  2
DASHED
 70
64
  3
- - - - - - - - - - - - - - - - - - - -
 72
65
 73
2
 40
0.2
 49
0.1
 49
-0.1
  0
ENDTAB
  0
TABLE
  2
LAYER
 70
36
  0
LAYER
  2
0
 70
0
 62
7
  6
CONTINUOUS
  0
LAYER
  2
DEFAULT_1
 70
0
 62
7
  6
CENTER
  0
LAYER
  2
DEFAULT_2
 70
0
 62
8
  6
HIDDEN
  0
LAYER
  2
DEFAULT_3
 70
0
 62
7
  6
PHANTOM
  0
LAYER
  2
0000_BOM
 70
0
 62
7
  6
CONTINUOUS
  0
LAYER
  2
0000_REV_TABLE
 70
0
 62
7
  6
CONTINUOUS
  0
LAYER
  2
0000_STEVENS_NOTE
 70
0
 62
7
  6
CONTINUOUS
  0
LAYER
  2
01_DATUM_PLANES
 70
0
 62
7
  6
CONTINUOUS
  0
LAYER
  2
01_DEF_PLANES
 70
0
 62
7
  6
CONTINUOUS
  0
LAYER
  2
02_DATUM_COS
 70
0
 62
7
  6
CONTINUOUS
  0
LAYER
  2
99_SOLID
 70
0
 62
7
  6
CONTINUOUS
  0
LAYER
  2
CAD-MASTER_ZINC-PL
 70
0
 62
7
  6
CONTINUOUS
  0
LAYER
  2
CURVE
 70
0
 62
7
  6
CONTINUOUS
  0
LAYER
  2
SKEL
 70
0
 62
7
  6
CONTINUOUS
  0
LAYER
  2
SKETCH
 70
0
 62
7
  6
CONTINUOUS
  0
LAYER
  2
SURFACE
 70
0
 62
7
  6
CONTINUOUS
  0
ENDTAB
  0
TABLE
  2
STYLE
 70
1
  0
STYLE
  2
STANDARD
 70
0
 40
0.0
 41
0.75
 50
0.0
 71
0
 42
0.2
  3
txt
  4

  0
STYLE
  2
TEXTSTYLE_1
 70
0
 40
0.0
 41
0.8
 50
0.0
 71
0
 42
0.2
  3
gdt
  4

  0
ENDTAB
  0
ENDSEC
  0
SECTION
  2
BLOCKS
  0
ENDSEC
  0
SECTION
  2
ENTITIES
  0
POLYLINE
  8
0
 62
7
  6
CONTINUOUS
 66
1
 70
0
  0
VERTEX
  8
0
 62
7
  6
CONTINUOUS
 10
-86.5791107833
 20
355.7768502652
  0
VERTEX
  8
0
 62
7
  6
CONTINUOUS
 10
-86.7172726827
 20
355.576385891
  0
VERTEX
  8
0
 62
7
  6
CONTINUOUS
 10
-86.8658368912
 20
355.3583385111
  0
VERTEX
  8
0
 62
7
  6
CONTINUOUS
 10
-87.0243358605
 20
355.1226507853
  0
VERTEX
  8
0
 62
7
  6
CONTINUOUS
 10
-87.1923636436
 20
354.8690478646
  0
VERTEX
  8
0
 62
7
  6
CONTINUOUS
 10
-87.3692367323
 20
354.5975883374
  0
VERTEX
  8
0
 62
7
  6
CONTINUOUS
 10
-87.5543637848
 20
354.3079663847
  0
VERTEX
  8
0
 62
7
  6
CONTINUOUS
 10
-87.7464561997
 20
354.0010003804
  0
VERTEX
  8
0
 62
7
  6
CONTINUOUS
 10
-87.9444428585
 20
353.6766686329
  0
VERTEX
  8
0
 62
7
  6
CONTINUOUS
 10
-88.1462052475
 20
353.3371855188
  0
VERTEX
  8
0
 62
7
  6
CONTINUOUS
 10
-88.3494374624
 20
352.9842862473
  0
VERTEX
  8
0
 62
7
  6
CONTINUOUS
 10
-88.5524715341
 20
352.6193866297
  0
VERTEX
  8
0
 62
7
  6
CONTINUOUS
 10
-88.7533948222
 20
352.2436519179
  0
VERTEX
  8
0
 62
7
  6
CONTINUOUS
 10
-88.9500721433
 20
351.8595689997
  0
VERTEX
  8
0
 62
7
  6
CONTINUOUS
 10
-89.1404120291
 20
351.4685862825
  0
VERTEX
  8
0
 62
7
  6
CONTINUOUS
 10
-89.3219835165
 20
351.0749844591
  0
VERTEX
  8
0
 62
7
  6
CONTINUOUS
 10
-89.4916924939
 20
350.6833188456
  0
VERTEX
  8
0
 62
7
  6
CONTINUOUS
 10
-89.6492262093
 20
350.294213979
  0
VERTEX
  8
0
 62
7
  6
CONTINUOUS
 10
-89.7934151603
 20
349.9099177104
  0
VERTEX
  8
0
 62
7
  6
CONTINUOUS
 10
-89.9243385823
 20
349.5301154128
  0
VERTEX
  8
0
 62
7
  6
CONTINUOUS
 10
-90.0419171325
 20
349.1552367892
  0
VERTEX
  8
0
 62
7
  6
CONTINUOUS
 10
-90.1461732981
 20
348.7852967011
  0
VERTEX
  8
0
 62
7
  6
CONTINUOUS
 10
-90.2372236349
 20
348.4205797738
  0
VERTEX
  8
0
 62
7
  6
CONTINUOUS
 10
-90.3152726016
 20
348.0607064195
  0
VERTEX
  8
0
 62
7
  6
CONTINUOUS
 10
-90.3806227719
 20
347.7057787045
  0
VERTEX
  8
0
 62
7
  6
CONTINUOUS
 10
-90.4335388737
 20
347.3546362917
  0
VERTEX
  8
0
 62
7
  6
CONTINUOUS
 10
-90.4744855725
 20
347.0062436627
  0
VERTEX
  8
0
 62
7
  6
CONTINUOUS
 10
-90.5035013628
 20
346.6603284278
  0
VERTEX
  8
0
 62
7
  6
CONTINUOUS
 10
-90.5208616888
 20
346.3166915715
  0
VERTEX
  8
0
 62
7
  6
CONTINUOUS
 10
-90.5265689307
 20
345.9740774527
  0
VERTEX
  8
0
 62
7
  6
CONTINUOUS
 10
-90.5208695102
 20
345.6315160183
  0
VERTEX
  8
0
 62
7
  6
CONTINUOUS
 10
-90.5035175452
 20
345.2879514897
  0
VERTEX
  8
0
 62
7
  6
CONTINUOUS
 10
-90.4745120994
 20
344.942061275
  0
VERTEX
  8
0
 62
7
  6
CONTINUOUS
 10
-90.4335755189
 20
344.5936757611
  0
VERTEX
  8
0
 62
7
  6
CONTINUOUS
 10
-90.3806653927
 20
344.2425207731
  0
VERTEX
  8
0
 62
7
  6
CONTINUOUS
 10
-90.3153237065
 20
343.8875874035
  0
VERTEX
  8
0
 62
7
  6
CONTINUOUS
 10
-90.237295457
 20
343.5277601009
  0
VERTEX
  8
0
 62
7
  6
CONTINUOUS
 10
-90.1462643007
 20
343.1630846224
  0
VERTEX
  8
0
 62
7
  6
CONTINUOUS
 10
-90.0420143413
 20
342.793130082
  0
VERTEX
  8
0
 62
7
  6
CONTINUOUS
 10
-89.9244332073
 20
342.4182108587
  0
VERTEX
  8
0
 62
7
  6
CONTINUOUS
 10
-89.7934964911
 20
342.0383490843
  0
VERTEX
  8
0
 62
7
  6
CONTINUOUS
 10
-89.6492908511
 20
341.6539906155
  0
VERTEX
  8
0
 62
7
  6
CONTINUOUS
 10
-89.4917459568
 20
341.2648463388
  0
VERTEX
  8
0
 62
7
  6
CONTINUOUS
 10
-89.3220232773
 20
340.8731432966
  0
VERTEX
  8
0
 62
7
  6
CONTINUOUS
 10
-89.1404323691
 20
340.4794947667
  0
VERTEX
  8
0
 62
7
  6
CONTINUOUS
 10
-88.9500636728
 20
340.0884529287
  0
VERTEX
  8
0
 62
7
  6
CONTINUOUS
 10
-88.7533336615
 20
339.7042739423
  0
VERTEX
  8
0
 62
7
  6
CONTINUOUS
 10
-88.5523661096
 20
339.3284591434
  0
VERTEX
  8
0
 62
7
  6
CONTINUOUS
 10
-88.3493250261
 20
338.9635529363
  0
VERTEX
  8
0
 62
7
  6
CONTINUOUS
 10
-88.1461051
 20
338.6106822759
  0
VERTEX
  8
0
 62
7
  6
CONTINUOUS
 10
-87.9443763508
 20
338.2712566515
  0
VERTEX
  8
0
 62
7
  6
CONTINUOUS
 10
-87.7464156078
 20
337.9469728643
  0
VERTEX
  8
0
 62
7
  6
CONTINUOUS
 10
-87.5543082171
 20
337.6399871234
  0
VERTEX
  8
0
 62
7
  6
CONTINUOUS
 10
-87.3691593495
 20
337.3503306941
  0
VERTEX
  8
0
 62
7
  6
CONTINUOUS
 10
-87.1922782098
 20
337.0788608843
  0
VERTEX
  8
0
 62
7
  6
CONTINUOUS
 10
-87.0242475053
 20
336.8252557756
  0
VERTEX
  8
0
 62
7
  6
CONTINUOUS
 10
-86.8657502538
 20
336.589572071
  0
VERTEX
  8
0
 62
7
  6
CONTINUOUS
 10
-86.7171892059
 20
336.3715312128
  0
VERTEX
  8
0
 62
7
  6
CONTINUOUS
 10
-86.5790295883
 20
336.1710712959
  0
VERTEX
  8
0
 62
7
  6
CONTINUOUS
 10
-86.4512554498
 20
335.9875990661
  0
VERTEX
  8
0
 62
7
  6
CONTINUOUS
 10
-86.2271104911
 20
335.6697760003
  0
SEQEND
  0
LINE
  8
0
 62
7
  6
CONTINUOUS
 10
-86.3340225118
 20
356.1273057459
 11
-86.5791107833
 21
355.7768502652
  0
LINE
  8
0
 62
7
  6
CONTINUOUS
 10
-86.1308783208
 20
356.4132434404
 11
-86.3340225118
 21
356.1273057459
  0
LINE
  8
0
 62
7
  6
CONTINUOUS
 10
-85.9693772385
 20
356.6378341291
 11
-86.1308783208
 21
356.4132434404
  0
POLYLINE
  8
0
 62
7
  6
CONTINUOUS
 66
1
 70
0
  0
VERTEX
  8
0
 62
7
  6
CONTINUOUS
 10
-85.7295614042
 20
356.9673117348
  0
VERTEX
  8
0
 62
7
  6
CONTINUOUS
 10
-85.7693252817
 20
356.9129671797
  0
VERTEX
  8
0
 62
7
  6
CONTINUOUS
 10
-85.9693772385
 20
356.6378341291
  0
SEQEND
  0
LINE
  8
0
 62
7
  6
CONTINUOUS
 10
-85.724607958
 20
356.9740194371
 11
-85.7295614042
 21
356.9673117348
  0
LINE
  8
0
 62
7
  6
CONTINUOUS
 10
-85.7295611
 20
-53.0192724779
 11
-85.724607958
 21
-53.0259805629
  0
LINE
  8
0
 62
7
  6
CONTINUOUS
 10
-85.9040613784
 20
-52.7799845112
 11
-85.7295611
 21
-53.0192724779
  0
LINE
  8
0
 62
7
  6
CONTINUOUS
 10
-86.044920533
 20
-52.5850156939
 11
-85.9040613784
 21
-52.7799845112
  0
LINE
  8
0
 62
7
  6
CONTINUOUS
 10
-86.2271104911
 20
-52.3302239997
 11
-86.044920533
 21
-52.5850156939
  0
LINE
  8
0
 62
7
  6
CONTINUOUS
 10
-115.724607958
 20
406.9740194371
 11
-115.724607958
 21
-103.0259805629
  0
LINE
  8
0
 62
7
  6
CONTINUOUS
 10
-85.724607958
 20
406.9740194371
 11
-85.724607958
 21
356.9740194371
  0
LINE
  8
0
 62
7
  6
CONTINUOUS
 10
-85.724607958
 20
334.9740194371
 11
-85.724607958
 21
259.9740194371
  0
LINE
  8
0
 62
7
  6
CONTINUOUS
 10
-85.724607958
 20
237.9740194371
 11
-85.724607958
 21
162.9740194371
  0
LINE
  8
0
 62
7
  6
CONTINUOUS
 10
-85.724607958
 20
140.9740194371
 11
-85.724607958
 21
65.9740194371
  0
LINE
  8
0
 62
7
  6
CONTINUOUS
 10
-85.724607958
 20
43.9740194371
 11
-85.724607958
 21
-31.0259805629
  0
LINE
  8
0
 62
7
  6
CONTINUOUS
 10
-85.724607958
 20
-53.0259805629
 11
-85.724607958
 21
-103.0259805629
  0
POLYLINE
  8
0
 62
7
  6
CONTINUOUS
 66
1
 70
0
  0
VERTEX
  8
0
 62
7
  6
CONTINUOUS
 10
-86.5791107833
 20
258.7768502652
  0
VERTEX
  8
0
 62
7
  6
CONTINUOUS
 10
-86.7172726827
 20
258.576385891
  0
VERTEX
  8
0
 62
7
  6
CONTINUOUS
 10
-86.8658368912
 20
258.3583385111
  0
VERTEX
  8
0
 62
7
  6
CONTINUOUS
 10
-87.0243358605
 20
258.1226507853
  0
VERTEX
  8
0
 62
7
  6
CONTINUOUS
 10
-87.1923636436
 20
257.8690478646
  0
VERTEX
  8
0
 62
7
  6
CONTINUOUS
 10
-87.3692367323
 20
257.5975883374
  0
VERTEX
  8
0
 62
7
  6
CONTINUOUS
 10
-87.5543637848
 20
257.3079663847
  0
VERTEX
  8
0
 62
7
  6
CONTINUOUS
 10
-87.7464561997
 20
257.0010003804
  0
VERTEX
  8
0
 62
7
  6
CONTINUOUS
 10
-87.9444428585
 20
256.6766686329
  0
VERTEX
  8
0
 62
7
  6
CONTINUOUS
 10
-88.1462052475
 20
256.3371855188
  0
VERTEX
  8
0
 62
7
  6
CONTINUOUS
 10
-88.3494374624
 20
255.9842862473
  0
VERTEX
  8
0
 62
7
  6
CONTINUOUS
 10
-88.5524715341
 20
255.6193866297
  0
VERTEX
  8
0
 62
7
  6
CONTINUOUS
 10
-88.7533948222
 20
255.2436519179
  0
VERTEX
  8
0
 62
7
  6
CONTINUOUS
 10
-88.9500721433
 20
254.8595689997
  0
VERTEX
  8
0
 62
7
  6
CONTINUOUS
 10
-89.1404120291
 20
254.4685862825
  0
VERTEX
  8
0
 62
7
  6
CONTINUOUS
 10
-89.3219835165
 20
254.0749844591
  0
VERTEX
  8
0
 62
7
  6
CONTINUOUS
 10
-89.4916924939
 20
253.6833188456
  0
VERTEX
  8
0
 62
7
  6
CONTINUOUS
 10
-89.6492262093
 20
253.294213979
  0
VERTEX
  8
0
 62
7
  6
CONTINUOUS
 10
-89.7934151603
 20
252.9099177104
  0
VERTEX
  8
0
 62
7
  6
CONTINUOUS
 10
-89.9243385823
 20
252.5301154128
  0
VERTEX
  8
0
 62
7
  6
CONTINUOUS
 10
-90.0419171325
 20
252.1552367892
  0
VERTEX
  8
0
 62
7
  6
CONTINUOUS
 10
-90.1461732981
 20
251.7852967011
  0
VERTEX
  8
0
 62
7
  6
CONTINUOUS
 10
-90.2372236349
 20
251.4205797738
  0
VERTEX
  8
0
 62
7
  6
CONTINUOUS
 10
-90.3152726016
 20
251.0607064195
  0
VERTEX
  8
0
 62
7
  6
CONTINUOUS
 10
-90.3806227719
 20
250.7057787045
  0
VERTEX
  8
0
 62
7
  6
CONTINUOUS
 10
-90.4335388737
 20
250.3546362917
  0
VERTEX
  8
0
 62
7
  6
CONTINUOUS
 10
-90.4744855725
 20
250.0062436627
  0
VERTEX
  8
0
 62
7
  6
CONTINUOUS
 10
-90.5035013628
 20
249.6603284278
  0
VERTEX
  8
0
 62
7
  6
CONTINUOUS
 10
-90.5208616888
 20
249.3166915715
  0
VERTEX
  8
0
 62
7
  6
CONTINUOUS
 10
-90.5265689307
 20
248.9740774527
  0
VERTEX
  8
0
 62
7
  6
CONTINUOUS
 10
-90.5208695102
 20
248.6315160183
  0
VERTEX
  8
0
 62
7
  6
CONTINUOUS
 10
-90.5035175452
 20
248.2879514897
  0
VERTEX
  8
0
 62
7
  6
CONTINUOUS
 10
-90.4745120994
 20
247.942061275
  0
VERTEX
  8
0
 62
7
  6
CONTINUOUS
 10
-90.4335755189
 20
247.5936757611
  0
VERTEX
  8
0
 62
7
  6
CONTINUOUS
 10
-90.3806653927
 20
247.2425207731
  0
VERTEX
  8
0
 62
7
  6
CONTINUOUS
 10
-90.3153237065
 20
246.8875874035
  0
VERTEX
  8
0
 62
7
  6
CONTINUOUS
 10
-90.237295457
 20
246.5277601009
  0
VERTEX
  8
0
 62
7
  6
CONTINUOUS
 10
-90.1462643007
 20
246.1630846224
  0
VERTEX
  8
0
 62
7
  6
CONTINUOUS
 10
-90.0420143413
 20
245.793130082
  0
VERTEX
  8
0
 62
7
  6
CONTINUOUS
 10
-89.9244332073
 20
245.4182108587
  0
VERTEX
  8
0
 62
7
  6
CONTINUOUS
 10
-89.7934964911
 20
245.0383490843
  0
VERTEX
  8
0
 62
7
  6
CONTINUOUS
 10
-89.6492908511
 20
244.6539906155
  0
VERTEX
  8
0
 62
7
  6
CONTINUOUS
 10
-89.4917459568
 20
244.2648463388
  0
VERTEX
  8
0
 62
7
  6
CONTINUOUS
 10
-89.3220232773
 20
243.8731432966
  0
VERTEX
  8
0
 62
7
  6
CONTINUOUS
 10
-89.1404323691
 20
243.4794947667
  0
VERTEX
  8
0
 62
7
  6
CONTINUOUS
 10
-88.9500636728
 20
243.0884529287
  0
VERTEX
  8
0
 62
7
  6
CONTINUOUS
 10
-88.7533336615
 20
242.7042739423
  0
VERTEX
  8
0
 62
7
  6
CONTINUOUS
 10
-88.5523661096
 20
242.3284591434
  0
VERTEX
  8
0
 62
7
  6
CONTINUOUS
 10
-88.3493250261
 20
241.9635529363
  0
VERTEX
  8
0
 62
7
  6
CONTINUOUS
 10
-88.1461051
 20
241.6106822759
  0
VERTEX
  8
0
 62
7
  6
CONTINUOUS
 10
-87.9443763508
 20
241.2712566515
  0
VERTEX
  8
0
 62
7
  6
CONTINUOUS
 10
-87.7464156078
 20
240.9469728643
  0
VERTEX
  8
0
 62
7
  6
CONTINUOUS
 10
-87.5543082171
 20
240.6399871234
  0
VERTEX
  8
0
 62
7
  6
CONTINUOUS
 10
-87.3691593495
 20
240.3503306941
  0
VERTEX
  8
0
 62
7
  6
CONTINUOUS
 10
-87.1922782098
 20
240.0788608843
  0
VERTEX
  8
0
 62
7
  6
CONTINUOUS
 10
-87.0242475053
 20
239.8252557756
  0
VERTEX
  8
0
 62
7
  6
CONTINUOUS
 10
-86.8657502538
 20
239.589572071
  0
VERTEX
  8
0
 62
7
  6
CONTINUOUS
 10
-86.7171892059
 20
239.3715312128
  0
VERTEX
  8
0
 62
7
  6
CONTINUOUS
 10
-86.5790295883
 20
239.1710712959
  0
VERTEX
  8
0
 62
7
  6
CONTINUOUS
 10
-86.4512554498
 20
238.9875990661
  0
VERTEX
  8
0
 62
7
  6
CONTINUOUS
 10
-86.2271104911
 20
238.6697760003
  0
SEQEND
  0
LINE
  8
0
 62
7
  6
CONTINUOUS
 10
-86.3340225118
 20
259.1273057459
 11
-86.5791107833
 21
258.7768502652
  0
LINE
  8
0
 62
7
  6
CONTINUOUS
 10
-86.1308783208
 20
259.4132434404
 11
-86.3340225118
 21
259.1273057459
  0
LINE
  8
0
 62
7
  6
CONTINUOUS
 10
-85.9693772385
 20
259.6378341291
 11
-86.1308783208
 21
259.4132434404
  0
POLYLINE
  8
0
 62
7
  6
CONTINUOUS
 66
1
 70
0
  0
VERTEX
  8
0
 62
7
  6
CONTINUOUS
 10
-85.7295614042
 20
259.9673117348
  0
VERTEX
  8
0
 62
7
  6
CONTINUOUS
 10
-85.7693252817
 20
259.9129671797
  0
VERTEX
  8
0
 62
7
  6
CONTINUOUS
 10
-85.9693772385
 20
259.6378341291
  0
SEQEND
  0
LINE
  8
0
 62
7
  6
CONTINUOUS
 10
-85.724607958
 20
259.9740194371
 11
-85.7295614042
 21
259.9673117348
  0
LINE
  8
0
 62
7
  6
CONTINUOUS
 10
-85.7295611
 20
43.9807275221
 11
-85.724607958
 21
43.9740194371
  0
LINE
  8
0
 62
7
  6
CONTINUOUS
 10
-85.9040613784
 20
44.2200154888
 11
-85.7295611
 21
43.9807275221
  0
LINE
  8
0
 62
7
  6
CONTINUOUS
 10
-86.044920533
 20
44.4149843061
 11
-85.9040613784
 21
44.2200154888
  0
LINE
  8
0
 62
7
  6
CONTINUOUS
 10
-86.2271104911
 20
44.6697760003
 11
-86.044920533
 21
44.4149843061
  0
LINE
  8
0
 62
7
  6
CONTINUOUS
 10
-85.724607958
 20
-103.0259805629
 11
-115.724607958
 21
-103.0259805629
  0
LINE
  8
0
 62
7
  6
CONTINUOUS
 10
454.275392042
 20
-103.0259805629
 11
484.275392042
 21
-103.0259805629
  0
POLYLINE
  8
0
 62
7
  6
CONTINUOUS
 66
1
 70
0
  0
VERTEX
  8
0
 62
7
  6
CONTINUOUS
 10
-86.5791103024
 20
161.7768509591
  0
VERTEX
  8
0
 62
7
  6
CONTINUOUS
 10
-86.7172721231
 20
161.5763867074
  0
VERTEX
  8
0
 62
7
  6
CONTINUOUS
 10
-86.8658362463
 20
161.3583394637
  0
VERTEX
  8
0
 62
7
  6
CONTINUOUS
 10
-87.0243351269
 20
161.122651884
  0
VERTEX
  8
0
 62
7
  6
CONTINUOUS
 10
-87.192362821
 20
160.8690491162
  0
VERTEX
  8
0
 62
7
  6
CONTINUOUS
 10
-87.369235822
 20
160.5975897471
  0
VERTEX
  8
0
 62
7
  6
CONTINUOUS
 10
-87.5543627921
 20
160.3079679532
  0
VERTEX
  8
0
 62
7
  6
CONTINUOUS
 10
-87.7464551278
 20
160.0010021134
  0
VERTEX
  8
0
 62
7
  6
CONTINUOUS
 10
-87.9444417115
 20
159.6766705349
  0
VERTEX
  8
0
 62
7
  6
CONTINUOUS
 10
-88.1462040244
 20
159.3371876083
  0
VERTEX
  8
0
 62
7
  6
CONTINUOUS
 10
-88.3494361484
 20
158.984288569
  0
VERTEX
  8
0
 62
7
  6
CONTINUOUS
 10
-88.5524701365
 20
158.6193891896
  0
VERTEX
  8
0
 62
7
  6
CONTINUOUS
 10
-88.7533933928
 20
158.2436546362
  0
VERTEX
  8
0
 62
7
  6
CONTINUOUS
 10
-88.9500706621
 20
157.8595719629
  0
VERTEX
  8
0
 62
7
  6
CONTINUOUS
 10
-89.1404104826
 20
157.4685894894
  0
VERTEX
  8
0
 62
7
  6
CONTINUOUS
 10
-89.3219816707
 20
157.0749885851
  0
VERTEX
  8
0
 62
7
  6
CONTINUOUS
 10
-89.491689359
 20
156.6833266744
  0
VERTEX
  8
0
 62
7
  6
CONTINUOUS
 10
-89.6492223349
 20
156.2942239116
  0
VERTEX
  8
0
 62
7
  6
CONTINUOUS
 10
-89.7934128511
 20
155.9099241419
  0
VERTEX
  8
0
 62
7
  6
CONTINUOUS
 10
-89.9243391405
 20
155.5301137174
  0
VERTEX
  8
0
 62
7
  6
CONTINUOUS
 10
-90.0419223555
 20
155.1552178145
  0
VERTEX
  8
0
 62
7
  6
CONTINUOUS
 10
-90.14618204
 20
154.7852638062
  0
VERTEX
  8
0
 62
7
  6
CONTINUOUS
 10
-90.2372315408
 20
154.4205438129
  0
VERTEX
  8
0
 62
7
  6
CONTINUOUS
 10
-90.31527614
 20
154.0606887684
  0
VERTEX
  8
0
 62
7
  6
CONTINUOUS
 10
-90.3806164921
 20
153.7058176838
  0
VERTEX
  8
0
 62
7
  6
CONTINUOUS
 10
-90.4335224849
 20
153.3547584479
  0
VERTEX
  8
0
 62
7
  6
CONTINUOUS
 10
-90.4744629165
 20
153.0064780136
  0
VERTEX
  8
0
 62
7
  6
CONTINUOUS
 10
-90.503477871
 20
152.6606781992
  0
VERTEX
  8
0
 62
7
  6
CONTINUOUS
 10
-90.5208479926
 20
152.3171484809
  0
VERTEX
  8
0
 62
7
  6
CONTINUOUS
 10
-90.5265689147
 20
151.9745928389
  0
VERTEX
  8
0
 62
7
  6
CONTINUOUS
 10
-90.5208832921
 20
151.6319752504
  0
VERTEX
  8
0
 62
7
  6
CONTINUOUS
 10
-90.5035412811
 20
151.2883052008
  0
VERTEX
  8
0
 62
7
  6
CONTINUOUS
 10
-90.4745351046
 20
150.9422993136
  0
VERTEX
  8
0
 62
7
  6
CONTINUOUS
 10
-90.4335922028
 20
150.5938001518
  0
VERTEX
  8
0
 62
7
  6
CONTINUOUS
 10
-90.3806715483
 20
150.2425592548
  0
VERTEX
  8
0
 62
7
  6
CONTINUOUS
 10
-90.3153194801
 20
149.887566318
  0
VERTEX
  8
0
 62
7
  6
CONTINUOUS
 10
-90.2372862813
 20
149.5277187096
  0
VERTEX
  8
0
 62
7
  6
CONTINUOUS
 10
-90.146253759
 20
149.1630449512
  0
VERTEX
  8
0
 62
7
  6
CONTINUOUS
 10
-90.0420069666
 20
148.7931038439
  0
VERTEX
  8
0
 62
7
  6
CONTINUOUS
 10
-89.9244302636
 20
148.4182019175
  0
VERTEX
  8
0
 62
7
  6
CONTINUOUS
 10
-89.7934963047
 20
148.0383485593
  0
VERTEX
  8
0
 62
7
  6
CONTINUOUS
 10
-89.6492921702
 20
147.6539939974
  0
VERTEX
  8
0
 62
7
  6
CONTINUOUS
 10
-89.4917464457
 20
147.2648478603
  0
VERTEX
  8
0
 62
7
  6
CONTINUOUS
 10
-89.3220223997
 20
146.8731413346
  0
VERTEX
  8
0
 62
7
  6
CONTINUOUS
 10
-89.1404311403
 20
146.4794921243
  0
VERTEX
  8
0
 62
7
  6
CONTINUOUS
 10
-88.9500623618
 20
146.0884503059
  0
VERTEX
  8
0
 62
7
  6
CONTINUOUS
 10
-88.7533323333
 20
145.7042713938
  0
VERTEX
  8
0
 62
7
  6
CONTINUOUS
 10
-88.5523648185
 20
145.3284567786
  0
VERTEX
  8
0
 62
7
  6
CONTINUOUS
 10
-88.3493237419
 20
144.963550672
  0
VERTEX
  8
0
 62
7
  6
CONTINUOUS
 10
-88.1461038412
 20
144.6106801254
  0
VERTEX
  8
0
 62
7
  6
CONTINUOUS
 10
-87.9443751586
 20
144.2712546723
  0
VERTEX
  8
0
 62
7
  6
CONTINUOUS
 10
-87.7464145031
 20
143.9469710783
  0
VERTEX
  8
0
 62
7
  6
CONTINUOUS
 10
-87.554307213
 20
143.6399855354
  0
VERTEX
  8
0
 62
7
  6
CONTINUOUS
 10
-87.3691584483
 20
143.3503292985
  0
VERTEX
  8
0
 62
7
  6
CONTINUOUS
 10
-87.1922774025
 20
143.0788596564
  0
VERTEX
  8
0
 62
7
  6
CONTINUOUS
 10
-87.0242467868
 20
142.8252546995
  0
VERTEX
  8
0
 62
7
  6
CONTINUOUS
 10
-86.8657496189
 20
142.5895711335
  0
VERTEX
  8
0
 62
7
  6
CONTINUOUS
 10
-86.7171886501
 20
142.371530402
  0
VERTEX
  8
0
 62
7
  6
CONTINUOUS
 10
-86.5790291076
 20
142.1710706023
  0
VERTEX
  8
0
 62
7
  6
CONTINUOUS
 10
-86.4512550399
 20
141.9875984802
  0
VERTEX
  8
0
 62
7
  6
CONTINUOUS
 10
-86.2271102089
 20
141.6697756032
  0
SEQEND
  0
LINE
  8
0
 62
7
  6
CONTINUOUS
 10
-86.3340221697
 20
162.1273062306
 11
-86.5791103024
 21
161.7768509591
  0
LINE
  8
0
 62
7
  6
CONTINUOUS
 10
-86.1308780927
 20
162.4132437592
 11
-86.3340221697
 21
162.1273062306
  0
LINE
  8
0
 62
7
  6
CONTINUOUS
 10
-85.9693771012
 20
162.6378343191
 11
-86.1308780927
 21
162.4132437592
  0
POLYLINE
  8
0
 62
7
  6
CONTINUOUS
 66
1
 70
0
  0
VERTEX
  8
0
 62
7
  6
CONTINUOUS
 10
-85.7295614015
 20
162.9673117384
  0
VERTEX
  8
0
 62
7
  6
CONTINUOUS
 10
-85.7693252569
 20
162.9129672136
  0
VERTEX
  8
0
 62
7
  6
CONTINUOUS
 10
-85.9693771012
 20
162.6378343191
  0
SEQEND
  0
LINE
  8
0
 62
7
  6
CONTINUOUS
 10
-85.724607958
 20
162.9740194371
 11
-85.7295614015
 21
162.9673117384
  0
LINE
  8
0
 62
7
  6
CONTINUOUS
 10
-85.7295610972
 20
140.9807275183
 11
-85.724607958
 21
140.9740194371
  0
LINE
  8
0
 62
7
  6
CONTINUOUS
 10
-85.9040612784
 20
141.2200153509
 11
-85.7295610972
 21
140.9807275183
  0
LINE
  8
0
 62
7
  6
CONTINUOUS
 10
-86.0449203538
 20
141.414984057
 11
-85.9040612784
 21
141.2200153509
  0
LINE
  8
0
 62
7
  6
CONTINUOUS
 10
-86.2271102089
 20
141.6697756032
 11
-86.0449203538
 21
141.414984057
  0
LINE
  8
0
 62
7
  6
CONTINUOUS
 10
-85.724607958
 20
-53.0259805629
 11
454.275392042
 21
-53.0259805629
  0
LINE
  8
0
 62
7
  6
CONTINUOUS
 10
454.275392042
 20
-31.0259805629
 11
-85.724607958
 21
-31.0259805629
  0
POLYLINE
  8
0
 62
7
  6
CONTINUOUS
 66
1
 70
0
  0
VERTEX
  8
0
 62
7
  6
CONTINUOUS
 10
-86.5791107833
 20
64.7768502652
  0
VERTEX
  8
0
 62
7
  6
CONTINUOUS
 10
-86.7172726827
 20
64.576385891
  0
VERTEX
  8
0
 62
7
  6
CONTINUOUS
 10
-86.8658368912
 20
64.3583385111
  0
VERTEX
  8
0
 62
7
  6
CONTINUOUS
 10
-87.0243358605
 20
64.1226507853
  0
VERTEX
  8
0
 62
7
  6
CONTINUOUS
 10
-87.1923636436
 20
63.8690478646
  0
VERTEX
  8
0
 62
7
  6
CONTINUOUS
 10
-87.3692367323
 20
63.5975883374
  0
VERTEX
  8
0
 62
7
  6
CONTINUOUS
 10
-87.5543637848
 20
63.3079663847
  0
VERTEX
  8
0
 62
7
  6
CONTINUOUS
 10
-87.7464561997
 20
63.0010003804
  0
VERTEX
  8
0
 62
7
  6
CONTINUOUS
 10
-87.9444428585
 20
62.6766686329
  0
VERTEX
  8
0
 62
7
  6
CONTINUOUS
 10
-88.1462052475
 20
62.3371855188
  0
VERTEX
  8
0
 62
7
  6
CONTINUOUS
 10
-88.3494374624
 20
61.9842862473
  0
VERTEX
  8
0
 62
7
  6
CONTINUOUS
 10
-88.5524715341
 20
61.6193866297
  0
VERTEX
  8
0
 62
7
  6
CONTINUOUS
 10
-88.7533948222
 20
61.2436519179
  0
VERTEX
  8
0
 62
7
  6
CONTINUOUS
 10
-88.9500721433
 20
60.8595689997
  0
VERTEX
  8
0
 62
7
  6
CONTINUOUS
 10
-89.1404120291
 20
60.4685862825
  0
VERTEX
  8
0
 62
7
  6
CONTINUOUS
 10
-89.3219835165
 20
60.0749844591
  0
VERTEX
  8
0
 62
7
  6
CONTINUOUS
 10
-89.4916924939
 20
59.6833188456
  0
VERTEX
  8
0
 62
7
  6
CONTINUOUS
 10
-89.6492262093
 20
59.294213979
  0
VERTEX
  8
0
 62
7
  6
CONTINUOUS
 10
-89.7934151603
 20
58.9099177104
  0
VERTEX
  8
0
 62
7
  6
CONTINUOUS
 10
-89.9243385823
 20
58.5301154128
  0
VERTEX
  8
0
 62
7
  6
CONTINUOUS
 10
-90.0419171325
 20
58.1552367892
  0
VERTEX
  8
0
 62
7
  6
CONTINUOUS
 10
-90.1461732981
 20
57.7852967011
  0
VERTEX
  8
0
 62
7
  6
CONTINUOUS
 10
-90.2372236349
 20
57.4205797738
  0
VERTEX
  8
0
 62
7
  6
CONTINUOUS
 10
-90.3152726016
 20
57.0607064195
  0
VERTEX
  8
0
 62
7
  6
CONTINUOUS
 10
-90.3806227719
 20
56.7057787045
  0
VERTEX
  8
0
 62
7
  6
CONTINUOUS
 10
-90.4335388737
 20
56.3546362917
  0
VERTEX
  8
0
 62
7
  6
CONTINUOUS
 10
-90.4744855725
 20
56.0062436627
  0
VERTEX
  8
0
 62
7
  6
CONTINUOUS
 10
-90.5035013628
 20
55.6603284278
  0
VERTEX
  8
0
 62
7
  6
CONTINUOUS
 10
-90.5208616888
 20
55.3166915715
  0
VERTEX
  8
0
 62
7
  6
CONTINUOUS
 10
-90.5265689307
 20
54.9740774527
  0
VERTEX
  8
0
 62
7
  6
CONTINUOUS
 10
-90.5208695102
 20
54.6315160183
  0
VERTEX
  8
0
 62
7
  6
CONTINUOUS
 10
-90.5035175452
 20
54.2879514897
  0
VERTEX
  8
0
 62
7
  6
CONTINUOUS
 10
-90.4745120994
 20
53.942061275
  0
VERTEX
  8
0
 62
7
  6
CONTINUOUS
 10
-90.4335755189
 20
53.5936757611
  0
VERTEX
  8
0
 62
7
  6
CONTINUOUS
 10
-90.3806653927
 20
53.2425207731
  0
VERTEX
  8
0
 62
7
  6
CONTINUOUS
 10
-90.3153237065
 20
52.8875874035
  0
VERTEX
  8
0
 62
7
  6
CONTINUOUS
 10
-90.237295457
 20
52.5277601009
  0
VERTEX
  8
0
 62
7
  6
CONTINUOUS
 10
-90.1462643007
 20
52.1630846224
  0
VERTEX
  8
0
 62
7
  6
CONTINUOUS
 10
-90.0420143413
 20
51.793130082
  0
VERTEX
  8
0
 62
7
  6
CONTINUOUS
 10
-89.9244332073
 20
51.4182108587
  0
VERTEX
  8
0
 62
7
  6
CONTINUOUS
 10
-89.7934964911
 20
51.0383490843
  0
VERTEX
  8
0
 62
7
  6
CONTINUOUS
 10
-89.6492908511
 20
50.6539906155
  0
VERTEX
  8
0
 62
7
  6
CONTINUOUS
 10
-89.4917459568
 20
50.2648463388
  0
VERTEX
  8
0
 62
7
  6
CONTINUOUS
 10
-89.3220232773
 20
49.8731432966
  0
VERTEX
  8
0
 62
7
  6
CONTINUOUS
 10
-89.1404323691
 20
49.4794947667
  0
VERTEX
  8
0
 62
7
  6
CONTINUOUS
 10
-88.9500636728
 20
49.0884529287
  0
VERTEX
  8
0
 62
7
  6
CONTINUOUS
 10
-88.7533336615
 20
48.7042739423
  0
VERTEX
  8
0
 62
7
  6
CONTINUOUS
 10
-88.5523661096
 20
48.3284591434
  0
VERTEX
  8
0
 62
7
  6
CONTINUOUS
 10
-88.3493250261
 20
47.9635529363
  0
VERTEX
  8
0
 62
7
  6
CONTINUOUS
 10
-88.1461051
 20
47.6106822759
  0
VERTEX
  8
0
 62
7
  6
CONTINUOUS
 10
-87.9443763508
 20
47.2712566515
  0
VERTEX
  8
0
 62
7
  6
CONTINUOUS
 10
-87.7464156078
 20
46.9469728643
  0
VERTEX
  8
0
 62
7
  6
CONTINUOUS
 10
-87.5543082171
 20
46.6399871234
  0
VERTEX
  8
0
 62
7
  6
CONTINUOUS
 10
-87.3691593495
 20
46.3503306941
  0
VERTEX
  8
0
 62
7
  6
CONTINUOUS
 10
-87.1922782098
 20
46.0788608843
  0
VERTEX
  8
0
 62
7
  6
CONTINUOUS
 10
-87.0242475053
 20
45.8252557756
  0
VERTEX
  8
0
 62
7
  6
CONTINUOUS
 10
-86.8657502538
 20
45.589572071
  0
VERTEX
  8
0
 62
7
  6
CONTINUOUS
 10
-86.7171892059
 20
45.3715312128
  0
VERTEX
  8
0
 62
7
  6
CONTINUOUS
 10
-86.5790295883
 20
45.1710712959
  0
VERTEX
  8
0
 62
7
  6
CONTINUOUS
 10
-86.4512554498
 20
44.9875990661
  0
VERTEX
  8
0
 62
7
  6
CONTINUOUS
 10
-86.2271104911
 20
44.6697760003
  0
SEQEND
  0
LINE
  8
0
 62
7
  6
CONTINUOUS
 10
-86.3340225118
 20
65.1273057459
 11
-86.5791107833
 21
64.7768502652
  0
LINE
  8
0
 62
7
  6
CONTINUOUS
 10
-86.1308783208
 20
65.4132434404
 11
-86.3340225118
 21
65.1273057459
  0
LINE
  8
0
 62
7
  6
CONTINUOUS
 10
-85.9693772385
 20
65.6378341291
 11
-86.1308783208
 21
65.4132434404
  0
POLYLINE
  8
0
 62
7
  6
CONTINUOUS
 66
1
 70
0
  0
VERTEX
  8
0
 62
7
  6
CONTINUOUS
 10
-85.7295614042
 20
65.9673117348
  0
VERTEX
  8
0
 62
7
  6
CONTINUOUS
 10
-85.7693252817
 20
65.9129671797
  0
VERTEX
  8
0
 62
7
  6
CONTINUOUS
 10
-85.9693772385
 20
65.6378341291
  0
SEQEND
  0
LINE
  8
0
 62
7
  6
CONTINUOUS
 10
-85.724607958
 20
65.9740194371
 11
-85.7295614042
 21
65.9673117348
  0
LINE
  8
0
 62
7
  6
CONTINUOUS
 10
-85.7295611
 20
237.9807275221
 11
-85.724607958
 21
237.9740194371
  0
LINE
  8
0
 62
7
  6
CONTINUOUS
 10
-85.9040613784
 20
238.2200154888
 11
-85.7295611
 21
237.9807275221
  0
LINE
  8
0
 62
7
  6
CONTINUOUS
 10
-86.044920533
 20
238.4149843061
 11
-85.9040613784
 21
238.2200154888
  0
LINE
  8
0
 62
7
  6
CONTINUOUS
 10
-86.2271104911
 20
238.6697760003
 11
-86.044920533
 21
238.4149843061
  0
POLYLINE
  8
0
 62
7
  6
CONTINUOUS
 66
1
 70
0
  0
VERTEX
  8
0
 62
7
  6
CONTINUOUS
 10
-86.5791107833
 20
-32.2231497348
  0
VERTEX
  8
0
 62
7
  6
CONTINUOUS
 10
-86.7172726827
 20
-32.423614109
  0
VERTEX
  8
0
 62
7
  6
CONTINUOUS
 10
-86.8658368912
 20
-32.6416614889
  0
VERTEX
  8
0
 62
7
  6
CONTINUOUS
 10
-87.0243358605
 20
-32.8773492147
  0
VERTEX
  8
0
 62
7
  6
CONTINUOUS
 10
-87.1923636436
 20
-33.1309521354
  0
VERTEX
  8
0
 62
7
  6
CONTINUOUS
 10
-87.3692367323
 20
-33.4024116626
  0
VERTEX
  8
0
 62
7
  6
CONTINUOUS
 10
-87.5543637848
 20
-33.6920336153
  0
VERTEX
  8
0
 62
7
  6
CONTINUOUS
 10
-87.7464561997
 20
-33.9989996196
  0
VERTEX
  8
0
 62
7
  6
CONTINUOUS
 10
-87.9444428585
 20
-34.3233313671
  0
VERTEX
  8
0
 62
7
  6
CONTINUOUS
 10
-88.1462052475
 20
-34.6628144812
  0
VERTEX
  8
0
 62
7
  6
CONTINUOUS
 10
-88.3494374624
 20
-35.0157137527
  0
VERTEX
  8
0
 62
7
  6
CONTINUOUS
 10
-88.5524715341
 20
-35.3806133703
  0
VERTEX
  8
0
 62
7
  6
CONTINUOUS
 10
-88.7533948222
 20
-35.7563480821
  0
VERTEX
  8
0
 62
7
  6
CONTINUOUS
 10
-88.9500721433
 20
-36.1404310003
  0
VERTEX
  8
0
 62
7
  6
CONTINUOUS
 10
-89.1404120291
 20
-36.5314137175
  0
VERTEX
  8
0
 62
7
  6
CONTINUOUS
 10
-89.3219835165
 20
-36.9250155409
  0
VERTEX
  8
0
 62
7
  6
CONTINUOUS
 10
-89.4916924939
 20
-37.3166811544
  0
VERTEX
  8
0
 62
7
  6
CONTINUOUS
 10
-89.6492262093
 20
-37.705786021
  0
VERTEX
  8
0
 62
7
  6
CONTINUOUS
 10
-89.7934151603
 20
-38.0900822896
  0
VERTEX
  8
0
 62
7
  6
CONTINUOUS
 10
-89.9243385823
 20
-38.4698845872
  0
VERTEX
  8
0
 62
7
  6
CONTINUOUS
 10
-90.0419171325
 20
-38.8447632108
  0
VERTEX
  8
0
 62
7
  6
CONTINUOUS
 10
-90.1461732981
 20
-39.2147032989
  0
VERTEX
  8
0
 62
7
  6
CONTINUOUS
 10
-90.2372236349
 20
-39.5794202262
  0
VERTEX
  8
0
 62
7
  6
CONTINUOUS
 10
-90.3152726016
 20
-39.9392935805
  0
VERTEX
  8
0
 62
7
  6
CONTINUOUS
 10
-90.3806227719
 20
-40.2942212955
  0
VERTEX
  8
0
 62
7
  6
CONTINUOUS
 10
-90.4335388737
 20
-40.6453637083
  0
VERTEX
  8
0
 62
7
  6
CONTINUOUS
 10
-90.4744855725
 20
-40.9937563373
  0
VERTEX
  8
0
 62
7
  6
CONTINUOUS
 10
-90.5035013628
 20
-41.3396715722
  0
VERTEX
  8
0
 62
7
  6
CONTINUOUS
 10
-90.5208616888
 20
-41.6833084285
  0
VERTEX
  8
0
 62
7
  6
CONTINUOUS
 10
-90.5265689307
 20
-42.0259225473
  0
VERTEX
  8
0
 62
7
  6
CONTINUOUS
 10
-90.5208695102
 20
-42.3684839817
  0
VERTEX
  8
0
 62
7
  6
CONTINUOUS
 10
-90.5035175452
 20
-42.7120485103
  0
VERTEX
  8
0
 62
7
  6
CONTINUOUS
 10
-90.4745120994
 20
-43.057938725
  0
VERTEX
  8
0
 62
7
  6
CONTINUOUS
 10
-90.4335755189
 20
-43.4063242389
  0
VERTEX
  8
0
 62
7
  6
CONTINUOUS
 10
-90.3806653927
 20
-43.7574792269
  0
VERTEX
  8
0
 62
7
  6
CONTINUOUS
 10
-90.3153237065
 20
-44.1124125965
  0
VERTEX
  8
0
 62
7
  6
CONTINUOUS
 10
-90.237295457
 20
-44.4722398991
  0
VERTEX
  8
0
 62
7
  6
CONTINUOUS
 10
-90.1462643007
 20
-44.8369153776
  0
VERTEX
  8
0
 62
7
  6
CONTINUOUS
 10
-90.0420143413
 20
-45.206869918
  0
VERTEX
  8
0
 62
7
  6
CONTINUOUS
 10
-89.9244332073
 20
-45.5817891413
  0
VERTEX
  8
0
 62
7
  6
CONTINUOUS
 10
-89.7934964911
 20
-45.9616509157
  0
VERTEX
  8
0
 62
7
  6
CONTINUOUS
 10
-89.6492908511
 20
-46.3460093845
  0
VERTEX
  8
0
 62
7
  6
CONTINUOUS
 10
-89.4917459568
 20
-46.7351536612
  0
VERTEX
  8
0
 62
7
  6
CONTINUOUS
 10
-89.3220232773
 20
-47.1268567034
  0
VERTEX
  8
0
 62
7
  6
CONTINUOUS
 10
-89.1404323691
 20
-47.5205052333
  0
VERTEX
  8
0
 62
7
  6
CONTINUOUS
 10
-88.9500636728
 20
-47.9115470713
  0
VERTEX
  8
0
 62
7
  6
CONTINUOUS
 10
-88.7533336615
 20
-48.2957260577
  0
VERTEX
  8
0
 62
7
  6
CONTINUOUS
 10
-88.5523661096
 20
-48.6715408566
  0
VERTEX
  8
0
 62
7
  6
CONTINUOUS
 10
-88.3493250261
 20
-49.0364470637
  0
VERTEX
  8
0
 62
7
  6
CONTINUOUS
 10
-88.1461051
 20
-49.3893177241
  0
VERTEX
  8
0
 62
7
  6
CONTINUOUS
 10
-87.9443763508
 20
-49.7287433485
  0
VERTEX
  8
0
 62
7
  6
CONTINUOUS
 10
-87.7464156078
 20
-50.0530271357
  0
VERTEX
  8
0
 62
7
  6
CONTINUOUS
 10
-87.5543082171
 20
-50.3600128766
  0
VERTEX
  8
0
 62
7
  6
CONTINUOUS
 10
-87.3691593495
 20
-50.6496693059
  0
VERTEX
  8
0
 62
7
  6
CONTINUOUS
 10
-87.1922782098
 20
-50.9211391157
  0
VERTEX
  8
0
 62
7
  6
CONTINUOUS
 10
-87.0242475053
 20
-51.1747442244
  0
VERTEX
  8
0
 62
7
  6
CONTINUOUS
 10
-86.8657502538
 20
-51.410427929
  0
VERTEX
  8
0
 62
7
  6
CONTINUOUS
 10
-86.7171892059
 20
-51.6284687872
  0
VERTEX
  8
0
 62
7
  6
CONTINUOUS
 10
-86.5790295883
 20
-51.8289287041
  0
VERTEX
  8
0
 62
7
  6
CONTINUOUS
 10
-86.4512554498
 20
-52.0124009339
  0
VERTEX
  8
0
 62
7
  6
CONTINUOUS
 10
-86.2271104911
 20
-52.3302239997
  0
SEQEND
  0
LINE
  8
0
 62
7
  6
CONTINUOUS
 10
-86.3340225118
 20
-31.8726942541
 11
-86.5791107833
 21
-32.2231497348
  0
LINE
  8
0
 62
7
  6
CONTINUOUS
 10
-86.1308783208
 20
-31.5867565596
 11
-86.3340225118
 21
-31.8726942541
  0
LINE
  8
0
 62
7
  6
CONTINUOUS
 10
-85.9693772385
 20
-31.3621658709
 11
-86.1308783208
 21
-31.5867565596
  0
POLYLINE
  8
0
 62
7
  6
CONTINUOUS
 66
1
 70
0
  0
VERTEX
  8
0
 62
7
  6
CONTINUOUS
 10
-85.7295614042
 20
-31.0326882652
  0
VERTEX
  8
0
 62
7
  6
CONTINUOUS
 10
-85.7693252817
 20
-31.0870328203
  0
VERTEX
  8
0
 62
7
  6
CONTINUOUS
 10
-85.9693772385
 20
-31.3621658709
  0
SEQEND
  0
LINE
  8
0
 62
7
  6
CONTINUOUS
 10
-85.724607958
 20
-31.0259805629
 11
-85.7295614042
 21
-31.0326882652
  0
LINE
  8
0
 62
7
  6
CONTINUOUS
 10
-85.724607958
 20
43.9740194371
 11
454.275392042
 21
43.9740194371
  0
LINE
  8
0
 62
7
  6
CONTINUOUS
 10
-85.7295611
 20
334.9807275221
 11
-85.724607958
 21
334.9740194371
  0
LINE
  8
0
 62
7
  6
CONTINUOUS
 10
-85.9040613784
 20
335.2200154888
 11
-85.7295611
 21
334.9807275221
  0
LINE
  8
0
 62
7
  6
CONTINUOUS
 10
-86.044920533
 20
335.4149843061
 11
-85.9040613784
 21
335.2200154888
  0
LINE
  8
0
 62
7
  6
CONTINUOUS
 10
-86.2271104911
 20
335.6697760003
 11
-86.044920533
 21
335.4149843061
  0
LINE
  8
0
 62
7
  6
CONTINUOUS
 10
454.275392042
 20
65.9740194371
 11
-85.724607958
 21
65.9740194371
  0
LINE
  8
0
 62
7
  6
CONTINUOUS
 10
-85.724607958
 20
140.9740194371
 11
454.275392042
 21
140.9740194371
  0
LINE
  8
0
 62
7
  6
CONTINUOUS
 10
454.275392042
 20
162.9740194371
 11
-85.724607958
 21
162.9740194371
  0
LINE
  8
0
 62
7
  6
CONTINUOUS
 10
454.2803451839
 20
334.9807275221
 11
454.275392042
 21
334.9740194371
  0
LINE
  8
0
 62
7
  6
CONTINUOUS
 10
-85.724607958
 20
237.9740194371
 11
454.275392042
 21
237.9740194371
  0
LINE
  8
0
 62
7
  6
CONTINUOUS
 10
454.275392042
 20
259.9740194371
 11
-85.724607958
 21
259.9740194371
  0
LINE
  8
0
 62
7
  6
CONTINUOUS
 10
454.275392042
 20
-31.0259805629
 11
454.2803454881
 21
-31.0326882652
  0
LINE
  8
0
 62
7
  6
CONTINUOUS
 10
455.1298136722
 20
336.1710712959
 11
454.8847232951
 21
335.8206162549
  0
LINE
  8
0
 62
7
  6
CONTINUOUS
 10
454.8847232951
 20
335.8206162549
 11
454.6815962184
 21
335.5347017626
  0
LINE
  8
0
 62
7
  6
CONTINUOUS
 10
454.6815962184
 20
335.5347017626
 11
454.5201226906
 21
335.310151496
  0
POLYLINE
  8
0
 62
7
  6
CONTINUOUS
 66
1
 70
0
  0
VERTEX
  8
0
 62
7
  6
CONTINUOUS
 10
454.5201226906
 20
335.310151496
  0
VERTEX
  8
0
 62
7
  6
CONTINUOUS
 10
454.3201026519
 20
335.0350618228
  0
VERTEX
  8
0
 62
7
  6
CONTINUOUS
 10
454.2803451839
 20
334.9807275221
  0
SEQEND
  0
LINE
  8
0
 62
7
  6
CONTINUOUS
 10
454.2803454881
 20
-31.0326882652
 11
454.4548749007
 21
-31.272017185
  0
LINE
  8
0
 62
7
  6
CONTINUOUS
 10
454.4548749007
 20
-31.272017185
 11
454.5957542427
 21
-31.4670144243
  0
LINE
  8
0
 62
7
  6
CONTINUOUS
 10
454.5957542427
 20
-31.4670144243
 11
454.7779761236
 21
-31.7218518608
  0
POLYLINE
  8
0
 62
7
  6
CONTINUOUS
 66
1
 70
0
  0
VERTEX
  8
0
 62
7
  6
CONTINUOUS
 10
454.7779761236
 20
-31.7218518608
  0
VERTEX
  8
0
 62
7
  6
CONTINUOUS
 10
455.0021194592
 20
-32.0396744279
  0
VERTEX
  8
0
 62
7
  6
CONTINUOUS
 10
455.1298948672
 20
-32.2231497348
  0
VERTEX
  8
0
 62
7
  6
CONTINUOUS
 10
455.2680567666
 20
-32.423614109
  0
VERTEX
  8
0
 62
7
  6
CONTINUOUS
 10
455.4166209751
 20
-32.6416614889
  0
VERTEX
  8
0
 62
7
  6
CONTINUOUS
 10
455.5751199444
 20
-32.8773492147
  0
VERTEX
  8
0
 62
7
  6
CONTINUOUS
 10
455.7431477275
 20
-33.1309521354
  0
VERTEX
  8
0
 62
7
  6
CONTINUOUS
 10
455.9200208162
 20
-33.4024116626
  0
VERTEX
  8
0
 62
7
  6
CONTINUOUS
 10
456.1051478687
 20
-33.6920336153
  0
VERTEX
  8
0
 62
7
  6
CONTINUOUS
 10
456.2972402836
 20
-33.9989996196
  0
VERTEX
  8
0
 62
7
  6
CONTINUOUS
 10
456.4952269424
 20
-34.3233313671
  0
VERTEX
  8
0
 62
7
  6
CONTINUOUS
 10
456.6969893315
 20
-34.6628144812
  0
VERTEX
  8
0
 62
7
  6
CONTINUOUS
 10
456.9002215463
 20
-35.0157137527
  0
VERTEX
  8
0
 62
7
  6
CONTINUOUS
 10
457.103255618
 20
-35.3806133703
  0
VERTEX
  8
0
 62
7
  6
CONTINUOUS
 10
457.3041789061
 20
-35.7563480821
  0
VERTEX
  8
0
 62
7
  6
CONTINUOUS
 10
457.5008562272
 20
-36.1404310003
  0
VERTEX
  8
0
 62
7
  6
CONTINUOUS
 10
457.691196113
 20
-36.5314137175
  0
VERTEX
  8
0
 62
7
  6
CONTINUOUS
 10
457.8727676004
 20
-36.9250155409
  0
VERTEX
  8
0
 62
7
  6
CONTINUOUS
 10
458.0424765778
 20
-37.3166811544
  0
VERTEX
  8
0
 62
7
  6
CONTINUOUS
 10
458.2000102932
 20
-37.705786021
  0
VERTEX
  8
0
 62
7
  6
CONTINUOUS
 10
458.3441992442
 20
-38.0900822896
  0
VERTEX
  8
0
 62
7
  6
CONTINUOUS
 10
458.4751226662
 20
-38.4698845872
  0
VERTEX
  8
0
 62
7
  6
CONTINUOUS
 10
458.5927012164
 20
-38.8447632108
  0
VERTEX
  8
0
 62
7
  6
CONTINUOUS
 10
458.696957382
 20
-39.2147032989
  0
VERTEX
  8
0
 62
7
  6
CONTINUOUS
 10
458.7880077188
 20
-39.5794202262
  0
VERTEX
  8
0
 62
7
  6
CONTINUOUS
 10
458.8660566855
 20
-39.9392935805
  0
VERTEX
  8
0
 62
7
  6
CONTINUOUS
 10
458.9314068558
 20
-40.2942212955
  0
VERTEX
  8
0
 62
7
  6
CONTINUOUS
 10
458.9843229576
 20
-40.6453637083
  0
VERTEX
  8
0
 62
7
  6
CONTINUOUS
 10
459.0252696564
 20
-40.9937563373
  0
VERTEX
  8
0
 62
7
  6
CONTINUOUS
 10
459.0542854467
 20
-41.3396715722
  0
VERTEX
  8
0
 62
7
  6
CONTINUOUS
 10
459.0716457727
 20
-41.6833084285
  0
VERTEX
  8
0
 62
7
  6
CONTINUOUS
 10
459.0773530146
 20
-42.0259225473
  0
VERTEX
  8
0
 62
7
  6
CONTINUOUS
 10
459.0716535941
 20
-42.3684839817
  0
VERTEX
  8
0
 62
7
  6
CONTINUOUS
 10
459.0543016291
 20
-42.7120485103
  0
VERTEX
  8
0
 62
7
  6
CONTINUOUS
 10
459.0252961833
 20
-43.057938725
  0
VERTEX
  8
0
 62
7
  6
CONTINUOUS
 10
458.9843596028
 20
-43.4063242389
  0
VERTEX
  8
0
 62
7
  6
CONTINUOUS
 10
458.9314494767
 20
-43.7574792269
  0
VERTEX
  8
0
 62
7
  6
CONTINUOUS
 10
458.8661077904
 20
-44.1124125965
  0
VERTEX
  8
0
 62
7
  6
CONTINUOUS
 10
458.7880795409
 20
-44.4722398991
  0
VERTEX
  8
0
 62
7
  6
CONTINUOUS
 10
458.6970483846
 20
-44.8369153776
  0
VERTEX
  8
0
 62
7
  6
CONTINUOUS
 10
458.5927984252
 20
-45.206869918
  0
VERTEX
  8
0
 62
7
  6
CONTINUOUS
 10
458.4752172912
 20
-45.5817891413
  0
VERTEX
  8
0
 62
7
  6
CONTINUOUS
 10
458.344280575
 20
-45.9616509157
  0
VERTEX
  8
0
 62
7
  6
CONTINUOUS
 10
458.200074935
 20
-46.3460093845
  0
VERTEX
  8
0
 62
7
  6
CONTINUOUS
 10
458.0425300407
 20
-46.7351536612
  0
VERTEX
  8
0
 62
7
  6
CONTINUOUS
 10
457.8728073612
 20
-47.1268567034
  0
VERTEX
  8
0
 62
7
  6
CONTINUOUS
 10
457.691216453
 20
-47.5205052333
  0
VERTEX
  8
0
 62
7
  6
CONTINUOUS
 10
457.5008477567
 20
-47.9115470713
  0
VERTEX
  8
0
 62
7
  6
CONTINUOUS
 10
457.3041177454
 20
-48.2957260577
  0
VERTEX
  8
0
 62
7
  6
CONTINUOUS
 10
457.1031501935
 20
-48.6715408566
  0
VERTEX
  8
0
 62
7
  6
CONTINUOUS
 10
456.90010911
 20
-49.0364470637
  0
VERTEX
  8
0
 62
7
  6
CONTINUOUS
 10
456.6968891839
 20
-49.3893177241
  0
VERTEX
  8
0
 62
7
  6
CONTINUOUS
 10
456.4951604347
 20
-49.7287433485
  0
VERTEX
  8
0
 62
7
  6
CONTINUOUS
 10
456.2971996917
 20
-50.0530271357
  0
VERTEX
  8
0
 62
7
  6
CONTINUOUS
 10
456.105092301
 20
-50.3600128766
  0
VERTEX
  8
0
 62
7
  6
CONTINUOUS
 10
455.9199434334
 20
-50.6496693059
  0
VERTEX
  8
0
 62
7
  6
CONTINUOUS
 10
455.7430622937
 20
-50.9211391157
  0
VERTEX
  8
0
 62
7
  6
CONTINUOUS
 10
455.5750315892
 20
-51.1747442244
  0
VERTEX
  8
0
 62
7
  6
CONTINUOUS
 10
455.4165343377
 20
-51.410427929
  0
VERTEX
  8
0
 62
7
  6
CONTINUOUS
 10
455.2679732899
 20
-51.6284687872
  0
VERTEX
  8
0
 62
7
  6
CONTINUOUS
 10
455.1298136722
 20
-51.8289287041
  0
SEQEND
  0
LINE
  8
0
 62
7
  6
CONTINUOUS
 10
455.1298136722
 20
239.1710712959
 11
454.8847232951
 21
238.8206162549
  0
LINE
  8
0
 62
7
  6
CONTINUOUS
 10
454.8847232951
 20
238.8206162549
 11
454.6815962184
 21
238.5347017626
  0
LINE
  8
0
 62
7
  6
CONTINUOUS
 10
454.6815962184
 20
238.5347017626
 11
454.5201226906
 21
238.310151496
  0
POLYLINE
  8
0
 62
7
  6
CONTINUOUS
 66
1
 70
0
  0
VERTEX
  8
0
 62
7
  6
CONTINUOUS
 10
454.5201226906
 20
238.310151496
  0
VERTEX
  8
0
 62
7
  6
CONTINUOUS
 10
454.3201026519
 20
238.0350618228
  0
VERTEX
  8
0
 62
7
  6
CONTINUOUS
 10
454.2803451839
 20
237.9807275221
  0
SEQEND
  0
LINE
  8
0
 62
7
  6
CONTINUOUS
 10
454.2803451839
 20
237.9807275221
 11
454.275392042
 21
237.9740194371
  0
LINE
  8
0
 62
7
  6
CONTINUOUS
 10
-85.724607958
 20
334.9740194371
 11
454.275392042
 21
334.9740194371
  0
LINE
  8
0
 62
7
  6
CONTINUOUS
 10
454.275392042
 20
65.9740194371
 11
454.2803454881
 21
65.9673117348
  0
LINE
  8
0
 62
7
  6
CONTINUOUS
 10
454.2803454881
 20
65.9673117348
 11
454.4548749007
 21
65.727982815
  0
LINE
  8
0
 62
7
  6
CONTINUOUS
 10
454.4548749007
 20
65.727982815
 11
454.5957542427
 21
65.5329855757
  0
LINE
  8
0
 62
7
  6
CONTINUOUS
 10
454.5957542427
 20
65.5329855757
 11
454.7779761236
 21
65.2781481392
  0
POLYLINE
  8
0
 62
7
  6
CONTINUOUS
 66
1
 70
0
  0
VERTEX
  8
0
 62
7
  6
CONTINUOUS
 10
454.7779761236
 20
65.2781481392
  0
VERTEX
  8
0
 62
7
  6
CONTINUOUS
 10
455.0021194592
 20
64.9603255721
  0
VERTEX
  8
0
 62
7
  6
CONTINUOUS
 10
455.1298948672
 20
64.7768502652
  0
VERTEX
  8
0
 62
7
  6
CONTINUOUS
 10
455.2680567666
 20
64.576385891
  0
VERTEX
  8
0
 62
7
  6
CONTINUOUS
 10
455.4166209751
 20
64.3583385111
  0
VERTEX
  8
0
 62
7
  6
CONTINUOUS
 10
455.5751199444
 20
64.1226507853
  0
VERTEX
  8
0
 62
7
  6
CONTINUOUS
 10
455.7431477275
 20
63.8690478646
  0
VERTEX
  8
0
 62
7
  6
CONTINUOUS
 10
455.9200208162
 20
63.5975883374
  0
VERTEX
  8
0
 62
7
  6
CONTINUOUS
 10
456.1051478687
 20
63.3079663847
  0
VERTEX
  8
0
 62
7
  6
CONTINUOUS
 10
456.2972402836
 20
63.0010003804
  0
VERTEX
  8
0
 62
7
  6
CONTINUOUS
 10
456.4952269424
 20
62.6766686329
  0
VERTEX
  8
0
 62
7
  6
CONTINUOUS
 10
456.6969893315
 20
62.3371855188
  0
VERTEX
  8
0
 62
7
  6
CONTINUOUS
 10
456.9002215463
 20
61.9842862473
  0
VERTEX
  8
0
 62
7
  6
CONTINUOUS
 10
457.103255618
 20
61.6193866297
  0
VERTEX
  8
0
 62
7
  6
CONTINUOUS
 10
457.3041789061
 20
61.2436519179
  0
VERTEX
  8
0
 62
7
  6
CONTINUOUS
 10
457.5008562272
 20
60.8595689997
  0
VERTEX
  8
0
 62
7
  6
CONTINUOUS
 10
457.691196113
 20
60.4685862825
  0
VERTEX
  8
0
 62
7
  6
CONTINUOUS
 10
457.8727676004
 20
60.0749844591
  0
VERTEX
  8
0
 62
7
  6
CONTINUOUS
 10
458.0424765778
 20
59.6833188456
  0
VERTEX
  8
0
 62
7
  6
CONTINUOUS
 10
458.2000102932
 20
59.294213979
  0
VERTEX
  8
0
 62
7
  6
CONTINUOUS
 10
458.3441992442
 20
58.9099177104
  0
VERTEX
  8
0
 62
7
  6
CONTINUOUS
 10
458.4751226662
 20
58.5301154128
  0
VERTEX
  8
0
 62
7
  6
CONTINUOUS
 10
458.5927012164
 20
58.1552367892
  0
VERTEX
  8
0
 62
7
  6
CONTINUOUS
 10
458.696957382
 20
57.7852967011
  0
VERTEX
  8
0
 62
7
  6
CONTINUOUS
 10
458.7880077188
 20
57.4205797738
  0
VERTEX
  8
0
 62
7
  6
CONTINUOUS
 10
458.8660566855
 20
57.0607064195
  0
VERTEX
  8
0
 62
7
  6
CONTINUOUS
 10
458.9314068558
 20
56.7057787045
  0
VERTEX
  8
0
 62
7
  6
CONTINUOUS
 10
458.9843229576
 20
56.3546362917
  0
VERTEX
  8
0
 62
7
  6
CONTINUOUS
 10
459.0252696564
 20
56.0062436627
  0
VERTEX
  8
0
 62
7
  6
CONTINUOUS
 10
459.0542854467
 20
55.6603284278
  0
VERTEX
  8
0
 62
7
  6
CONTINUOUS
 10
459.0716457727
 20
55.3166915715
  0
VERTEX
  8
0
 62
7
  6
CONTINUOUS
 10
459.0773530146
 20
54.9740774527
  0
VERTEX
  8
0
 62
7
  6
CONTINUOUS
 10
459.0716535941
 20
54.6315160183
  0
VERTEX
  8
0
 62
7
  6
CONTINUOUS
 10
459.0543016291
 20
54.2879514897
  0
VERTEX
  8
0
 62
7
  6
CONTINUOUS
 10
459.0252961833
 20
53.942061275
  0
VERTEX
  8
0
 62
7
  6
CONTINUOUS
 10
458.9843596028
 20
53.5936757611
  0
VERTEX
  8
0
 62
7
  6
CONTINUOUS
 10
458.9314494767
 20
53.2425207731
  0
VERTEX
  8
0
 62
7
  6
CONTINUOUS
 10
458.8661077904
 20
52.8875874035
  0
VERTEX
  8
0
 62
7
  6
CONTINUOUS
 10
458.7880795409
 20
52.5277601009
  0
VERTEX
  8
0
 62
7
  6
CONTINUOUS
 10
458.6970483846
 20
52.1630846224
  0
VERTEX
  8
0
 62
7
  6
CONTINUOUS
 10
458.5927984252
 20
51.793130082
  0
VERTEX
  8
0
 62
7
  6
CONTINUOUS
 10
458.4752172912
 20
51.4182108587
  0
VERTEX
  8
0
 62
7
  6
CONTINUOUS
 10
458.344280575
 20
51.0383490843
  0
VERTEX
  8
0
 62
7
  6
CONTINUOUS
 10
458.200074935
 20
50.6539906155
  0
VERTEX
  8
0
 62
7
  6
CONTINUOUS
 10
458.0425300407
 20
50.2648463388
  0
VERTEX
  8
0
 62
7
  6
CONTINUOUS
 10
457.8728073612
 20
49.8731432966
  0
VERTEX
  8
0
 62
7
  6
CONTINUOUS
 10
457.691216453
 20
49.4794947667
  0
VERTEX
  8
0
 62
7
  6
CONTINUOUS
 10
457.5008477567
 20
49.0884529287
  0
VERTEX
  8
0
 62
7
  6
CONTINUOUS
 10
457.3041177454
 20
48.7042739423
  0
VERTEX
  8
0
 62
7
  6
CONTINUOUS
 10
457.1031501935
 20
48.3284591434
  0
VERTEX
  8
0
 62
7
  6
CONTINUOUS
 10
456.90010911
 20
47.9635529363
  0
VERTEX
  8
0
 62
7
  6
CONTINUOUS
 10
456.6968891839
 20
47.6106822759
  0
VERTEX
  8
0
 62
7
  6
CONTINUOUS
 10
456.4951604347
 20
47.2712566515
  0
VERTEX
  8
0
 62
7
  6
CONTINUOUS
 10
456.2971996917
 20
46.9469728643
  0
VERTEX
  8
0
 62
7
  6
CONTINUOUS
 10
456.105092301
 20
46.6399871234
  0
VERTEX
  8
0
 62
7
  6
CONTINUOUS
 10
455.9199434334
 20
46.3503306941
  0
VERTEX
  8
0
 62
7
  6
CONTINUOUS
 10
455.7430622937
 20
46.0788608843
  0
VERTEX
  8
0
 62
7
  6
CONTINUOUS
 10
455.5750315892
 20
45.8252557756
  0
VERTEX
  8
0
 62
7
  6
CONTINUOUS
 10
455.4165343377
 20
45.589572071
  0
VERTEX
  8
0
 62
7
  6
CONTINUOUS
 10
455.2679732898
 20
45.3715312128
  0
VERTEX
  8
0
 62
7
  6
CONTINUOUS
 10
455.1298136722
 20
45.1710712959
  0
SEQEND
  0
LINE
  8
0
 62
7
  6
CONTINUOUS
 10
454.275392042
 20
356.9740194371
 11
-85.724607958
 21
356.9740194371
  0
LINE
  8
0
 62
7
  6
CONTINUOUS
 10
455.1298131915
 20
142.1710706023
 11
454.8847229518
 21
141.8206157683
  0
LINE
  8
0
 62
7
  6
CONTINUOUS
 10
454.8847229518
 20
141.8206157683
 11
454.6815959907
 21
141.5347014444
  0
LINE
  8
0
 62
7
  6
CONTINUOUS
 10
454.6815959907
 20
141.5347014444
 11
454.520122554
 21
141.3101513069
  0
POLYLINE
  8
0
 62
7
  6
CONTINUOUS
 66
1
 70
0
  0
VERTEX
  8
0
 62
7
  6
CONTINUOUS
 10
454.520122554
 20
141.3101513069
  0
VERTEX
  8
0
 62
7
  6
CONTINUOUS
 10
454.3201026269
 20
141.0350617887
  0
VERTEX
  8
0
 62
7
  6
CONTINUOUS
 10
454.2803451811
 20
140.9807275183
  0
SEQEND
  0
LINE
  8
0
 62
7
  6
CONTINUOUS
 10
454.2803451811
 20
140.9807275183
 11
454.275392042
 21
140.9740194371
  0
LINE
  8
0
 62
7
  6
CONTINUOUS
 10
454.275392042
 20
162.9740194371
 11
454.2803454854
 21
162.9673117384
  0
LINE
  8
0
 62
7
  6
CONTINUOUS
 10
454.2803454854
 20
162.9673117384
 11
454.4548748002
 21
162.7279829535
  0
LINE
  8
0
 62
7
  6
CONTINUOUS
 10
454.4548748002
 20
162.7279829535
 11
454.5957540628
 21
162.5329858259
  0
LINE
  8
0
 62
7
  6
CONTINUOUS
 10
454.5957540628
 20
162.5329858259
 11
454.7779758416
 21
162.2781485359
  0
POLYLINE
  8
0
 62
7
  6
CONTINUOUS
 66
1
 70
0
  0
VERTEX
  8
0
 62
7
  6
CONTINUOUS
 10
454.7779758416
 20
162.2781485359
  0
VERTEX
  8
0
 62
7
  6
CONTINUOUS
 10
455.002119051
 20
161.9603261555
  0
VERTEX
  8
0
 62
7
  6
CONTINUOUS
 10
455.1298943863
 20
161.7768509591
  0
VERTEX
  8
0
 62
7
  6
CONTINUOUS
 10
455.268056207
 20
161.5763867074
  0
VERTEX
  8
0
 62
7
  6
CONTINUOUS
 10
455.4166203302
 20
161.3583394637
  0
VERTEX
  8
0
 62
7
  6
CONTINUOUS
 10
455.5751192108
 20
161.122651884
  0
VERTEX
  8
0
 62
7
  6
CONTINUOUS
 10
455.7431469049
 20
160.8690491162
  0
VERTEX
  8
0
 62
7
  6
CONTINUOUS
 10
455.9200199059
 20
160.5975897471
  0
VERTEX
  8
0
 62
7
  6
CONTINUOUS
 10
456.105146876
 20
160.3079679532
  0
VERTEX
  8
0
 62
7
  6
CONTINUOUS
 10
456.2972392117
 20
160.0010021134
  0
VERTEX
  8
0
 62
7
  6
CONTINUOUS
 10
456.4952257954
 20
159.6766705349
  0
VERTEX
  8
0
 62
7
  6
CONTINUOUS
 10
456.6969881083
 20
159.3371876083
  0
VERTEX
  8
0
 62
7
  6
CONTINUOUS
 10
456.9002202323
 20
158.984288569
  0
VERTEX
  8
0
 62
7
  6
CONTINUOUS
 10
457.1032542204
 20
158.6193891896
  0
VERTEX
  8
0
 62
7
  6
CONTINUOUS
 10
457.3041774767
 20
158.2436546362
  0
VERTEX
  8
0
 62
7
  6
CONTINUOUS
 10
457.500854746
 20
157.8595719629
  0
VERTEX
  8
0
 62
7
  6
CONTINUOUS
 10
457.6911945665
 20
157.4685894894
  0
VERTEX
  8
0
 62
7
  6
CONTINUOUS
 10
457.8727657546
 20
157.0749885851
  0
VERTEX
  8
0
 62
7
  6
CONTINUOUS
 10
458.0424734429
 20
156.6833266744
  0
VERTEX
  8
0
 62
7
  6
CONTINUOUS
 10
458.2000064188
 20
156.2942239116
  0
VERTEX
  8
0
 62
7
  6
CONTINUOUS
 10
458.344196935
 20
155.9099241419
  0
VERTEX
  8
0
 62
7
  6
CONTINUOUS
 10
458.4751232244
 20
155.5301137174
  0
VERTEX
  8
0
 62
7
  6
CONTINUOUS
 10
458.5927064394
 20
155.1552178145
  0
VERTEX
  8
0
 62
7
  6
CONTINUOUS
 10
458.6969661239
 20
154.7852638062
  0
VERTEX
  8
0
 62
7
  6
CONTINUOUS
 10
458.7880156247
 20
154.4205438129
  0
VERTEX
  8
0
 62
7
  6
CONTINUOUS
 10
458.8660602239
 20
154.0606887684
  0
VERTEX
  8
0
 62
7
  6
CONTINUOUS
 10
458.931400576
 20
153.7058176838
  0
VERTEX
  8
0
 62
7
  6
CONTINUOUS
 10
458.9843065688
 20
153.3547584479
  0
VERTEX
  8
0
 62
7
  6
CONTINUOUS
 10
459.0252470004
 20
153.0064780136
  0
VERTEX
  8
0
 62
7
  6
CONTINUOUS
 10
459.0542619549
 20
152.6606781992
  0
VERTEX
  8
0
 62
7
  6
CONTINUOUS
 10
459.0716320765
 20
152.3171484809
  0
VERTEX
  8
0
 62
7
  6
CONTINUOUS
 10
459.0773529986
 20
151.9745928389
  0
VERTEX
  8
0
 62
7
  6
CONTINUOUS
 10
459.0716673761
 20
151.6319752504
  0
VERTEX
  8
0
 62
7
  6
CONTINUOUS
 10
459.054325365
 20
151.2883052008
  0
VERTEX
  8
0
 62
7
  6
CONTINUOUS
 10
459.0253191885
 20
150.9422993136
  0
VERTEX
  8
0
 62
7
  6
CONTINUOUS
 10
458.9843762867
 20
150.5938001518
  0
VERTEX
  8
0
 62
7
  6
CONTINUOUS
 10
458.9314556322
 20
150.2425592548
  0
VERTEX
  8
0
 62
7
  6
CONTINUOUS
 10
458.866103564
 20
149.887566318
  0
VERTEX
  8
0
 62
7
  6
CONTINUOUS
 10
458.7880703652
 20
149.5277187096
  0
VERTEX
  8
0
 62
7
  6
CONTINUOUS
 10
458.6970378429
 20
149.1630449512
  0
VERTEX
  8
0
 62
7
  6
CONTINUOUS
 10
458.5927910505
 20
148.7931038439
  0
VERTEX
  8
0
 62
7
  6
CONTINUOUS
 10
458.4752143475
 20
148.4182019175
  0
VERTEX
  8
0
 62
7
  6
CONTINUOUS
 10
458.3442803886
 20
148.0383485593
  0
VERTEX
  8
0
 62
7
  6
CONTINUOUS
 10
458.2000762541
 20
147.6539939974
  0
VERTEX
  8
0
 62
7
  6
CONTINUOUS
 10
458.0425305296
 20
147.2648478603
  0
VERTEX
  8
0
 62
7
  6
CONTINUOUS
 10
457.8728064836
 20
146.8731413346
  0
VERTEX
  8
0
 62
7
  6
CONTINUOUS
 10
457.6912152242
 20
146.4794921243
  0
VERTEX
  8
0
 62
7
  6
CONTINUOUS
 10
457.5008464457
 20
146.0884503059
  0
VERTEX
  8
0
 62
7
  6
CONTINUOUS
 10
457.3041164173
 20
145.7042713938
  0
VERTEX
  8
0
 62
7
  6
CONTINUOUS
 10
457.1031489024
 20
145.3284567786
  0
VERTEX
  8
0
 62
7
  6
CONTINUOUS
 10
456.9001078258
 20
144.963550672
  0
VERTEX
  8
0
 62
7
  6
CONTINUOUS
 10
456.6968879251
 20
144.6106801254
  0
VERTEX
  8
0
 62
7
  6
CONTINUOUS
 10
456.4951592425
 20
144.2712546723
  0
VERTEX
  8
0
 62
7
  6
CONTINUOUS
 10
456.297198587
 20
143.9469710783
  0
VERTEX
  8
0
 62
7
  6
CONTINUOUS
 10
456.1050912969
 20
143.6399855354
  0
VERTEX
  8
0
 62
7
  6
CONTINUOUS
 10
455.9199425322
 20
143.3503292985
  0
VERTEX
  8
0
 62
7
  6
CONTINUOUS
 10
455.7430614864
 20
143.0788596564
  0
VERTEX
  8
0
 62
7
  6
CONTINUOUS
 10
455.5750308707
 20
142.8252546995
  0
VERTEX
  8
0
 62
7
  6
CONTINUOUS
 10
455.4165337028
 20
142.5895711335
  0
VERTEX
  8
0
 62
7
  6
CONTINUOUS
 10
455.267972734
 20
142.371530402
  0
VERTEX
  8
0
 62
7
  6
CONTINUOUS
 10
455.1298131915
 20
142.1710706023
  0
SEQEND
  0
LINE
  8
0
 62
7
  6
CONTINUOUS
 10
-85.724607958
 20
406.9740194371
 11
-115.724607958
 21
406.9740194371
  0
LINE
  8
0
 62
7
  6
CONTINUOUS
 10
454.275392042
 20
406.9740194371
 11
484.275392042
 21
406.9740194371
  0
LINE
  8
0
 62
7
  6
CONTINUOUS
 10
454.275392042
 20
406.9740194371
 11
454.275392042
 21
356.9740194371
  0
LINE
  8
0
 62
7
  6
CONTINUOUS
 10
454.275392042
 20
334.9740194371
 11
454.275392042
 21
259.9740194371
  0
LINE
  8
0
 62
7
  6
CONTINUOUS
 10
454.275392042
 20
237.9740194371
 11
454.275392042
 21
162.9740194371
  0
LINE
  8
0
 62
7
  6
CONTINUOUS
 10
454.275392042
 20
140.9740194371
 11
454.275392042
 21
65.9740194371
  0
LINE
  8
0
 62
7
  6
CONTINUOUS
 10
454.275392042
 20
43.9740194371
 11
454.275392042
 21
-31.0259805629
  0
LINE
  8
0
 62
7
  6
CONTINUOUS
 10
454.275392042
 20
-53.0259805629
 11
454.275392042
 21
-103.0259805629
  0
LINE
  8
0
 62
7
  6
CONTINUOUS
 10
455.1298136722
 20
45.1710712959
 11
454.8847232951
 21
44.8206162549
  0
LINE
  8
0
 62
7
  6
CONTINUOUS
 10
454.8847232951
 20
44.8206162549
 11
454.6815962184
 21
44.5347017626
  0
LINE
  8
0
 62
7
  6
CONTINUOUS
 10
454.6815962184
 20
44.5347017626
 11
454.5201226906
 21
44.310151496
  0
POLYLINE
  8
0
 62
7
  6
CONTINUOUS
 66
1
 70
0
  0
VERTEX
  8
0
 62
7
  6
CONTINUOUS
 10
454.5201226906
 20
44.310151496
  0
VERTEX
  8
0
 62
7
  6
CONTINUOUS
 10
454.3201026519
 20
44.0350618228
  0
VERTEX
  8
0
 62
7
  6
CONTINUOUS
 10
454.2803451839
 20
43.9807275221
  0
SEQEND
  0
LINE
  8
0
 62
7
  6
CONTINUOUS
 10
454.2803451839
 20
43.9807275221
 11
454.275392042
 21
43.9740194371
  0
LINE
  8
0
 62
7
  6
CONTINUOUS
 10
454.275392042
 20
259.9740194371
 11
454.2803454881
 21
259.9673117348
  0
LINE
  8
0
 62
7
  6
CONTINUOUS
 10
454.2803454881
 20
259.9673117348
 11
454.4548749007
 21
259.727982815
  0
LINE
  8
0
 62
7
  6
CONTINUOUS
 10
454.4548749007
 20
259.727982815
 11
454.5957542427
 21
259.5329855757
  0
LINE
  8
0
 62
7
  6
CONTINUOUS
 10
454.5957542427
 20
259.5329855757
 11
454.7779761236
 21
259.2781481392
  0
POLYLINE
  8
0
 62
7
  6
CONTINUOUS
 66
1
 70
0
  0
VERTEX
  8
0
 62
7
  6
CONTINUOUS
 10
454.7779761236
 20
259.2781481392
  0
VERTEX
  8
0
 62
7
  6
CONTINUOUS
 10
455.0021194592
 20
258.9603255721
  0
VERTEX
  8
0
 62
7
  6
CONTINUOUS
 10
455.1298948672
 20
258.7768502652
  0
VERTEX
  8
0
 62
7
  6
CONTINUOUS
 10
455.2680567666
 20
258.576385891
  0
VERTEX
  8
0
 62
7
  6
CONTINUOUS
 10
455.4166209751
 20
258.3583385111
  0
VERTEX
  8
0
 62
7
  6
CONTINUOUS
 10
455.5751199444
 20
258.1226507853
  0
VERTEX
  8
0
 62
7
  6
CONTINUOUS
 10
455.7431477275
 20
257.8690478646
  0
VERTEX
  8
0
 62
7
  6
CONTINUOUS
 10
455.9200208162
 20
257.5975883374
  0
VERTEX
  8
0
 62
7
  6
CONTINUOUS
 10
456.1051478687
 20
257.3079663847
  0
VERTEX
  8
0
 62
7
  6
CONTINUOUS
 10
456.2972402836
 20
257.0010003804
  0
VERTEX
  8
0
 62
7
  6
CONTINUOUS
 10
456.4952269424
 20
256.6766686329
  0
VERTEX
  8
0
 62
7
  6
CONTINUOUS
 10
456.6969893315
 20
256.3371855188
  0
VERTEX
  8
0
 62
7
  6
CONTINUOUS
 10
456.9002215463
 20
255.9842862473
  0
VERTEX
  8
0
 62
7
  6
CONTINUOUS
 10
457.103255618
 20
255.6193866297
  0
VERTEX
  8
0
 62
7
  6
CONTINUOUS
 10
457.3041789061
 20
255.2436519179
  0
VERTEX
  8
0
 62
7
  6
CONTINUOUS
 10
457.5008562272
 20
254.8595689997
  0
VERTEX
  8
0
 62
7
  6
CONTINUOUS
 10
457.691196113
 20
254.4685862825
  0
VERTEX
  8
0
 62
7
  6
CONTINUOUS
 10
457.8727676004
 20
254.0749844591
  0
VERTEX
  8
0
 62
7
  6
CONTINUOUS
 10
458.0424765778
 20
253.6833188456
  0
VERTEX
  8
0
 62
7
  6
CONTINUOUS
 10
458.2000102932
 20
253.294213979
  0
VERTEX
  8
0
 62
7
  6
CONTINUOUS
 10
458.3441992442
 20
252.9099177104
  0
VERTEX
  8
0
 62
7
  6
CONTINUOUS
 10
458.4751226662
 20
252.5301154128
  0
VERTEX
  8
0
 62
7
  6
CONTINUOUS
 10
458.5927012164
 20
252.1552367892
  0
VERTEX
  8
0
 62
7
  6
CONTINUOUS
 10
458.696957382
 20
251.7852967011
  0
VERTEX
  8
0
 62
7
  6
CONTINUOUS
 10
458.7880077188
 20
251.4205797738
  0
VERTEX
  8
0
 62
7
  6
CONTINUOUS
 10
458.8660566855
 20
251.0607064195
  0
VERTEX
  8
0
 62
7
  6
CONTINUOUS
 10
458.9314068558
 20
250.7057787045
  0
VERTEX
  8
0
 62
7
  6
CONTINUOUS
 10
458.9843229576
 20
250.3546362917
  0
VERTEX
  8
0
 62
7
  6
CONTINUOUS
 10
459.0252696564
 20
250.0062436627
  0
VERTEX
  8
0
 62
7
  6
CONTINUOUS
 10
459.0542854467
 20
249.6603284278
  0
VERTEX
  8
0
 62
7
  6
CONTINUOUS
 10
459.0716457727
 20
249.3166915715
  0
VERTEX
  8
0
 62
7
  6
CONTINUOUS
 10
459.0773530146
 20
248.9740774527
  0
VERTEX
  8
0
 62
7
  6
CONTINUOUS
 10
459.0716535941
 20
248.6315160183
  0
VERTEX
  8
0
 62
7
  6
CONTINUOUS
 10
459.0543016291
 20
248.2879514897
  0
VERTEX
  8
0
 62
7
  6
CONTINUOUS
 10
459.0252961833
 20
247.942061275
  0
VERTEX
  8
0
 62
7
  6
CONTINUOUS
 10
458.9843596028
 20
247.5936757611
  0
VERTEX
  8
0
 62
7
  6
CONTINUOUS
 10
458.9314494767
 20
247.2425207731
  0
VERTEX
  8
0
 62
7
  6
CONTINUOUS
 10
458.8661077904
 20
246.8875874035
  0
VERTEX
  8
0
 62
7
  6
CONTINUOUS
 10
458.7880795409
 20
246.5277601009
  0
VERTEX
  8
0
 62
7
  6
CONTINUOUS
 10
458.6970483846
 20
246.1630846224
  0
VERTEX
  8
0
 62
7
  6
CONTINUOUS
 10
458.5927984252
 20
245.793130082
  0
VERTEX
  8
0
 62
7
  6
CONTINUOUS
 10
458.4752172912
 20
245.4182108587
  0
VERTEX
  8
0
 62
7
  6
CONTINUOUS
 10
458.344280575
 20
245.0383490843
  0
VERTEX
  8
0
 62
7
  6
CONTINUOUS
 10
458.200074935
 20
244.6539906155
  0
VERTEX
  8
0
 62
7
  6
CONTINUOUS
 10
458.0425300407
 20
244.2648463388
  0
VERTEX
  8
0
 62
7
  6
CONTINUOUS
 10
457.8728073612
 20
243.8731432966
  0
VERTEX
  8
0
 62
7
  6
CONTINUOUS
 10
457.691216453
 20
243.4794947667
  0
VERTEX
  8
0
 62
7
  6
CONTINUOUS
 10
457.5008477567
 20
243.0884529287
  0
VERTEX
  8
0
 62
7
  6
CONTINUOUS
 10
457.3041177454
 20
242.7042739423
  0
VERTEX
  8
0
 62
7
  6
CONTINUOUS
 10
457.1031501935
 20
242.3284591434
  0
VERTEX
  8
0
 62
7
  6
CONTINUOUS
 10
456.90010911
 20
241.9635529363
  0
VERTEX
  8
0
 62
7
  6
CONTINUOUS
 10
456.6968891839
 20
241.6106822759
  0
VERTEX
  8
0
 62
7
  6
CONTINUOUS
 10
456.4951604347
 20
241.2712566515
  0
VERTEX
  8
0
 62
7
  6
CONTINUOUS
 10
456.2971996917
 20
240.9469728643
  0
VERTEX
  8
0
 62
7
  6
CONTINUOUS
 10
456.105092301
 20
240.6399871234
  0
VERTEX
  8
0
 62
7
  6
CONTINUOUS
 10
455.9199434334
 20
240.3503306941
  0
VERTEX
  8
0
 62
7
  6
CONTINUOUS
 10
455.7430622937
 20
240.0788608843
  0
VERTEX
  8
0
 62
7
  6
CONTINUOUS
 10
455.5750315892
 20
239.8252557756
  0
VERTEX
  8
0
 62
7
  6
CONTINUOUS
 10
455.4165343377
 20
239.589572071
  0
VERTEX
  8
0
 62
7
  6
CONTINUOUS
 10
455.2679732898
 20
239.3715312128
  0
VERTEX
  8
0
 62
7
  6
CONTINUOUS
 10
455.1298136722
 20
239.1710712959
  0
SEQEND
  0
LINE
  8
0
 62
7
  6
CONTINUOUS
 10
484.275392042
 20
406.9740194371
 11
484.275392042
 21
-103.0259805629
  0
LINE
  8
0
 62
7
  6
CONTINUOUS
 10
455.1298136722
 20
-51.8289287041
 11
454.8847232951
 21
-52.1793837451
  0
LINE
  8
0
 62
7
  6
CONTINUOUS
 10
454.8847232951
 20
-52.1793837451
 11
454.6815962184
 21
-52.4652982374
  0
LINE
  8
0
 62
7
  6
CONTINUOUS
 10
454.6815962184
 20
-52.4652982374
 11
454.5201226906
 21
-52.689848504
  0
POLYLINE
  8
0
 62
7
  6
CONTINUOUS
 66
1
 70
0
  0
VERTEX
  8
0
 62
7
  6
CONTINUOUS
 10
454.5201226906
 20
-52.689848504
  0
VERTEX
  8
0
 62
7
  6
CONTINUOUS
 10
454.3201026519
 20
-52.9649381772
  0
VERTEX
  8
0
 62
7
  6
CONTINUOUS
 10
454.2803451839
 20
-53.0192724779
  0
SEQEND
  0
LINE
  8
0
 62
7
  6
CONTINUOUS
 10
454.2803451839
 20
-53.0192724779
 11
454.275392042
 21
-53.0259805629
  0
LINE
  8
0
 62
7
  6
CONTINUOUS
 10
454.275392042
 20
356.9740194371
 11
454.2803454881
 21
356.9673117348
  0
LINE
  8
0
 62
7
  6
CONTINUOUS
 10
454.2803454881
 20
356.9673117348
 11
454.4548749007
 21
356.727982815
  0
LINE
  8
0
 62
7
  6
CONTINUOUS
 10
454.4548749007
 20
356.727982815
 11
454.5957542427
 21
356.5329855757
  0
LINE
  8
0
 62
7
  6
CONTINUOUS
 10
454.5957542427
 20
356.5329855757
 11
454.7779761236
 21
356.2781481392
  0
POLYLINE
  8
0
 62
7
  6
CONTINUOUS
 66
1
 70
0
  0
VERTEX
  8
0
 62
7
  6
CONTINUOUS
 10
454.7779761236
 20
356.2781481392
  0
VERTEX
  8
0
 62
7
  6
CONTINUOUS
 10
455.0021194592
 20
355.9603255721
  0
VERTEX
  8
0
 62
7
  6
CONTINUOUS
 10
455.1298948672
 20
355.7768502652
  0
VERTEX
  8
0
 62
7
  6
CONTINUOUS
 10
455.2680567666
 20
355.576385891
  0
VERTEX
  8
0
 62
7
  6
CONTINUOUS
 10
455.4166209751
 20
355.3583385111
  0
VERTEX
  8
0
 62
7
  6
CONTINUOUS
 10
455.5751199444
 20
355.1226507853
  0
VERTEX
  8
0
 62
7
  6
CONTINUOUS
 10
455.7431477275
 20
354.8690478646
  0
VERTEX
  8
0
 62
7
  6
CONTINUOUS
 10
455.9200208162
 20
354.5975883374
  0
VERTEX
  8
0
 62
7
  6
CONTINUOUS
 10
456.1051478687
 20
354.3079663847
  0
VERTEX
  8
0
 62
7
  6
CONTINUOUS
 10
456.2972402836
 20
354.0010003804
  0
VERTEX
  8
0
 62
7
  6
CONTINUOUS
 10
456.4952269424
 20
353.6766686329
  0
VERTEX
  8
0
 62
7
  6
CONTINUOUS
 10
456.6969893315
 20
353.3371855188
  0
VERTEX
  8
0
 62
7
  6
CONTINUOUS
 10
456.9002215463
 20
352.9842862473
  0
VERTEX
  8
0
 62
7
  6
CONTINUOUS
 10
457.103255618
 20
352.6193866297
  0
VERTEX
  8
0
 62
7
  6
CONTINUOUS
 10
457.3041789061
 20
352.2436519179
  0
VERTEX
  8
0
 62
7
  6
CONTINUOUS
 10
457.5008562272
 20
351.8595689997
  0
VERTEX
  8
0
 62
7
  6
CONTINUOUS
 10
457.691196113
 20
351.4685862825
  0
VERTEX
  8
0
 62
7
  6
CONTINUOUS
 10
457.8727676004
 20
351.0749844591
  0
VERTEX
  8
0
 62
7
  6
CONTINUOUS
 10
458.0424765778
 20
350.6833188456
  0
VERTEX
  8
0
 62
7
  6
CONTINUOUS
 10
458.2000102932
 20
350.294213979
  0
VERTEX
  8
0
 62
7
  6
CONTINUOUS
 10
458.3441992442
 20
349.9099177104
  0
VERTEX
  8
0
 62
7
  6
CONTINUOUS
 10
458.4751226662
 20
349.5301154128
  0
VERTEX
  8
0
 62
7
  6
CONTINUOUS
 10
458.5927012164
 20
349.1552367892
  0
VERTEX
  8
0
 62
7
  6
CONTINUOUS
 10
458.696957382
 20
348.7852967011
  0
VERTEX
  8
0
 62
7
  6
CONTINUOUS
 10
458.7880077188
 20
348.4205797738
  0
VERTEX
  8
0
 62
7
  6
CONTINUOUS
 10
458.8660566855
 20
348.0607064195
  0
VERTEX
  8
0
 62
7
  6
CONTINUOUS
 10
458.9314068558
 20
347.7057787045
  0
VERTEX
  8
0
 62
7
  6
CONTINUOUS
 10
458.9843229576
 20
347.3546362917
  0
VERTEX
  8
0
 62
7
  6
CONTINUOUS
 10
459.0252696564
 20
347.0062436627
  0
VERTEX
  8
0
 62
7
  6
CONTINUOUS
 10
459.0542854467
 20
346.6603284278
  0
VERTEX
  8
0
 62
7
  6
CONTINUOUS
 10
459.0716457727
 20
346.3166915715
  0
VERTEX
  8
0
 62
7
  6
CONTINUOUS
 10
459.0773530146
 20
345.9740774527
  0
VERTEX
  8
0
 62
7
  6
CONTINUOUS
 10
459.0716535941
 20
345.6315160183
  0
VERTEX
  8
0
 62
7
  6
CONTINUOUS
 10
459.0543016291
 20
345.2879514897
  0
VERTEX
  8
0
 62
7
  6
CONTINUOUS
 10
459.0252961833
 20
344.942061275
  0
VERTEX
  8
0
 62
7
  6
CONTINUOUS
 10
458.9843596028
 20
344.5936757611
  0
VERTEX
  8
0
 62
7
  6
CONTINUOUS
 10
458.9314494767
 20
344.2425207731
  0
VERTEX
  8
0
 62
7
  6
CONTINUOUS
 10
458.8661077904
 20
343.8875874035
  0
VERTEX
  8
0
 62
7
  6
CONTINUOUS
 10
458.7880795409
 20
343.5277601009
  0
VERTEX
  8
0
 62
7
  6
CONTINUOUS
 10
458.6970483846
 20
343.1630846224
  0
VERTEX
  8
0
 62
7
  6
CONTINUOUS
 10
458.5927984252
 20
342.793130082
  0
VERTEX
  8
0
 62
7
  6
CONTINUOUS
 10
458.4752172912
 20
342.4182108587
  0
VERTEX
  8
0
 62
7
  6
CONTINUOUS
 10
458.344280575
 20
342.0383490843
  0
VERTEX
  8
0
 62
7
  6
CONTINUOUS
 10
458.200074935
 20
341.6539906155
  0
VERTEX
  8
0
 62
7
  6
CONTINUOUS
 10
458.0425300407
 20
341.2648463388
  0
VERTEX
  8
0
 62
7
  6
CONTINUOUS
 10
457.8728073612
 20
340.8731432966
  0
VERTEX
  8
0
 62
7
  6
CONTINUOUS
 10
457.691216453
 20
340.4794947667
  0
VERTEX
  8
0
 62
7
  6
CONTINUOUS
 10
457.5008477567
 20
340.0884529287
  0
VERTEX
  8
0
 62
7
  6
CONTINUOUS
 10
457.3041177454
 20
339.7042739423
  0
VERTEX
  8
0
 62
7
  6
CONTINUOUS
 10
457.1031501935
 20
339.3284591434
  0
VERTEX
  8
0
 62
7
  6
CONTINUOUS
 10
456.90010911
 20
338.9635529363
  0
VERTEX
  8
0
 62
7
  6
CONTINUOUS
 10
456.6968891839
 20
338.6106822759
  0
VERTEX
  8
0
 62
7
  6
CONTINUOUS
 10
456.4951604347
 20
338.2712566515
  0
VERTEX
  8
0
 62
7
  6
CONTINUOUS
 10
456.2971996917
 20
337.9469728643
  0
VERTEX
  8
0
 62
7
  6
CONTINUOUS
 10
456.105092301
 20
337.6399871234
  0
VERTEX
  8
0
 62
7
  6
CONTINUOUS
 10
455.9199434334
 20
337.3503306941
  0
VERTEX
  8
0
 62
7
  6
CONTINUOUS
 10
455.7430622937
 20
337.0788608843
  0
VERTEX
  8
0
 62
7
  6
CONTINUOUS
 10
455.5750315892
 20
336.8252557756
  0
VERTEX
  8
0
 62
7
  6
CONTINUOUS
 10
455.4165343377
 20
336.589572071
  0
VERTEX
  8
0
 62
7
  6
CONTINUOUS
 10
455.2679732898
 20
336.3715312128
  0
VERTEX
  8
0
 62
7
  6
CONTINUOUS
 10
455.1298136722
 20
336.1710712959
  0
SEQEND
  0
ENDSEC
  0
EOF
