999
DXF file: K:\Client\125_Heirloom\001\00\Final_Data\Drawings\LADDER TOWEL WARMERS\wg510en_FRONT.dxf
999
Pro/ENGINEER 2017110 by Parametric Technology Corporation
  0
SECTION
  2
HEADER
  9
$EXTMAX
 10
420.0
 20
297.0
 30
0.0
  9
$EXTMIN
 10
0.0
 20
0.0
 30
0.0
  9
$LIMMIN
 10
0.0
 20
0.0
  9
$LIMMAX
 10
420.0
 20
297.0
  9
$VIEWCTR
 10
210.0
 20
148.5
  9
$VIEWSIZE
 40
297.0
  9
$CLAYER
  8
0
  9
$LTSCALE
 40
23.1
  9
$CELTYPE
  6
BYLAYER
  9
$DIMSCALE
 40
1.0
  9
$DIMASZ
 40
3.0
  9
$DIMEXO
 40
1.0
  9
$DIMDLI
 40
15.96
  9
$DIMEXE
 40
1.0
  9
$DIMCEN
 40
3.78
  9
$DIMLFAC
 40
1.0
  9
$DIMBLK
  1
_FILLED
  9
$DIMALT
 70
0
  9
$DIMALTF
 40
0.0393700787
  9
$DIMTXT
 40
3.0
  9
$AUNITS
 70
0
  9
$PDMODE
 70
3
  9
$PDSIZE
 40
5.0
  9
$TILEMODE
 70
1
  0
ENDSEC
  0
SECTION
  2
TABLES
  0
TABLE
  2
LTYPE
 70
6
  0
LTYPE
  2
BYBLOCK
 70
0
  3

 72
65
 73
0
 40
0.0
  0
LTYPE
  2
BYLAYER
 70
0
  3

 72
65
 73
0
 40
0.0
  0
LTYPE
  2
CONTINUOUS
 70
64
  3
Solid line
 72
65
 73
0
 40
0.0
  0
LTYPE
  2
CENTER
 70
64
  3
____ _ ____ _ ____ _ ____ _ ____ _ ____ _ ____
 72
65
 73
4
 40
0.6
 49
0.375
 49
-0.075
 49
0.075
 49
-0.075
  0
LTYPE
  2
HIDDEN
 70
64
  3
- - - - - - - - - - - - - - - - - - - -
 72
65
 73
2
 40
0.2
 49
0.1
 49
-0.1
  0
LTYPE
  2
PHANTOM
 70
64
  3
_____ _ _ _____ _ _ _____ _ _ _____
 72
65
 73
6
 40
0.8
 49
0.45
 49
-0.05
 49
0.1
 49
-0.05
 49
0.1
 49
-0.05
  0
LTYPE
  2
DOT
 70
64
  3
. . . . . . . . . . . . . . . . . . . .
 72
65
 73
2
 40
0.2
 49
0.1
 49
-0.1
  0
LTYPE
  2
DASHED
 70
64
  3
- - - - - - - - - - - - - - - - - - - -
 72
65
 73
2
 40
0.2
 49
0.1
 49
-0.1
  0
ENDTAB
  0
TABLE
  2
LAYER
 70
36
  0
LAYER
  2
0
 70
0
 62
7
  6
CONTINUOUS
  0
LAYER
  2
DEFAULT_1
 70
0
 62
7
  6
CENTER
  0
LAYER
  2
DEFAULT_2
 70
0
 62
8
  6
HIDDEN
  0
LAYER
  2
DEFAULT_3
 70
0
 62
7
  6
PHANTOM
  0
LAYER
  2
0000_BOM
 70
0
 62
7
  6
CONTINUOUS
  0
LAYER
  2
0000_REV_TABLE
 70
0
 62
7
  6
CONTINUOUS
  0
LAYER
  2
0000_STEVENS_NOTE
 70
0
 62
7
  6
CONTINUOUS
  0
LAYER
  2
01_DATUM_PLANES
 70
0
 62
7
  6
CONTINUOUS
  0
LAYER
  2
01_DEF_PLANES
 70
0
 62
7
  6
CONTINUOUS
  0
LAYER
  2
02_DATUM_COS
 70
0
 62
7
  6
CONTINUOUS
  0
LAYER
  2
99_SOLID
 70
0
 62
7
  6
CONTINUOUS
  0
LAYER
  2
CAD-MASTER_ZINC-PL
 70
0
 62
7
  6
CONTINUOUS
  0
LAYER
  2
CURVE
 70
0
 62
7
  6
CONTINUOUS
  0
LAYER
  2
SKEL
 70
0
 62
7
  6
CONTINUOUS
  0
LAYER
  2
SKETCH
 70
0
 62
7
  6
CONTINUOUS
  0
LAYER
  2
SURFACE
 70
0
 62
7
  6
CONTINUOUS
  0
ENDTAB
  0
TABLE
  2
STYLE
 70
1
  0
STYLE
  2
STANDARD
 70
0
 40
0.0
 41
0.75
 50
0.0
 71
0
 42
0.2
  3
txt
  4

  0
STYLE
  2
TEXTSTYLE_1
 70
0
 40
0.0
 41
0.8
 50
0.0
 71
0
 42
0.2
  3
gdt
  4

  0
ENDTAB
  0
ENDSEC
  0
SECTION
  2
BLOCKS
  0
ENDSEC
  0
SECTION
  2
ENTITIES
  0
POLYLINE
  8
0
 62
7
  6
CONTINUOUS
 66
1
 70
0
  0
VERTEX
  8
0
 62
7
  6
CONTINUOUS
 10
-211.4876777676
 20
355.9083126302
  0
VERTEX
  8
0
 62
7
  6
CONTINUOUS
 10
-211.6218368436
 20
355.7150966175
  0
VERTEX
  8
0
 62
7
  6
CONTINUOUS
 10
-211.7668439433
 20
355.5039290007
  0
VERTEX
  8
0
 62
7
  6
CONTINUOUS
 10
-211.9227013466
 20
355.2741507669
  0
VERTEX
  8
0
 62
7
  6
CONTINUOUS
 10
-212.088824316
 20
355.0257924973
  0
VERTEX
  8
0
 62
7
  6
CONTINUOUS
 10
-212.2646784159
 20
354.7586440783
  0
VERTEX
  8
0
 62
7
  6
CONTINUOUS
 10
-212.4494907457
 20
354.4727685804
  0
VERTEX
  8
0
 62
7
  6
CONTINUOUS
 10
-212.642655641
 20
354.1676936718
  0
VERTEX
  8
0
 62
7
  6
CONTINUOUS
 10
-212.8424718842
 20
353.8448154466
  0
VERTEX
  8
0
 62
7
  6
CONTINUOUS
 10
-213.0473853956
 20
353.5046341333
  0
VERTEX
  8
0
 62
7
  6
CONTINUOUS
 10
-213.2552220905
 20
353.1493649977
  0
VERTEX
  8
0
 62
7
  6
CONTINUOUS
 10
-213.4635329222
 20
352.7808423357
  0
VERTEX
  8
0
 62
7
  6
CONTINUOUS
 10
-213.6704658315
 20
352.4007092853
  0
VERTEX
  8
0
 62
7
  6
CONTINUOUS
 10
-213.8740154048
 20
352.0100849373
  0
VERTEX
  8
0
 62
7
  6
CONTINUOUS
 10
-214.0716657687
 20
351.6123757285
  0
VERTEX
  8
0
 62
7
  6
CONTINUOUS
 10
-214.2607646191
 20
351.2101024543
  0
VERTEX
  8
0
 62
7
  6
CONTINUOUS
 10
-214.4393034127
 20
350.8070411296
  0
VERTEX
  8
0
 62
7
  6
CONTINUOUS
 10
-214.6043997833
 20
350.407835237
  0
VERTEX
  8
0
 62
7
  6
CONTINUOUS
 10
-214.7560828443
 20
350.0124031695
  0
VERTEX
  8
0
 62
7
  6
CONTINUOUS
 10
-214.8936446685
 20
349.6223445733
  0
VERTEX
  8
0
 62
7
  6
CONTINUOUS
 10
-215.017193071
 20
349.2372591712
  0
VERTEX
  8
0
 62
7
  6
CONTINUOUS
 10
-215.126839868
 20
348.8572211235
  0
VERTEX
  8
0
 62
7
  6
CONTINUOUS
 10
-215.222607816
 20
348.4824067645
  0
VERTEX
  8
0
 62
7
  6
CONTINUOUS
 10
-215.3046275132
 20
348.1133883173
  0
VERTEX
  8
0
 62
7
  6
CONTINUOUS
 10
-215.3732437205
 20
347.7490522755
  0
VERTEX
  8
0
 62
7
  6
CONTINUOUS
 10
-215.4289507345
 20
347.3886968093
  0
VERTEX
  8
0
 62
7
  6
CONTINUOUS
 10
-215.4718716559
 20
347.0316591118
  0
VERTEX
  8
0
 62
7
  6
CONTINUOUS
 10
-215.5023833673
 20
346.6772562221
  0
VERTEX
  8
0
 62
7
  6
CONTINUOUS
 10
-215.5205362306
 20
346.3248467723
  0
VERTEX
  8
0
 62
7
  6
CONTINUOUS
 10
-215.5266354924
 20
345.9741178291
  0
VERTEX
  8
0
 62
7
  6
CONTINUOUS
 10
-215.520543415
 20
345.6234011276
  0
VERTEX
  8
0
 62
7
  6
CONTINUOUS
 10
-215.5024028143
 20
345.271043152
  0
VERTEX
  8
0
 62
7
  6
CONTINUOUS
 10
-215.4719033162
 20
344.9166867208
  0
VERTEX
  8
0
 62
7
  6
CONTINUOUS
 10
-215.4289884358
 20
344.5596293229
  0
VERTEX
  8
0
 62
7
  6
CONTINUOUS
 10
-215.3732894733
 20
344.1992534321
  0
VERTEX
  8
0
 62
7
  6
CONTINUOUS
 10
-215.304692533
 20
343.8349604027
  0
VERTEX
  8
0
 62
7
  6
CONTINUOUS
 10
-215.2226935503
 20
343.4659910825
  0
VERTEX
  8
0
 62
7
  6
CONTINUOUS
 10
-215.12694295
 20
343.0911951316
  0
VERTEX
  8
0
 62
7
  6
CONTINUOUS
 10
-215.017305147
 20
342.7111474677
  0
VERTEX
  8
0
 62
7
  6
CONTINUOUS
 10
-214.8937479637
 20
342.3260039834
  0
VERTEX
  8
0
 62
7
  6
CONTINUOUS
 10
-214.7561696259
 20
341.9358714154
  0
VERTEX
  8
0
 62
7
  6
CONTINUOUS
 10
-214.6044683941
 20
341.5403763373
  0
VERTEX
  8
0
 62
7
  6
CONTINUOUS
 10
-214.4393536839
 20
341.1411151309
  0
VERTEX
  8
0
 62
7
  6
CONTINUOUS
 10
-214.2608063943
 20
340.7380247382
  0
VERTEX
  8
0
 62
7
  6
CONTINUOUS
 10
-214.0716884649
 20
340.3357100526
  0
VERTEX
  8
0
 62
7
  6
CONTINUOUS
 10
-213.8739817399
 20
339.9378920734
  0
VERTEX
  8
0
 62
7
  6
CONTINUOUS
 10
-213.6703751076
 20
339.5471594251
  0
VERTEX
  8
0
 62
7
  6
CONTINUOUS
 10
-213.4634065285
 20
339.1669701237
  0
VERTEX
  8
0
 62
7
  6
CONTINUOUS
 10
-213.2550857786
 20
338.7984369949
  0
VERTEX
  8
0
 62
7
  6
CONTINUOUS
 10
-213.0472911718
 20
338.4432407858
  0
VERTEX
  8
0
 62
7
  6
CONTINUOUS
 10
-212.8424183137
 20
338.1031357489
  0
VERTEX
  8
0
 62
7
  6
CONTINUOUS
 10
-212.6425932812
 20
337.7802481629
  0
VERTEX
  8
0
 62
7
  6
CONTINUOUS
 10
-212.4494090567
 20
337.4751426954
  0
VERTEX
  8
0
 62
7
  6
CONTINUOUS
 10
-212.2645863774
 20
337.1892539727
  0
VERTEX
  8
0
 62
7
  6
CONTINUOUS
 10
-212.0887260826
 20
336.9220983968
  0
VERTEX
  8
0
 62
7
  6
CONTINUOUS
 10
-211.9226034155
 20
336.6737424477
  0
VERTEX
  8
0
 62
7
  6
CONTINUOUS
 10
-211.7667487954
 20
336.4439705178
  0
VERTEX
  8
0
 62
7
  6
CONTINUOUS
 10
-211.6217451282
 20
336.2328091798
  0
VERTEX
  8
0
 62
7
  6
CONTINUOUS
 10
-211.4875885406
 20
336.0395983723
  0
VERTEX
  8
0
 62
7
  6
CONTINUOUS
 10
-211.2521781254
 20
335.7050747367
  0
SEQEND
  0
LINE
  8
0
 62
7
  6
CONTINUOUS
 10
-211.2522688319
 20
356.2428363008
 11
-211.4876777676
 21
355.9083126302
  0
LINE
  8
0
 62
7
  6
CONTINUOUS
 10
-211.0609363755
 20
356.5107772061
 11
-211.2522688319
 21
356.2428363008
  0
LINE
  8
0
 62
7
  6
CONTINUOUS
 10
-210.8552685412
 20
356.7952035344
 11
-211.0609363755
 21
356.5107772061
  0
LINE
  8
0
 62
7
  6
CONTINUOUS
 10
-210.729806704
 20
356.966980463
 11
-210.8552685412
 21
356.7952035344
  0
LINE
  8
0
 62
7
  6
CONTINUOUS
 10
-210.724607958
 20
356.9740194371
 11
-210.729806704
 21
356.966980463
  0
LINE
  8
0
 62
7
  6
CONTINUOUS
 10
-210.7298063159
 20
-53.0189411957
 11
-210.724607958
 21
-53.0259805629
  0
LINE
  8
0
 62
7
  6
CONTINUOUS
 10
-210.9129710742
 20
-52.7677023607
 11
-210.7298063159
 21
-53.0189411957
  0
LINE
  8
0
 62
7
  6
CONTINUOUS
 10
-211.0608774399
 20
-52.5628203505
 11
-210.9129710742
 21
-52.7677023607
  0
LINE
  8
0
 62
7
  6
CONTINUOUS
 10
-211.2521781254
 20
-52.2949252633
 11
-211.0608774399
 21
-52.5628203505
  0
LINE
  8
0
 62
7
  6
CONTINUOUS
 10
-240.724607958
 20
406.9740194371
 11
-240.724607958
 21
-103.0259805629
  0
LINE
  8
0
 62
7
  6
CONTINUOUS
 10
-210.724607958
 20
406.9740194371
 11
-210.724607958
 21
356.9740194371
  0
LINE
  8
0
 62
7
  6
CONTINUOUS
 10
-210.724607958
 20
334.9740194371
 11
-210.724607958
 21
259.9740194371
  0
LINE
  8
0
 62
7
  6
CONTINUOUS
 10
-210.724607958
 20
237.9740194371
 11
-210.724607958
 21
162.9740194371
  0
LINE
  8
0
 62
7
  6
CONTINUOUS
 10
-210.724607958
 20
140.9740194371
 11
-210.724607958
 21
65.9740194371
  0
LINE
  8
0
 62
7
  6
CONTINUOUS
 10
-210.724607958
 20
43.9740194371
 11
-210.724607958
 21
-31.0259805629
  0
LINE
  8
0
 62
7
  6
CONTINUOUS
 10
-210.724607958
 20
-53.0259805629
 11
-210.724607958
 21
-103.0259805629
  0
POLYLINE
  8
0
 62
7
  6
CONTINUOUS
 66
1
 70
0
  0
VERTEX
  8
0
 62
7
  6
CONTINUOUS
 10
-211.4876777676
 20
258.9083126302
  0
VERTEX
  8
0
 62
7
  6
CONTINUOUS
 10
-211.6218368436
 20
258.7150966175
  0
VERTEX
  8
0
 62
7
  6
CONTINUOUS
 10
-211.7668439433
 20
258.5039290007
  0
VERTEX
  8
0
 62
7
  6
CONTINUOUS
 10
-211.9227013466
 20
258.2741507669
  0
VERTEX
  8
0
 62
7
  6
CONTINUOUS
 10
-212.088824316
 20
258.0257924973
  0
VERTEX
  8
0
 62
7
  6
CONTINUOUS
 10
-212.2646784159
 20
257.7586440783
  0
VERTEX
  8
0
 62
7
  6
CONTINUOUS
 10
-212.4494907457
 20
257.4727685804
  0
VERTEX
  8
0
 62
7
  6
CONTINUOUS
 10
-212.642655641
 20
257.1676936718
  0
VERTEX
  8
0
 62
7
  6
CONTINUOUS
 10
-212.8424718842
 20
256.8448154466
  0
VERTEX
  8
0
 62
7
  6
CONTINUOUS
 10
-213.0473853956
 20
256.5046341333
  0
VERTEX
  8
0
 62
7
  6
CONTINUOUS
 10
-213.2552220905
 20
256.1493649977
  0
VERTEX
  8
0
 62
7
  6
CONTINUOUS
 10
-213.4635329222
 20
255.7808423357
  0
VERTEX
  8
0
 62
7
  6
CONTINUOUS
 10
-213.6704658315
 20
255.4007092853
  0
VERTEX
  8
0
 62
7
  6
CONTINUOUS
 10
-213.8740154048
 20
255.0100849373
  0
VERTEX
  8
0
 62
7
  6
CONTINUOUS
 10
-214.0716657687
 20
254.6123757285
  0
VERTEX
  8
0
 62
7
  6
CONTINUOUS
 10
-214.2607646191
 20
254.2101024543
  0
VERTEX
  8
0
 62
7
  6
CONTINUOUS
 10
-214.4393034127
 20
253.8070411296
  0
VERTEX
  8
0
 62
7
  6
CONTINUOUS
 10
-214.6043997833
 20
253.407835237
  0
VERTEX
  8
0
 62
7
  6
CONTINUOUS
 10
-214.7560828443
 20
253.0124031695
  0
VERTEX
  8
0
 62
7
  6
CONTINUOUS
 10
-214.8936446685
 20
252.6223445733
  0
VERTEX
  8
0
 62
7
  6
CONTINUOUS
 10
-215.017193071
 20
252.2372591712
  0
VERTEX
  8
0
 62
7
  6
CONTINUOUS
 10
-215.126839868
 20
251.8572211235
  0
VERTEX
  8
0
 62
7
  6
CONTINUOUS
 10
-215.222607816
 20
251.4824067645
  0
VERTEX
  8
0
 62
7
  6
CONTINUOUS
 10
-215.3046275132
 20
251.1133883173
  0
VERTEX
  8
0
 62
7
  6
CONTINUOUS
 10
-215.3732437205
 20
250.7490522755
  0
VERTEX
  8
0
 62
7
  6
CONTINUOUS
 10
-215.4289507345
 20
250.3886968093
  0
VERTEX
  8
0
 62
7
  6
CONTINUOUS
 10
-215.4718716559
 20
250.0316591118
  0
VERTEX
  8
0
 62
7
  6
CONTINUOUS
 10
-215.5023833673
 20
249.6772562221
  0
VERTEX
  8
0
 62
7
  6
CONTINUOUS
 10
-215.5205362306
 20
249.3248467723
  0
VERTEX
  8
0
 62
7
  6
CONTINUOUS
 10
-215.5266354924
 20
248.9741178291
  0
VERTEX
  8
0
 62
7
  6
CONTINUOUS
 10
-215.520543415
 20
248.6234011276
  0
VERTEX
  8
0
 62
7
  6
CONTINUOUS
 10
-215.5024028143
 20
248.271043152
  0
VERTEX
  8
0
 62
7
  6
CONTINUOUS
 10
-215.4719033162
 20
247.9166867208
  0
VERTEX
  8
0
 62
7
  6
CONTINUOUS
 10
-215.4289884358
 20
247.5596293229
  0
VERTEX
  8
0
 62
7
  6
CONTINUOUS
 10
-215.3732894733
 20
247.1992534321
  0
VERTEX
  8
0
 62
7
  6
CONTINUOUS
 10
-215.304692533
 20
246.8349604027
  0
VERTEX
  8
0
 62
7
  6
CONTINUOUS
 10
-215.2226935503
 20
246.4659910825
  0
VERTEX
  8
0
 62
7
  6
CONTINUOUS
 10
-215.12694295
 20
246.0911951316
  0
VERTEX
  8
0
 62
7
  6
CONTINUOUS
 10
-215.017305147
 20
245.7111474677
  0
VERTEX
  8
0
 62
7
  6
CONTINUOUS
 10
-214.8937479637
 20
245.3260039834
  0
VERTEX
  8
0
 62
7
  6
CONTINUOUS
 10
-214.7561696259
 20
244.9358714154
  0
VERTEX
  8
0
 62
7
  6
CONTINUOUS
 10
-214.6044683941
 20
244.5403763373
  0
VERTEX
  8
0
 62
7
  6
CONTINUOUS
 10
-214.4393536839
 20
244.1411151309
  0
VERTEX
  8
0
 62
7
  6
CONTINUOUS
 10
-214.2608063943
 20
243.7380247382
  0
VERTEX
  8
0
 62
7
  6
CONTINUOUS
 10
-214.0716884649
 20
243.3357100526
  0
VERTEX
  8
0
 62
7
  6
CONTINUOUS
 10
-213.8739817399
 20
242.9378920734
  0
VERTEX
  8
0
 62
7
  6
CONTINUOUS
 10
-213.6703751076
 20
242.5471594251
  0
VERTEX
  8
0
 62
7
  6
CONTINUOUS
 10
-213.4634065285
 20
242.1669701237
  0
VERTEX
  8
0
 62
7
  6
CONTINUOUS
 10
-213.2550857786
 20
241.7984369949
  0
VERTEX
  8
0
 62
7
  6
CONTINUOUS
 10
-213.0472911718
 20
241.4432407858
  0
VERTEX
  8
0
 62
7
  6
CONTINUOUS
 10
-212.8424183137
 20
241.1031357489
  0
VERTEX
  8
0
 62
7
  6
CONTINUOUS
 10
-212.6425932812
 20
240.7802481629
  0
VERTEX
  8
0
 62
7
  6
CONTINUOUS
 10
-212.4494090567
 20
240.4751426954
  0
VERTEX
  8
0
 62
7
  6
CONTINUOUS
 10
-212.2645863774
 20
240.1892539727
  0
VERTEX
  8
0
 62
7
  6
CONTINUOUS
 10
-212.0887260826
 20
239.9220983968
  0
VERTEX
  8
0
 62
7
  6
CONTINUOUS
 10
-211.9226034155
 20
239.6737424477
  0
VERTEX
  8
0
 62
7
  6
CONTINUOUS
 10
-211.7667487954
 20
239.4439705178
  0
VERTEX
  8
0
 62
7
  6
CONTINUOUS
 10
-211.6217451282
 20
239.2328091798
  0
VERTEX
  8
0
 62
7
  6
CONTINUOUS
 10
-211.4875885406
 20
239.0395983723
  0
VERTEX
  8
0
 62
7
  6
CONTINUOUS
 10
-211.2521781254
 20
238.7050747367
  0
SEQEND
  0
LINE
  8
0
 62
7
  6
CONTINUOUS
 10
-211.2522688319
 20
259.2428363008
 11
-211.4876777676
 21
258.9083126302
  0
LINE
  8
0
 62
7
  6
CONTINUOUS
 10
-211.0609363755
 20
259.5107772061
 11
-211.2522688319
 21
259.2428363008
  0
LINE
  8
0
 62
7
  6
CONTINUOUS
 10
-210.8552685412
 20
259.7952035344
 11
-211.0609363755
 21
259.5107772061
  0
LINE
  8
0
 62
7
  6
CONTINUOUS
 10
-210.729806704
 20
259.966980463
 11
-210.8552685412
 21
259.7952035344
  0
LINE
  8
0
 62
7
  6
CONTINUOUS
 10
-210.724607958
 20
259.9740194371
 11
-210.729806704
 21
259.966980463
  0
LINE
  8
0
 62
7
  6
CONTINUOUS
 10
-210.7298063159
 20
43.9810588043
 11
-210.724607958
 21
43.9740194371
  0
LINE
  8
0
 62
7
  6
CONTINUOUS
 10
-210.9129710742
 20
44.2322976393
 11
-210.7298063159
 21
43.9810588043
  0
LINE
  8
0
 62
7
  6
CONTINUOUS
 10
-211.0608774399
 20
44.4371796495
 11
-210.9129710742
 21
44.2322976393
  0
LINE
  8
0
 62
7
  6
CONTINUOUS
 10
-211.2521781254
 20
44.7050747367
 11
-211.0608774399
 21
44.4371796495
  0
POLYLINE
  8
0
 62
7
  6
CONTINUOUS
 66
1
 70
0
  0
VERTEX
  8
0
 62
7
  6
CONTINUOUS
 10
-211.4876772325
 20
161.9083133972
  0
VERTEX
  8
0
 62
7
  6
CONTINUOUS
 10
-211.6218362129
 20
161.7150975307
  0
VERTEX
  8
0
 62
7
  6
CONTINUOUS
 10
-211.7668432095
 20
161.5039300755
  0
VERTEX
  8
0
 62
7
  6
CONTINUOUS
 10
-211.9227005025
 20
161.27415202
  0
VERTEX
  8
0
 62
7
  6
CONTINUOUS
 10
-212.088823358
 20
161.0257939404
  0
VERTEX
  8
0
 62
7
  6
CONTINUOUS
 10
-212.2646773449
 20
160.7586457193
  0
VERTEX
  8
0
 62
7
  6
CONTINUOUS
 10
-212.4494895639
 20
160.4727704264
  0
VERTEX
  8
0
 62
7
  6
CONTINUOUS
 10
-212.6426543548
 20
160.1676957247
  0
VERTEX
  8
0
 62
7
  6
CONTINUOUS
 10
-212.8424704976
 20
159.8448177162
  0
VERTEX
  8
0
 62
7
  6
CONTINUOUS
 10
-213.0473839108
 20
159.504636632
  0
VERTEX
  8
0
 62
7
  6
CONTINUOUS
 10
-213.2552205082
 20
159.1493677475
  0
VERTEX
  8
0
 62
7
  6
CONTINUOUS
 10
-213.463531229
 20
158.7808453896
  0
VERTEX
  8
0
 62
7
  6
CONTINUOUS
 10
-213.6704640457
 20
158.4007126349
  0
VERTEX
  8
0
 62
7
  6
CONTINUOUS
 10
-213.8740136691
 20
158.0100882965
  0
VERTEX
  8
0
 62
7
  6
CONTINUOUS
 10
-214.0716639475
 20
157.6123794923
  0
VERTEX
  8
0
 62
7
  6
CONTINUOUS
 10
-214.2607621482
 20
157.2101079285
  0
VERTEX
  8
0
 62
7
  6
CONTINUOUS
 10
-214.4393001903
 20
156.8070486542
  0
VERTEX
  8
0
 62
7
  6
CONTINUOUS
 10
-214.6043955974
 20
156.407846219
  0
VERTEX
  8
0
 62
7
  6
CONTINUOUS
 10
-214.7560789202
 20
156.0124138276
  0
VERTEX
  8
0
 62
7
  6
CONTINUOUS
 10
-214.8936447327
 20
155.6223437408
  0
VERTEX
  8
0
 62
7
  6
CONTINUOUS
 10
-215.0171978959
 20
155.2372433396
  0
VERTEX
  8
0
 62
7
  6
CONTINUOUS
 10
-215.1268485869
 20
154.8571868721
  0
VERTEX
  8
0
 62
7
  6
CONTINUOUS
 10
-215.222617553
 20
154.4823659975
  0
VERTEX
  8
0
 62
7
  6
CONTINUOUS
 10
-215.3046316414
 20
154.1133663524
  0
VERTEX
  8
0
 62
7
  6
CONTINUOUS
 10
-215.3732389229
 20
153.7490802535
  0
VERTEX
  8
0
 62
7
  6
CONTINUOUS
 10
-215.428933892
 20
153.3888256188
  0
VERTEX
  8
0
 62
7
  6
CONTINUOUS
 10
-215.47184564
 20
153.0319112798
  0
VERTEX
  8
0
 62
7
  6
CONTINUOUS
 10
-215.502358233
 20
152.6776466438
  0
VERTEX
  8
0
 62
7
  6
CONTINUOUS
 10
-215.520518989
 20
152.3253479004
  0
VERTEX
  8
0
 62
7
  6
CONTINUOUS
 10
-215.5266355184
 20
151.9746519429
  0
VERTEX
  8
0
 62
7
  6
CONTINUOUS
 10
-215.5205607526
 20
151.6239060678
  0
VERTEX
  8
0
 62
7
  6
CONTINUOUS
 10
-215.5024282579
 20
151.2714385206
  0
VERTEX
  8
0
 62
7
  6
CONTINUOUS
 10
-215.4719297783
 20
150.916943348
  0
VERTEX
  8
0
 62
7
  6
CONTINUOUS
 10
-215.4290055445
 20
150.5597603484
  0
VERTEX
  8
0
 62
7
  6
CONTINUOUS
 10
-215.3732941164
 20
150.1992805129
  0
VERTEX
  8
0
 62
7
  6
CONTINUOUS
 10
-215.3046874945
 20
149.83493417
  0
VERTEX
  8
0
 62
7
  6
CONTINUOUS
 10
-215.2226820926
 20
149.4659431056
  0
VERTEX
  8
0
 62
7
  6
CONTINUOUS
 10
-215.1269319012
 20
149.0911522709
  0
VERTEX
  8
0
 62
7
  6
CONTINUOUS
 10
-215.017297538
 20
148.7111224985
  0
VERTEX
  8
0
 62
7
  6
CONTINUOUS
 10
-214.8937448928
 20
148.3259941746
  0
VERTEX
  8
0
 62
7
  6
CONTINUOUS
 10
-214.7561704264
 20
147.9358735897
  0
VERTEX
  8
0
 62
7
  6
CONTINUOUS
 10
-214.6044693462
 20
147.5403792038
  0
VERTEX
  8
0
 62
7
  6
CONTINUOUS
 10
-214.4393535826
 20
147.1411148944
  0
VERTEX
  8
0
 62
7
  6
CONTINUOUS
 10
-214.2608054378
 20
146.7380227156
  0
VERTEX
  8
0
 62
7
  6
CONTINUOUS
 10
-214.0716867928
 20
146.3357065968
  0
VERTEX
  8
0
 62
7
  6
CONTINUOUS
 10
-213.8739799999
 20
145.9378886057
  0
VERTEX
  8
0
 62
7
  6
CONTINUOUS
 10
-213.670373485
 20
145.5471563818
  0
VERTEX
  8
0
 62
7
  6
CONTINUOUS
 10
-213.4634049112
 20
145.1669672147
  0
VERTEX
  8
0
 62
7
  6
CONTINUOUS
 10
-213.255084183
 20
144.7984342221
  0
VERTEX
  8
0
 62
7
  6
CONTINUOUS
 10
-213.0472896433
 20
144.4432382123
  0
VERTEX
  8
0
 62
7
  6
CONTINUOUS
 10
-212.8424168808
 20
144.1031334037
  0
VERTEX
  8
0
 62
7
  6
CONTINUOUS
 10
-212.6425919713
 20
143.7802460698
  0
VERTEX
  8
0
 62
7
  6
CONTINUOUS
 10
-212.4494078778
 20
143.4751408539
  0
VERTEX
  8
0
 62
7
  6
CONTINUOUS
 10
-212.2645853204
 20
143.1892523532
  0
VERTEX
  8
0
 62
7
  6
CONTINUOUS
 10
-212.0887251423
 20
142.9220969803
  0
VERTEX
  8
0
 62
7
  6
CONTINUOUS
 10
-211.9226025846
 20
142.6737412148
  0
VERTEX
  8
0
 62
7
  6
CONTINUOUS
 10
-211.766748068
 20
142.4439694525
  0
VERTEX
  8
0
 62
7
  6
CONTINUOUS
 10
-211.621744499
 20
142.232808269
  0
VERTEX
  8
0
 62
7
  6
CONTINUOUS
 10
-211.4875880038
 20
142.039597603
  0
VERTEX
  8
0
 62
7
  6
CONTINUOUS
 10
-211.2521777553
 20
141.705074215
  0
SEQEND
  0
LINE
  8
0
 62
7
  6
CONTINUOUS
 10
-211.2522684623
 20
162.2428368218
 11
-211.4876772325
 21
161.9083133972
  0
LINE
  8
0
 62
7
  6
CONTINUOUS
 10
-211.0609361397
 20
162.5107775342
 11
-211.2522684623
 21
162.2428368218
  0
LINE
  8
0
 62
7
  6
CONTINUOUS
 10
-210.8552684501
 20
162.7952036595
 11
-211.0609361397
 21
162.5107775342
  0
LINE
  8
0
 62
7
  6
CONTINUOUS
 10
-211.060877205
 20
141.4371793226
 11
-210.8552432866
 21
141.1528011072
  0
LINE
  8
0
 62
7
  6
CONTINUOUS
 10
-211.2521777553
 20
141.705074215
 11
-211.060877205
 21
141.4371793226
  0
LINE
  8
0
 62
7
  6
CONTINUOUS
 10
-210.7298067004
 20
162.9669804678
 11
-210.8552684501
 21
162.7952036595
  0
LINE
  8
0
 62
7
  6
CONTINUOUS
 10
-210.724607958
 20
162.9740194371
 11
-210.7298067004
 21
162.9669804678
  0
LINE
  8
0
 62
7
  6
CONTINUOUS
 10
-210.7298063123
 20
140.9810587993
 11
-210.724607958
 21
140.9740194371
  0
LINE
  8
0
 62
7
  6
CONTINUOUS
 10
-210.8552432866
 20
141.1528011072
 11
-210.7298063123
 21
140.9810587993
  0
POLYLINE
  8
0
 62
7
  6
CONTINUOUS
 66
1
 70
0
  0
VERTEX
  8
0
 62
7
  6
CONTINUOUS
 10
-211.4876777676
 20
64.9083126302
  0
VERTEX
  8
0
 62
7
  6
CONTINUOUS
 10
-211.6218368436
 20
64.7150966175
  0
VERTEX
  8
0
 62
7
  6
CONTINUOUS
 10
-211.7668439433
 20
64.5039290007
  0
VERTEX
  8
0
 62
7
  6
CONTINUOUS
 10
-211.9227013466
 20
64.2741507669
  0
VERTEX
  8
0
 62
7
  6
CONTINUOUS
 10
-212.088824316
 20
64.0257924973
  0
VERTEX
  8
0
 62
7
  6
CONTINUOUS
 10
-212.2646784159
 20
63.7586440783
  0
VERTEX
  8
0
 62
7
  6
CONTINUOUS
 10
-212.4494907457
 20
63.4727685804
  0
VERTEX
  8
0
 62
7
  6
CONTINUOUS
 10
-212.642655641
 20
63.1676936718
  0
VERTEX
  8
0
 62
7
  6
CONTINUOUS
 10
-212.8424718842
 20
62.8448154466
  0
VERTEX
  8
0
 62
7
  6
CONTINUOUS
 10
-213.0473853956
 20
62.5046341333
  0
VERTEX
  8
0
 62
7
  6
CONTINUOUS
 10
-213.2552220905
 20
62.1493649977
  0
VERTEX
  8
0
 62
7
  6
CONTINUOUS
 10
-213.4635329222
 20
61.7808423357
  0
VERTEX
  8
0
 62
7
  6
CONTINUOUS
 10
-213.6704658315
 20
61.4007092853
  0
VERTEX
  8
0
 62
7
  6
CONTINUOUS
 10
-213.8740154048
 20
61.0100849373
  0
VERTEX
  8
0
 62
7
  6
CONTINUOUS
 10
-214.0716657687
 20
60.6123757285
  0
VERTEX
  8
0
 62
7
  6
CONTINUOUS
 10
-214.2607646191
 20
60.2101024543
  0
VERTEX
  8
0
 62
7
  6
CONTINUOUS
 10
-214.4393034127
 20
59.8070411296
  0
VERTEX
  8
0
 62
7
  6
CONTINUOUS
 10
-214.6043997833
 20
59.407835237
  0
VERTEX
  8
0
 62
7
  6
CONTINUOUS
 10
-214.7560828443
 20
59.0124031695
  0
VERTEX
  8
0
 62
7
  6
CONTINUOUS
 10
-214.8936446685
 20
58.6223445733
  0
VERTEX
  8
0
 62
7
  6
CONTINUOUS
 10
-215.017193071
 20
58.2372591712
  0
VERTEX
  8
0
 62
7
  6
CONTINUOUS
 10
-215.126839868
 20
57.8572211235
  0
VERTEX
  8
0
 62
7
  6
CONTINUOUS
 10
-215.222607816
 20
57.4824067645
  0
VERTEX
  8
0
 62
7
  6
CONTINUOUS
 10
-215.3046275132
 20
57.1133883173
  0
VERTEX
  8
0
 62
7
  6
CONTINUOUS
 10
-215.3732437205
 20
56.7490522755
  0
VERTEX
  8
0
 62
7
  6
CONTINUOUS
 10
-215.4289507345
 20
56.3886968093
  0
VERTEX
  8
0
 62
7
  6
CONTINUOUS
 10
-215.4718716559
 20
56.0316591118
  0
VERTEX
  8
0
 62
7
  6
CONTINUOUS
 10
-215.5023833673
 20
55.6772562221
  0
VERTEX
  8
0
 62
7
  6
CONTINUOUS
 10
-215.5205362306
 20
55.3248467723
  0
VERTEX
  8
0
 62
7
  6
CONTINUOUS
 10
-215.5266354924
 20
54.9741178291
  0
VERTEX
  8
0
 62
7
  6
CONTINUOUS
 10
-215.520543415
 20
54.6234011276
  0
VERTEX
  8
0
 62
7
  6
CONTINUOUS
 10
-215.5024028143
 20
54.271043152
  0
VERTEX
  8
0
 62
7
  6
CONTINUOUS
 10
-215.4719033162
 20
53.9166867208
  0
VERTEX
  8
0
 62
7
  6
CONTINUOUS
 10
-215.4289884358
 20
53.5596293229
  0
VERTEX
  8
0
 62
7
  6
CONTINUOUS
 10
-215.3732894733
 20
53.1992534321
  0
VERTEX
  8
0
 62
7
  6
CONTINUOUS
 10
-215.304692533
 20
52.8349604027
  0
VERTEX
  8
0
 62
7
  6
CONTINUOUS
 10
-215.2226935503
 20
52.4659910825
  0
VERTEX
  8
0
 62
7
  6
CONTINUOUS
 10
-215.12694295
 20
52.0911951316
  0
VERTEX
  8
0
 62
7
  6
CONTINUOUS
 10
-215.017305147
 20
51.7111474677
  0
VERTEX
  8
0
 62
7
  6
CONTINUOUS
 10
-214.8937479637
 20
51.3260039834
  0
VERTEX
  8
0
 62
7
  6
CONTINUOUS
 10
-214.7561696259
 20
50.9358714154
  0
VERTEX
  8
0
 62
7
  6
CONTINUOUS
 10
-214.6044683941
 20
50.5403763373
  0
VERTEX
  8
0
 62
7
  6
CONTINUOUS
 10
-214.4393536839
 20
50.1411151309
  0
VERTEX
  8
0
 62
7
  6
CONTINUOUS
 10
-214.2608063943
 20
49.7380247382
  0
VERTEX
  8
0
 62
7
  6
CONTINUOUS
 10
-214.0716884649
 20
49.3357100526
  0
VERTEX
  8
0
 62
7
  6
CONTINUOUS
 10
-213.8739817399
 20
48.9378920734
  0
VERTEX
  8
0
 62
7
  6
CONTINUOUS
 10
-213.6703751076
 20
48.5471594251
  0
VERTEX
  8
0
 62
7
  6
CONTINUOUS
 10
-213.4634065285
 20
48.1669701237
  0
VERTEX
  8
0
 62
7
  6
CONTINUOUS
 10
-213.2550857786
 20
47.7984369949
  0
VERTEX
  8
0
 62
7
  6
CONTINUOUS
 10
-213.0472911718
 20
47.4432407858
  0
VERTEX
  8
0
 62
7
  6
CONTINUOUS
 10
-212.8424183137
 20
47.1031357489
  0
VERTEX
  8
0
 62
7
  6
CONTINUOUS
 10
-212.6425932812
 20
46.7802481629
  0
VERTEX
  8
0
 62
7
  6
CONTINUOUS
 10
-212.4494090567
 20
46.4751426954
  0
VERTEX
  8
0
 62
7
  6
CONTINUOUS
 10
-212.2645863774
 20
46.1892539727
  0
VERTEX
  8
0
 62
7
  6
CONTINUOUS
 10
-212.0887260826
 20
45.9220983968
  0
VERTEX
  8
0
 62
7
  6
CONTINUOUS
 10
-211.9226034155
 20
45.6737424477
  0
VERTEX
  8
0
 62
7
  6
CONTINUOUS
 10
-211.7667487954
 20
45.4439705178
  0
VERTEX
  8
0
 62
7
  6
CONTINUOUS
 10
-211.6217451282
 20
45.2328091798
  0
VERTEX
  8
0
 62
7
  6
CONTINUOUS
 10
-211.4875885406
 20
45.0395983723
  0
VERTEX
  8
0
 62
7
  6
CONTINUOUS
 10
-211.2521781254
 20
44.7050747367
  0
SEQEND
  0
LINE
  8
0
 62
7
  6
CONTINUOUS
 10
-211.2522688319
 20
65.2428363008
 11
-211.4876777676
 21
64.9083126302
  0
LINE
  8
0
 62
7
  6
CONTINUOUS
 10
-211.0609363755
 20
65.5107772061
 11
-211.2522688319
 21
65.2428363008
  0
LINE
  8
0
 62
7
  6
CONTINUOUS
 10
-210.8552685412
 20
65.7952035344
 11
-211.0609363755
 21
65.5107772061
  0
LINE
  8
0
 62
7
  6
CONTINUOUS
 10
-210.729806704
 20
65.966980463
 11
-210.8552685412
 21
65.7952035344
  0
LINE
  8
0
 62
7
  6
CONTINUOUS
 10
-210.724607958
 20
65.9740194371
 11
-210.729806704
 21
65.966980463
  0
LINE
  8
0
 62
7
  6
CONTINUOUS
 10
-210.7298063159
 20
237.9810588043
 11
-210.724607958
 21
237.9740194371
  0
LINE
  8
0
 62
7
  6
CONTINUOUS
 10
-210.9129710742
 20
238.2322976393
 11
-210.7298063159
 21
237.9810588043
  0
LINE
  8
0
 62
7
  6
CONTINUOUS
 10
-211.0608774399
 20
238.4371796495
 11
-210.9129710742
 21
238.2322976393
  0
LINE
  8
0
 62
7
  6
CONTINUOUS
 10
-211.2521781254
 20
238.7050747367
 11
-211.0608774399
 21
238.4371796495
  0
LINE
  8
0
 62
7
  6
CONTINUOUS
 10
-210.724607958
 20
-103.0259805629
 11
-240.724607958
 21
-103.0259805629
  0
LINE
  8
0
 62
7
  6
CONTINUOUS
 10
579.275392042
 20
-103.0259805629
 11
609.275392042
 21
-103.0259805629
  0
POLYLINE
  8
0
 62
7
  6
CONTINUOUS
 66
1
 70
0
  0
VERTEX
  8
0
 62
7
  6
CONTINUOUS
 10
-211.4876777676
 20
-32.0916873698
  0
VERTEX
  8
0
 62
7
  6
CONTINUOUS
 10
-211.6218368436
 20
-32.2849033825
  0
VERTEX
  8
0
 62
7
  6
CONTINUOUS
 10
-211.7668439433
 20
-32.4960709993
  0
VERTEX
  8
0
 62
7
  6
CONTINUOUS
 10
-211.9227013466
 20
-32.7258492331
  0
VERTEX
  8
0
 62
7
  6
CONTINUOUS
 10
-212.088824316
 20
-32.9742075027
  0
VERTEX
  8
0
 62
7
  6
CONTINUOUS
 10
-212.2646784159
 20
-33.2413559217
  0
VERTEX
  8
0
 62
7
  6
CONTINUOUS
 10
-212.4494907457
 20
-33.5272314196
  0
VERTEX
  8
0
 62
7
  6
CONTINUOUS
 10
-212.642655641
 20
-33.8323063282
  0
VERTEX
  8
0
 62
7
  6
CONTINUOUS
 10
-212.8424718842
 20
-34.1551845534
  0
VERTEX
  8
0
 62
7
  6
CONTINUOUS
 10
-213.0473853956
 20
-34.4953658667
  0
VERTEX
  8
0
 62
7
  6
CONTINUOUS
 10
-213.2552220905
 20
-34.8506350023
  0
VERTEX
  8
0
 62
7
  6
CONTINUOUS
 10
-213.4635329222
 20
-35.2191576643
  0
VERTEX
  8
0
 62
7
  6
CONTINUOUS
 10
-213.6704658315
 20
-35.5992907147
  0
VERTEX
  8
0
 62
7
  6
CONTINUOUS
 10
-213.8740154048
 20
-35.9899150627
  0
VERTEX
  8
0
 62
7
  6
CONTINUOUS
 10
-214.0716657687
 20
-36.3876242715
  0
VERTEX
  8
0
 62
7
  6
CONTINUOUS
 10
-214.2607646191
 20
-36.7898975457
  0
VERTEX
  8
0
 62
7
  6
CONTINUOUS
 10
-214.4393034127
 20
-37.1929588704
  0
VERTEX
  8
0
 62
7
  6
CONTINUOUS
 10
-214.6043997833
 20
-37.592164763
  0
VERTEX
  8
0
 62
7
  6
CONTINUOUS
 10
-214.7560828443
 20
-37.9875968305
  0
VERTEX
  8
0
 62
7
  6
CONTINUOUS
 10
-214.8936446685
 20
-38.3776554267
  0
VERTEX
  8
0
 62
7
  6
CONTINUOUS
 10
-215.017193071
 20
-38.7627408288
  0
VERTEX
  8
0
 62
7
  6
CONTINUOUS
 10
-215.126839868
 20
-39.1427788765
  0
VERTEX
  8
0
 62
7
  6
CONTINUOUS
 10
-215.222607816
 20
-39.5175932355
  0
VERTEX
  8
0
 62
7
  6
CONTINUOUS
 10
-215.3046275132
 20
-39.8866116827
  0
VERTEX
  8
0
 62
7
  6
CONTINUOUS
 10
-215.3732437205
 20
-40.2509477245
  0
VERTEX
  8
0
 62
7
  6
CONTINUOUS
 10
-215.4289507345
 20
-40.6113031907
  0
VERTEX
  8
0
 62
7
  6
CONTINUOUS
 10
-215.4718716559
 20
-40.9683408882
  0
VERTEX
  8
0
 62
7
  6
CONTINUOUS
 10
-215.5023833673
 20
-41.3227437779
  0
VERTEX
  8
0
 62
7
  6
CONTINUOUS
 10
-215.5205362306
 20
-41.6751532277
  0
VERTEX
  8
0
 62
7
  6
CONTINUOUS
 10
-215.5266354924
 20
-42.0258821709
  0
VERTEX
  8
0
 62
7
  6
CONTINUOUS
 10
-215.520543415
 20
-42.3765988724
  0
VERTEX
  8
0
 62
7
  6
CONTINUOUS
 10
-215.5024028143
 20
-42.728956848
  0
VERTEX
  8
0
 62
7
  6
CONTINUOUS
 10
-215.4719033162
 20
-43.0833132792
  0
VERTEX
  8
0
 62
7
  6
CONTINUOUS
 10
-215.4289884358
 20
-43.4403706771
  0
VERTEX
  8
0
 62
7
  6
CONTINUOUS
 10
-215.3732894733
 20
-43.8007465679
  0
VERTEX
  8
0
 62
7
  6
CONTINUOUS
 10
-215.304692533
 20
-44.1650395973
  0
VERTEX
  8
0
 62
7
  6
CONTINUOUS
 10
-215.2226935503
 20
-44.5340089175
  0
VERTEX
  8
0
 62
7
  6
CONTINUOUS
 10
-215.12694295
 20
-44.9088048684
  0
VERTEX
  8
0
 62
7
  6
CONTINUOUS
 10
-215.017305147
 20
-45.2888525323
  0
VERTEX
  8
0
 62
7
  6
CONTINUOUS
 10
-214.8937479637
 20
-45.6739960166
  0
VERTEX
  8
0
 62
7
  6
CONTINUOUS
 10
-214.7561696259
 20
-46.0641285846
  0
VERTEX
  8
0
 62
7
  6
CONTINUOUS
 10
-214.6044683941
 20
-46.4596236627
  0
VERTEX
  8
0
 62
7
  6
CONTINUOUS
 10
-214.4393536839
 20
-46.8588848691
  0
VERTEX
  8
0
 62
7
  6
CONTINUOUS
 10
-214.2608063943
 20
-47.2619752618
  0
VERTEX
  8
0
 62
7
  6
CONTINUOUS
 10
-214.0716884649
 20
-47.6642899474
  0
VERTEX
  8
0
 62
7
  6
CONTINUOUS
 10
-213.8739817399
 20
-48.0621079266
  0
VERTEX
  8
0
 62
7
  6
CONTINUOUS
 10
-213.6703751076
 20
-48.4528405749
  0
VERTEX
  8
0
 62
7
  6
CONTINUOUS
 10
-213.4634065285
 20
-48.8330298763
  0
VERTEX
  8
0
 62
7
  6
CONTINUOUS
 10
-213.2550857786
 20
-49.2015630051
  0
VERTEX
  8
0
 62
7
  6
CONTINUOUS
 10
-213.0472911718
 20
-49.5567592142
  0
VERTEX
  8
0
 62
7
  6
CONTINUOUS
 10
-212.8424183137
 20
-49.8968642511
  0
VERTEX
  8
0
 62
7
  6
CONTINUOUS
 10
-212.6425932812
 20
-50.2197518371
  0
VERTEX
  8
0
 62
7
  6
CONTINUOUS
 10
-212.4494090567
 20
-50.5248573046
  0
VERTEX
  8
0
 62
7
  6
CONTINUOUS
 10
-212.2645863774
 20
-50.8107460273
  0
VERTEX
  8
0
 62
7
  6
CONTINUOUS
 10
-212.0887260826
 20
-51.0779016032
  0
VERTEX
  8
0
 62
7
  6
CONTINUOUS
 10
-211.9226034155
 20
-51.3262575523
  0
VERTEX
  8
0
 62
7
  6
CONTINUOUS
 10
-211.7667487954
 20
-51.5560294822
  0
VERTEX
  8
0
 62
7
  6
CONTINUOUS
 10
-211.6217451282
 20
-51.7671908202
  0
VERTEX
  8
0
 62
7
  6
CONTINUOUS
 10
-211.4875885406
 20
-51.9604016277
  0
VERTEX
  8
0
 62
7
  6
CONTINUOUS
 10
-211.2521781254
 20
-52.2949252633
  0
SEQEND
  0
LINE
  8
0
 62
7
  6
CONTINUOUS
 10
-211.2522688319
 20
-31.7571636992
 11
-211.4876777676
 21
-32.0916873698
  0
LINE
  8
0
 62
7
  6
CONTINUOUS
 10
-211.0609363755
 20
-31.4892227939
 11
-211.2522688319
 21
-31.7571636992
  0
LINE
  8
0
 62
7
  6
CONTINUOUS
 10
-210.8552685412
 20
-31.2047964656
 11
-211.0609363755
 21
-31.4892227939
  0
LINE
  8
0
 62
7
  6
CONTINUOUS
 10
-210.729806704
 20
-31.033019537
 11
-210.8552685412
 21
-31.2047964656
  0
LINE
  8
0
 62
7
  6
CONTINUOUS
 10
-210.724607958
 20
-31.0259805629
 11
-210.729806704
 21
-31.033019537
  0
LINE
  8
0
 62
7
  6
CONTINUOUS
 10
-210.724607958
 20
-53.0259805629
 11
579.275392042
 21
-53.0259805629
  0
LINE
  8
0
 62
7
  6
CONTINUOUS
 10
-210.7298063159
 20
334.9810588043
 11
-210.724607958
 21
334.9740194371
  0
LINE
  8
0
 62
7
  6
CONTINUOUS
 10
-210.9129710742
 20
335.2322976393
 11
-210.7298063159
 21
334.9810588043
  0
LINE
  8
0
 62
7
  6
CONTINUOUS
 10
-211.0608774399
 20
335.4371796495
 11
-210.9129710742
 21
335.2322976393
  0
LINE
  8
0
 62
7
  6
CONTINUOUS
 10
-211.2521781254
 20
335.7050747367
 11
-211.0608774399
 21
335.4371796495
  0
LINE
  8
0
 62
7
  6
CONTINUOUS
 10
579.275392042
 20
-31.0259805629
 11
-210.724607958
 21
-31.0259805629
  0
LINE
  8
0
 62
7
  6
CONTINUOUS
 10
-210.724607958
 20
43.9740194371
 11
579.275392042
 21
43.9740194371
  0
LINE
  8
0
 62
7
  6
CONTINUOUS
 10
579.275392042
 20
65.9740194371
 11
-210.724607958
 21
65.9740194371
  0
LINE
  8
0
 62
7
  6
CONTINUOUS
 10
-210.724607958
 20
140.9740194371
 11
579.275392042
 21
140.9740194371
  0
LINE
  8
0
 62
7
  6
CONTINUOUS
 10
579.275392042
 20
162.9740194371
 11
-210.724607958
 21
162.9740194371
  0
LINE
  8
0
 62
7
  6
CONTINUOUS
 10
-210.724607958
 20
237.9740194371
 11
579.275392042
 21
237.9740194371
  0
LINE
  8
0
 62
7
  6
CONTINUOUS
 10
579.275392042
 20
259.9740194371
 11
-210.724607958
 21
259.9740194371
  0
LINE
  8
0
 62
7
  6
CONTINUOUS
 10
-210.724607958
 20
334.9740194371
 11
579.275392042
 21
334.9740194371
  0
LINE
  8
0
 62
7
  6
CONTINUOUS
 10
580.0383726245
 20
336.0395983723
 11
579.8029622093
 21
335.7050747367
  0
LINE
  8
0
 62
7
  6
CONTINUOUS
 10
579.8029622093
 20
335.7050747367
 11
579.6116615238
 21
335.4371796495
  0
LINE
  8
0
 62
7
  6
CONTINUOUS
 10
579.6116615238
 20
335.4371796495
 11
579.4060274614
 21
335.152801232
  0
LINE
  8
0
 62
7
  6
CONTINUOUS
 10
579.4060274614
 20
335.152801232
 11
579.2805903999
 21
334.9810588043
  0
LINE
  8
0
 62
7
  6
CONTINUOUS
 10
579.2805903999
 20
334.9810588043
 11
579.275392042
 21
334.9740194371
  0
LINE
  8
0
 62
7
  6
CONTINUOUS
 10
579.275392042
 20
356.9740194371
 11
-210.724607958
 21
356.9740194371
  0
LINE
  8
0
 62
7
  6
CONTINUOUS
 10
579.275392042
 20
-31.0259805629
 11
579.2805907879
 21
-31.033019537
  0
LINE
  8
0
 62
7
  6
CONTINUOUS
 10
579.2805907879
 20
-31.033019537
 11
579.4637892142
 21
-31.2843057248
  0
LINE
  8
0
 62
7
  6
CONTINUOUS
 10
579.4637892142
 20
-31.2843057248
 11
579.6117204594
 21
-31.4892227939
  0
LINE
  8
0
 62
7
  6
CONTINUOUS
 10
579.6117204594
 20
-31.4892227939
 11
579.8030529158
 21
-31.7571636992
  0
POLYLINE
  8
0
 62
7
  6
CONTINUOUS
 66
1
 70
0
  0
VERTEX
  8
0
 62
7
  6
CONTINUOUS
 10
579.8030529158
 20
-31.7571636992
  0
VERTEX
  8
0
 62
7
  6
CONTINUOUS
 10
580.0384618515
 20
-32.0916873698
  0
VERTEX
  8
0
 62
7
  6
CONTINUOUS
 10
580.1726209275
 20
-32.2849033825
  0
VERTEX
  8
0
 62
7
  6
CONTINUOUS
 10
580.3176280273
 20
-32.4960709993
  0
VERTEX
  8
0
 62
7
  6
CONTINUOUS
 10
580.4734854305
 20
-32.7258492331
  0
VERTEX
  8
0
 62
7
  6
CONTINUOUS
 10
580.6396083999
 20
-32.9742075027
  0
VERTEX
  8
0
 62
7
  6
CONTINUOUS
 10
580.8154624998
 20
-33.2413559217
  0
VERTEX
  8
0
 62
7
  6
CONTINUOUS
 10
581.0002748296
 20
-33.5272314196
  0
VERTEX
  8
0
 62
7
  6
CONTINUOUS
 10
581.1934397249
 20
-33.8323063282
  0
VERTEX
  8
0
 62
7
  6
CONTINUOUS
 10
581.3932559681
 20
-34.1551845534
  0
VERTEX
  8
0
 62
7
  6
CONTINUOUS
 10
581.5981694795
 20
-34.4953658667
  0
VERTEX
  8
0
 62
7
  6
CONTINUOUS
 10
581.8060061744
 20
-34.8506350023
  0
VERTEX
  8
0
 62
7
  6
CONTINUOUS
 10
582.0143170061
 20
-35.2191576643
  0
VERTEX
  8
0
 62
7
  6
CONTINUOUS
 10
582.2212499155
 20
-35.5992907147
  0
VERTEX
  8
0
 62
7
  6
CONTINUOUS
 10
582.4247994887
 20
-35.9899150627
  0
VERTEX
  8
0
 62
7
  6
CONTINUOUS
 10
582.6224498526
 20
-36.3876242715
  0
VERTEX
  8
0
 62
7
  6
CONTINUOUS
 10
582.811548703
 20
-36.7898975457
  0
VERTEX
  8
0
 62
7
  6
CONTINUOUS
 10
582.9900874966
 20
-37.1929588704
  0
VERTEX
  8
0
 62
7
  6
CONTINUOUS
 10
583.1551838672
 20
-37.592164763
  0
VERTEX
  8
0
 62
7
  6
CONTINUOUS
 10
583.3068669282
 20
-37.9875968305
  0
VERTEX
  8
0
 62
7
  6
CONTINUOUS
 10
583.4444287524
 20
-38.3776554267
  0
VERTEX
  8
0
 62
7
  6
CONTINUOUS
 10
583.5679771549
 20
-38.7627408288
  0
VERTEX
  8
0
 62
7
  6
CONTINUOUS
 10
583.6776239519
 20
-39.1427788765
  0
VERTEX
  8
0
 62
7
  6
CONTINUOUS
 10
583.7733918999
 20
-39.5175932355
  0
VERTEX
  8
0
 62
7
  6
CONTINUOUS
 10
583.8554115971
 20
-39.8866116827
  0
VERTEX
  8
0
 62
7
  6
CONTINUOUS
 10
583.9240278044
 20
-40.2509477245
  0
VERTEX
  8
0
 62
7
  6
CONTINUOUS
 10
583.9797348184
 20
-40.6113031907
  0
VERTEX
  8
0
 62
7
  6
CONTINUOUS
 10
584.0226557398
 20
-40.9683408882
  0
VERTEX
  8
0
 62
7
  6
CONTINUOUS
 10
584.0531674512
 20
-41.3227437779
  0
VERTEX
  8
0
 62
7
  6
CONTINUOUS
 10
584.0713203145
 20
-41.6751532277
  0
VERTEX
  8
0
 62
7
  6
CONTINUOUS
 10
584.0774195763
 20
-42.0258821709
  0
VERTEX
  8
0
 62
7
  6
CONTINUOUS
 10
584.0713274989
 20
-42.3765988724
  0
VERTEX
  8
0
 62
7
  6
CONTINUOUS
 10
584.0531868982
 20
-42.728956848
  0
VERTEX
  8
0
 62
7
  6
CONTINUOUS
 10
584.0226874001
 20
-43.0833132792
  0
VERTEX
  8
0
 62
7
  6
CONTINUOUS
 10
583.9797725197
 20
-43.4403706771
  0
VERTEX
  8
0
 62
7
  6
CONTINUOUS
 10
583.9240735572
 20
-43.8007465679
  0
VERTEX
  8
0
 62
7
  6
CONTINUOUS
 10
583.8554766169
 20
-44.1650395973
  0
VERTEX
  8
0
 62
7
  6
CONTINUOUS
 10
583.7734776342
 20
-44.5340089175
  0
VERTEX
  8
0
 62
7
  6
CONTINUOUS
 10
583.6777270339
 20
-44.9088048684
  0
VERTEX
  8
0
 62
7
  6
CONTINUOUS
 10
583.5680892309
 20
-45.2888525323
  0
VERTEX
  8
0
 62
7
  6
CONTINUOUS
 10
583.4445320476
 20
-45.6739960166
  0
VERTEX
  8
0
 62
7
  6
CONTINUOUS
 10
583.3069537098
 20
-46.0641285846
  0
VERTEX
  8
0
 62
7
  6
CONTINUOUS
 10
583.155252478
 20
-46.4596236627
  0
VERTEX
  8
0
 62
7
  6
CONTINUOUS
 10
582.9901377678
 20
-46.8588848691
  0
VERTEX
  8
0
 62
7
  6
CONTINUOUS
 10
582.8115904782
 20
-47.2619752618
  0
VERTEX
  8
0
 62
7
  6
CONTINUOUS
 10
582.6224725488
 20
-47.6642899474
  0
VERTEX
  8
0
 62
7
  6
CONTINUOUS
 10
582.4247658238
 20
-48.0621079266
  0
VERTEX
  8
0
 62
7
  6
CONTINUOUS
 10
582.2211591915
 20
-48.4528405749
  0
VERTEX
  8
0
 62
7
  6
CONTINUOUS
 10
582.0141906124
 20
-48.8330298763
  0
VERTEX
  8
0
 62
7
  6
CONTINUOUS
 10
581.8058698625
 20
-49.2015630051
  0
VERTEX
  8
0
 62
7
  6
CONTINUOUS
 10
581.5980752557
 20
-49.5567592142
  0
VERTEX
  8
0
 62
7
  6
CONTINUOUS
 10
581.3932023976
 20
-49.8968642511
  0
VERTEX
  8
0
 62
7
  6
CONTINUOUS
 10
581.1933773651
 20
-50.2197518371
  0
VERTEX
  8
0
 62
7
  6
CONTINUOUS
 10
581.0001931406
 20
-50.5248573046
  0
VERTEX
  8
0
 62
7
  6
CONTINUOUS
 10
580.8153704613
 20
-50.8107460273
  0
VERTEX
  8
0
 62
7
  6
CONTINUOUS
 10
580.6395101665
 20
-51.0779016032
  0
VERTEX
  8
0
 62
7
  6
CONTINUOUS
 10
580.4733874994
 20
-51.3262575523
  0
VERTEX
  8
0
 62
7
  6
CONTINUOUS
 10
580.3175328793
 20
-51.5560294822
  0
VERTEX
  8
0
 62
7
  6
CONTINUOUS
 10
580.1725292121
 20
-51.7671908202
  0
VERTEX
  8
0
 62
7
  6
CONTINUOUS
 10
580.0383726245
 20
-51.9604016277
  0
SEQEND
  0
LINE
  8
0
 62
7
  6
CONTINUOUS
 10
579.4060274614
 20
238.152801232
 11
579.2805903999
 21
237.9810588043
  0
LINE
  8
0
 62
7
  6
CONTINUOUS
 10
579.2805903999
 20
237.9810588043
 11
579.275392042
 21
237.9740194371
  0
LINE
  8
0
 62
7
  6
CONTINUOUS
 10
-210.724607958
 20
406.9740194371
 11
-240.724607958
 21
406.9740194371
  0
LINE
  8
0
 62
7
  6
CONTINUOUS
 10
579.275392042
 20
406.9740194371
 11
609.275392042
 21
406.9740194371
  0
LINE
  8
0
 62
7
  6
CONTINUOUS
 10
579.275392042
 20
65.9740194371
 11
579.2805907879
 21
65.966980463
  0
LINE
  8
0
 62
7
  6
CONTINUOUS
 10
579.2805907879
 20
65.966980463
 11
579.4060526251
 21
65.7952035344
  0
LINE
  8
0
 62
7
  6
CONTINUOUS
 10
580.0383726245
 20
239.0395983723
 11
579.8029622093
 21
238.7050747367
  0
LINE
  8
0
 62
7
  6
CONTINUOUS
 10
579.8029622093
 20
238.7050747367
 11
579.6116615238
 21
238.4371796495
  0
LINE
  8
0
 62
7
  6
CONTINUOUS
 10
579.6116615238
 20
238.4371796495
 11
579.4060274614
 21
238.152801232
  0
LINE
  8
0
 62
7
  6
CONTINUOUS
 10
579.4060526251
 20
65.7952035344
 11
579.6117204594
 21
65.5107772061
  0
LINE
  8
0
 62
7
  6
CONTINUOUS
 10
579.6117204594
 20
65.5107772061
 11
579.8030529158
 21
65.2428363008
  0
POLYLINE
  8
0
 62
7
  6
CONTINUOUS
 66
1
 70
0
  0
VERTEX
  8
0
 62
7
  6
CONTINUOUS
 10
579.8030529158
 20
65.2428363008
  0
VERTEX
  8
0
 62
7
  6
CONTINUOUS
 10
580.0384618515
 20
64.9083126302
  0
VERTEX
  8
0
 62
7
  6
CONTINUOUS
 10
580.1726209275
 20
64.7150966175
  0
VERTEX
  8
0
 62
7
  6
CONTINUOUS
 10
580.3176280273
 20
64.5039290007
  0
VERTEX
  8
0
 62
7
  6
CONTINUOUS
 10
580.4734854305
 20
64.2741507669
  0
VERTEX
  8
0
 62
7
  6
CONTINUOUS
 10
580.6396083999
 20
64.0257924973
  0
VERTEX
  8
0
 62
7
  6
CONTINUOUS
 10
580.8154624998
 20
63.7586440783
  0
VERTEX
  8
0
 62
7
  6
CONTINUOUS
 10
581.0002748296
 20
63.4727685804
  0
VERTEX
  8
0
 62
7
  6
CONTINUOUS
 10
581.1934397249
 20
63.1676936718
  0
VERTEX
  8
0
 62
7
  6
CONTINUOUS
 10
581.3932559681
 20
62.8448154466
  0
VERTEX
  8
0
 62
7
  6
CONTINUOUS
 10
581.5981694795
 20
62.5046341333
  0
VERTEX
  8
0
 62
7
  6
CONTINUOUS
 10
581.8060061744
 20
62.1493649977
  0
VERTEX
  8
0
 62
7
  6
CONTINUOUS
 10
582.0143170061
 20
61.7808423357
  0
VERTEX
  8
0
 62
7
  6
CONTINUOUS
 10
582.2212499155
 20
61.4007092853
  0
VERTEX
  8
0
 62
7
  6
CONTINUOUS
 10
582.4247994887
 20
61.0100849373
  0
VERTEX
  8
0
 62
7
  6
CONTINUOUS
 10
582.6224498526
 20
60.6123757285
  0
VERTEX
  8
0
 62
7
  6
CONTINUOUS
 10
582.811548703
 20
60.2101024543
  0
VERTEX
  8
0
 62
7
  6
CONTINUOUS
 10
582.9900874966
 20
59.8070411296
  0
VERTEX
  8
0
 62
7
  6
CONTINUOUS
 10
583.1551838672
 20
59.407835237
  0
VERTEX
  8
0
 62
7
  6
CONTINUOUS
 10
583.3068669282
 20
59.0124031695
  0
VERTEX
  8
0
 62
7
  6
CONTINUOUS
 10
583.4444287524
 20
58.6223445733
  0
VERTEX
  8
0
 62
7
  6
CONTINUOUS
 10
583.5679771549
 20
58.2372591712
  0
VERTEX
  8
0
 62
7
  6
CONTINUOUS
 10
583.6776239519
 20
57.8572211235
  0
VERTEX
  8
0
 62
7
  6
CONTINUOUS
 10
583.7733918999
 20
57.4824067645
  0
VERTEX
  8
0
 62
7
  6
CONTINUOUS
 10
583.8554115971
 20
57.1133883173
  0
VERTEX
  8
0
 62
7
  6
CONTINUOUS
 10
583.9240278044
 20
56.7490522755
  0
VERTEX
  8
0
 62
7
  6
CONTINUOUS
 10
583.9797348184
 20
56.3886968093
  0
VERTEX
  8
0
 62
7
  6
CONTINUOUS
 10
584.0226557398
 20
56.0316591118
  0
VERTEX
  8
0
 62
7
  6
CONTINUOUS
 10
584.0531674512
 20
55.6772562221
  0
VERTEX
  8
0
 62
7
  6
CONTINUOUS
 10
584.0713203145
 20
55.3248467723
  0
VERTEX
  8
0
 62
7
  6
CONTINUOUS
 10
584.0774195763
 20
54.9741178291
  0
VERTEX
  8
0
 62
7
  6
CONTINUOUS
 10
584.0713274989
 20
54.6234011276
  0
VERTEX
  8
0
 62
7
  6
CONTINUOUS
 10
584.0531868982
 20
54.271043152
  0
VERTEX
  8
0
 62
7
  6
CONTINUOUS
 10
584.0226874001
 20
53.9166867208
  0
VERTEX
  8
0
 62
7
  6
CONTINUOUS
 10
583.9797725197
 20
53.5596293229
  0
VERTEX
  8
0
 62
7
  6
CONTINUOUS
 10
583.9240735572
 20
53.1992534321
  0
VERTEX
  8
0
 62
7
  6
CONTINUOUS
 10
583.8554766169
 20
52.8349604027
  0
VERTEX
  8
0
 62
7
  6
CONTINUOUS
 10
583.7734776342
 20
52.4659910825
  0
VERTEX
  8
0
 62
7
  6
CONTINUOUS
 10
583.6777270339
 20
52.0911951316
  0
VERTEX
  8
0
 62
7
  6
CONTINUOUS
 10
583.5680892309
 20
51.7111474677
  0
VERTEX
  8
0
 62
7
  6
CONTINUOUS
 10
583.4445320476
 20
51.3260039834
  0
VERTEX
  8
0
 62
7
  6
CONTINUOUS
 10
583.3069537098
 20
50.9358714154
  0
VERTEX
  8
0
 62
7
  6
CONTINUOUS
 10
583.155252478
 20
50.5403763373
  0
VERTEX
  8
0
 62
7
  6
CONTINUOUS
 10
582.9901377678
 20
50.1411151309
  0
VERTEX
  8
0
 62
7
  6
CONTINUOUS
 10
582.8115904782
 20
49.7380247382
  0
VERTEX
  8
0
 62
7
  6
CONTINUOUS
 10
582.6224725488
 20
49.3357100526
  0
VERTEX
  8
0
 62
7
  6
CONTINUOUS
 10
582.4247658238
 20
48.9378920734
  0
VERTEX
  8
0
 62
7
  6
CONTINUOUS
 10
582.2211591915
 20
48.5471594251
  0
VERTEX
  8
0
 62
7
  6
CONTINUOUS
 10
582.0141906124
 20
48.1669701237
  0
VERTEX
  8
0
 62
7
  6
CONTINUOUS
 10
581.8058698625
 20
47.7984369949
  0
VERTEX
  8
0
 62
7
  6
CONTINUOUS
 10
581.5980752557
 20
47.4432407858
  0
VERTEX
  8
0
 62
7
  6
CONTINUOUS
 10
581.3932023976
 20
47.1031357489
  0
VERTEX
  8
0
 62
7
  6
CONTINUOUS
 10
581.1933773651
 20
46.7802481629
  0
VERTEX
  8
0
 62
7
  6
CONTINUOUS
 10
581.0001931406
 20
46.4751426954
  0
VERTEX
  8
0
 62
7
  6
CONTINUOUS
 10
580.8153704613
 20
46.1892539727
  0
VERTEX
  8
0
 62
7
  6
CONTINUOUS
 10
580.6395101665
 20
45.9220983968
  0
VERTEX
  8
0
 62
7
  6
CONTINUOUS
 10
580.4733874994
 20
45.6737424477
  0
VERTEX
  8
0
 62
7
  6
CONTINUOUS
 10
580.3175328793
 20
45.4439705178
  0
VERTEX
  8
0
 62
7
  6
CONTINUOUS
 10
580.1725292121
 20
45.2328091798
  0
VERTEX
  8
0
 62
7
  6
CONTINUOUS
 10
580.0383726245
 20
45.0395983723
  0
SEQEND
  0
LINE
  8
0
 62
7
  6
CONTINUOUS
 10
580.0383720877
 20
142.039597603
 11
579.8029618392
 21
141.705074215
  0
LINE
  8
0
 62
7
  6
CONTINUOUS
 10
579.8029618392
 20
141.705074215
 11
579.6116612889
 21
141.4371793226
  0
LINE
  8
0
 62
7
  6
CONTINUOUS
 10
579.6116612889
 20
141.4371793226
 11
579.4060273705
 21
141.1528011072
  0
LINE
  8
0
 62
7
  6
CONTINUOUS
 10
579.4060273705
 20
141.1528011072
 11
579.2805903962
 21
140.9810587993
  0
LINE
  8
0
 62
7
  6
CONTINUOUS
 10
579.2805903962
 20
140.9810587993
 11
579.275392042
 21
140.9740194371
  0
LINE
  8
0
 62
7
  6
CONTINUOUS
 10
579.275392042
 20
162.9740194371
 11
579.2805907843
 21
162.9669804678
  0
LINE
  8
0
 62
7
  6
CONTINUOUS
 10
579.2805907843
 20
162.9669804678
 11
579.4637890825
 21
162.7156944567
  0
LINE
  8
0
 62
7
  6
CONTINUOUS
 10
579.4637890825
 20
162.7156944567
 11
579.6117202236
 21
162.5107775342
  0
LINE
  8
0
 62
7
  6
CONTINUOUS
 10
579.6117202236
 20
162.5107775342
 11
579.8030525462
 21
162.2428368218
  0
POLYLINE
  8
0
 62
7
  6
CONTINUOUS
 66
1
 70
0
  0
VERTEX
  8
0
 62
7
  6
CONTINUOUS
 10
579.8030525462
 20
162.2428368218
  0
VERTEX
  8
0
 62
7
  6
CONTINUOUS
 10
580.0384613164
 20
161.9083133972
  0
VERTEX
  8
0
 62
7
  6
CONTINUOUS
 10
580.1726202968
 20
161.7150975307
  0
VERTEX
  8
0
 62
7
  6
CONTINUOUS
 10
580.3176272934
 20
161.5039300755
  0
VERTEX
  8
0
 62
7
  6
CONTINUOUS
 10
580.4734845864
 20
161.27415202
  0
VERTEX
  8
0
 62
7
  6
CONTINUOUS
 10
580.6396074419
 20
161.0257939404
  0
VERTEX
  8
0
 62
7
  6
CONTINUOUS
 10
580.8154614288
 20
160.7586457193
  0
VERTEX
  8
0
 62
7
  6
CONTINUOUS
 10
581.0002736478
 20
160.4727704264
  0
VERTEX
  8
0
 62
7
  6
CONTINUOUS
 10
581.1934384387
 20
160.1676957247
  0
VERTEX
  8
0
 62
7
  6
CONTINUOUS
 10
581.3932545815
 20
159.8448177162
  0
VERTEX
  8
0
 62
7
  6
CONTINUOUS
 10
581.5981679948
 20
159.504636632
  0
VERTEX
  8
0
 62
7
  6
CONTINUOUS
 10
581.8060045921
 20
159.1493677475
  0
VERTEX
  8
0
 62
7
  6
CONTINUOUS
 10
582.0143153129
 20
158.7808453896
  0
VERTEX
  8
0
 62
7
  6
CONTINUOUS
 10
582.2212481296
 20
158.4007126349
  0
VERTEX
  8
0
 62
7
  6
CONTINUOUS
 10
582.4247977531
 20
158.0100882965
  0
VERTEX
  8
0
 62
7
  6
CONTINUOUS
 10
582.6224480314
 20
157.6123794923
  0
VERTEX
  8
0
 62
7
  6
CONTINUOUS
 10
582.8115462321
 20
157.2101079285
  0
VERTEX
  8
0
 62
7
  6
CONTINUOUS
 10
582.9900842742
 20
156.8070486542
  0
VERTEX
  8
0
 62
7
  6
CONTINUOUS
 10
583.1551796813
 20
156.407846219
  0
VERTEX
  8
0
 62
7
  6
CONTINUOUS
 10
583.3068630041
 20
156.0124138276
  0
VERTEX
  8
0
 62
7
  6
CONTINUOUS
 10
583.4444288166
 20
155.6223437408
  0
VERTEX
  8
0
 62
7
  6
CONTINUOUS
 10
583.5679819798
 20
155.2372433396
  0
VERTEX
  8
0
 62
7
  6
CONTINUOUS
 10
583.6776326708
 20
154.8571868721
  0
VERTEX
  8
0
 62
7
  6
CONTINUOUS
 10
583.7734016369
 20
154.4823659975
  0
VERTEX
  8
0
 62
7
  6
CONTINUOUS
 10
583.8554157253
 20
154.1133663524
  0
VERTEX
  8
0
 62
7
  6
CONTINUOUS
 10
583.9240230068
 20
153.7490802535
  0
VERTEX
  8
0
 62
7
  6
CONTINUOUS
 10
583.9797179759
 20
153.3888256188
  0
VERTEX
  8
0
 62
7
  6
CONTINUOUS
 10
584.0226297239
 20
153.0319112798
  0
VERTEX
  8
0
 62
7
  6
CONTINUOUS
 10
584.0531423169
 20
152.6776466438
  0
VERTEX
  8
0
 62
7
  6
CONTINUOUS
 10
584.0713030729
 20
152.3253479004
  0
VERTEX
  8
0
 62
7
  6
CONTINUOUS
 10
584.0774196023
 20
151.9746519429
  0
VERTEX
  8
0
 62
7
  6
CONTINUOUS
 10
584.0713448365
 20
151.6239060678
  0
VERTEX
  8
0
 62
7
  6
CONTINUOUS
 10
584.0532123418
 20
151.2714385206
  0
VERTEX
  8
0
 62
7
  6
CONTINUOUS
 10
584.0227138622
 20
150.916943348
  0
VERTEX
  8
0
 62
7
  6
CONTINUOUS
 10
583.9797896284
 20
150.5597603484
  0
VERTEX
  8
0
 62
7
  6
CONTINUOUS
 10
583.9240782003
 20
150.1992805129
  0
VERTEX
  8
0
 62
7
  6
CONTINUOUS
 10
583.8554715784
 20
149.83493417
  0
VERTEX
  8
0
 62
7
  6
CONTINUOUS
 10
583.7734661765
 20
149.4659431056
  0
VERTEX
  8
0
 62
7
  6
CONTINUOUS
 10
583.6777159851
 20
149.0911522709
  0
VERTEX
  8
0
 62
7
  6
CONTINUOUS
 10
583.5680816219
 20
148.7111224985
  0
VERTEX
  8
0
 62
7
  6
CONTINUOUS
 10
583.4445289767
 20
148.3259941746
  0
VERTEX
  8
0
 62
7
  6
CONTINUOUS
 10
583.3069545103
 20
147.9358735897
  0
VERTEX
  8
0
 62
7
  6
CONTINUOUS
 10
583.1552534301
 20
147.5403792038
  0
VERTEX
  8
0
 62
7
  6
CONTINUOUS
 10
582.9901376665
 20
147.1411148944
  0
VERTEX
  8
0
 62
7
  6
CONTINUOUS
 10
582.8115895217
 20
146.7380227156
  0
VERTEX
  8
0
 62
7
  6
CONTINUOUS
 10
582.6224708767
 20
146.3357065968
  0
VERTEX
  8
0
 62
7
  6
CONTINUOUS
 10
582.4247640838
 20
145.9378886057
  0
VERTEX
  8
0
 62
7
  6
CONTINUOUS
 10
582.2211575689
 20
145.5471563818
  0
VERTEX
  8
0
 62
7
  6
CONTINUOUS
 10
582.0141889951
 20
145.1669672147
  0
VERTEX
  8
0
 62
7
  6
CONTINUOUS
 10
581.8058682669
 20
144.7984342221
  0
VERTEX
  8
0
 62
7
  6
CONTINUOUS
 10
581.5980737272
 20
144.4432382123
  0
VERTEX
  8
0
 62
7
  6
CONTINUOUS
 10
581.3932009647
 20
144.1031334037
  0
VERTEX
  8
0
 62
7
  6
CONTINUOUS
 10
581.1933760552
 20
143.7802460698
  0
VERTEX
  8
0
 62
7
  6
CONTINUOUS
 10
581.0001919617
 20
143.4751408539
  0
VERTEX
  8
0
 62
7
  6
CONTINUOUS
 10
580.8153694043
 20
143.1892523532
  0
VERTEX
  8
0
 62
7
  6
CONTINUOUS
 10
580.6395092262
 20
142.9220969803
  0
VERTEX
  8
0
 62
7
  6
CONTINUOUS
 10
580.4733866685
 20
142.6737412148
  0
VERTEX
  8
0
 62
7
  6
CONTINUOUS
 10
580.3175321519
 20
142.4439694525
  0
VERTEX
  8
0
 62
7
  6
CONTINUOUS
 10
580.1725285829
 20
142.232808269
  0
VERTEX
  8
0
 62
7
  6
CONTINUOUS
 10
580.0383720877
 20
142.039597603
  0
SEQEND
  0
LINE
  8
0
 62
7
  6
CONTINUOUS
 10
579.275392042
 20
406.9740194371
 11
579.275392042
 21
356.9740194371
  0
LINE
  8
0
 62
7
  6
CONTINUOUS
 10
579.275392042
 20
334.9740194371
 11
579.275392042
 21
259.9740194371
  0
LINE
  8
0
 62
7
  6
CONTINUOUS
 10
579.275392042
 20
237.9740194371
 11
579.275392042
 21
162.9740194371
  0
LINE
  8
0
 62
7
  6
CONTINUOUS
 10
579.275392042
 20
140.9740194371
 11
579.275392042
 21
65.9740194371
  0
LINE
  8
0
 62
7
  6
CONTINUOUS
 10
579.275392042
 20
43.9740194371
 11
579.275392042
 21
-31.0259805629
  0
LINE
  8
0
 62
7
  6
CONTINUOUS
 10
579.275392042
 20
-53.0259805629
 11
579.275392042
 21
-103.0259805629
  0
LINE
  8
0
 62
7
  6
CONTINUOUS
 10
580.0383726245
 20
45.0395983723
 11
579.8029622093
 21
44.7050747367
  0
LINE
  8
0
 62
7
  6
CONTINUOUS
 10
579.8029622093
 20
44.7050747367
 11
579.6116615238
 21
44.4371796495
  0
LINE
  8
0
 62
7
  6
CONTINUOUS
 10
579.6116615238
 20
44.4371796495
 11
579.4060274614
 21
44.152801232
  0
LINE
  8
0
 62
7
  6
CONTINUOUS
 10
579.4060274614
 20
44.152801232
 11
579.2805903999
 21
43.9810588043
  0
LINE
  8
0
 62
7
  6
CONTINUOUS
 10
579.2805903999
 20
43.9810588043
 11
579.275392042
 21
43.9740194371
  0
LINE
  8
0
 62
7
  6
CONTINUOUS
 10
579.275392042
 20
259.9740194371
 11
579.2805907879
 21
259.966980463
  0
LINE
  8
0
 62
7
  6
CONTINUOUS
 10
579.2805907879
 20
259.966980463
 11
579.4637892142
 21
259.7156942752
  0
LINE
  8
0
 62
7
  6
CONTINUOUS
 10
579.4637892142
 20
259.7156942752
 11
579.6117204594
 21
259.5107772061
  0
LINE
  8
0
 62
7
  6
CONTINUOUS
 10
579.6117204594
 20
259.5107772061
 11
579.8030529158
 21
259.2428363008
  0
POLYLINE
  8
0
 62
7
  6
CONTINUOUS
 66
1
 70
0
  0
VERTEX
  8
0
 62
7
  6
CONTINUOUS
 10
579.8030529158
 20
259.2428363008
  0
VERTEX
  8
0
 62
7
  6
CONTINUOUS
 10
580.0384618515
 20
258.9083126302
  0
VERTEX
  8
0
 62
7
  6
CONTINUOUS
 10
580.1726209275
 20
258.7150966175
  0
VERTEX
  8
0
 62
7
  6
CONTINUOUS
 10
580.3176280273
 20
258.5039290007
  0
VERTEX
  8
0
 62
7
  6
CONTINUOUS
 10
580.4734854305
 20
258.2741507669
  0
VERTEX
  8
0
 62
7
  6
CONTINUOUS
 10
580.6396083999
 20
258.0257924973
  0
VERTEX
  8
0
 62
7
  6
CONTINUOUS
 10
580.8154624998
 20
257.7586440783
  0
VERTEX
  8
0
 62
7
  6
CONTINUOUS
 10
581.0002748296
 20
257.4727685804
  0
VERTEX
  8
0
 62
7
  6
CONTINUOUS
 10
581.1934397249
 20
257.1676936718
  0
VERTEX
  8
0
 62
7
  6
CONTINUOUS
 10
581.3932559681
 20
256.8448154466
  0
VERTEX
  8
0
 62
7
  6
CONTINUOUS
 10
581.5981694795
 20
256.5046341333
  0
VERTEX
  8
0
 62
7
  6
CONTINUOUS
 10
581.8060061744
 20
256.1493649977
  0
VERTEX
  8
0
 62
7
  6
CONTINUOUS
 10
582.0143170061
 20
255.7808423357
  0
VERTEX
  8
0
 62
7
  6
CONTINUOUS
 10
582.2212499155
 20
255.4007092853
  0
VERTEX
  8
0
 62
7
  6
CONTINUOUS
 10
582.4247994887
 20
255.0100849373
  0
VERTEX
  8
0
 62
7
  6
CONTINUOUS
 10
582.6224498526
 20
254.6123757285
  0
VERTEX
  8
0
 62
7
  6
CONTINUOUS
 10
582.811548703
 20
254.2101024543
  0
VERTEX
  8
0
 62
7
  6
CONTINUOUS
 10
582.9900874966
 20
253.8070411296
  0
VERTEX
  8
0
 62
7
  6
CONTINUOUS
 10
583.1551838672
 20
253.407835237
  0
VERTEX
  8
0
 62
7
  6
CONTINUOUS
 10
583.3068669282
 20
253.0124031695
  0
VERTEX
  8
0
 62
7
  6
CONTINUOUS
 10
583.4444287524
 20
252.6223445733
  0
VERTEX
  8
0
 62
7
  6
CONTINUOUS
 10
583.5679771549
 20
252.2372591712
  0
VERTEX
  8
0
 62
7
  6
CONTINUOUS
 10
583.6776239519
 20
251.8572211235
  0
VERTEX
  8
0
 62
7
  6
CONTINUOUS
 10
583.7733918999
 20
251.4824067645
  0
VERTEX
  8
0
 62
7
  6
CONTINUOUS
 10
583.8554115971
 20
251.1133883173
  0
VERTEX
  8
0
 62
7
  6
CONTINUOUS
 10
583.9240278044
 20
250.7490522755
  0
VERTEX
  8
0
 62
7
  6
CONTINUOUS
 10
583.9797348184
 20
250.3886968093
  0
VERTEX
  8
0
 62
7
  6
CONTINUOUS
 10
584.0226557398
 20
250.0316591118
  0
VERTEX
  8
0
 62
7
  6
CONTINUOUS
 10
584.0531674512
 20
249.6772562221
  0
VERTEX
  8
0
 62
7
  6
CONTINUOUS
 10
584.0713203145
 20
249.3248467723
  0
VERTEX
  8
0
 62
7
  6
CONTINUOUS
 10
584.0774195763
 20
248.9741178291
  0
VERTEX
  8
0
 62
7
  6
CONTINUOUS
 10
584.0713274989
 20
248.6234011276
  0
VERTEX
  8
0
 62
7
  6
CONTINUOUS
 10
584.0531868982
 20
248.271043152
  0
VERTEX
  8
0
 62
7
  6
CONTINUOUS
 10
584.0226874001
 20
247.9166867208
  0
VERTEX
  8
0
 62
7
  6
CONTINUOUS
 10
583.9797725197
 20
247.5596293229
  0
VERTEX
  8
0
 62
7
  6
CONTINUOUS
 10
583.9240735572
 20
247.1992534321
  0
VERTEX
  8
0
 62
7
  6
CONTINUOUS
 10
583.8554766169
 20
246.8349604027
  0
VERTEX
  8
0
 62
7
  6
CONTINUOUS
 10
583.7734776342
 20
246.4659910825
  0
VERTEX
  8
0
 62
7
  6
CONTINUOUS
 10
583.6777270339
 20
246.0911951316
  0
VERTEX
  8
0
 62
7
  6
CONTINUOUS
 10
583.5680892309
 20
245.7111474677
  0
VERTEX
  8
0
 62
7
  6
CONTINUOUS
 10
583.4445320476
 20
245.3260039834
  0
VERTEX
  8
0
 62
7
  6
CONTINUOUS
 10
583.3069537098
 20
244.9358714154
  0
VERTEX
  8
0
 62
7
  6
CONTINUOUS
 10
583.155252478
 20
244.5403763373
  0
VERTEX
  8
0
 62
7
  6
CONTINUOUS
 10
582.9901377678
 20
244.1411151309
  0
VERTEX
  8
0
 62
7
  6
CONTINUOUS
 10
582.8115904782
 20
243.7380247382
  0
VERTEX
  8
0
 62
7
  6
CONTINUOUS
 10
582.6224725488
 20
243.3357100526
  0
VERTEX
  8
0
 62
7
  6
CONTINUOUS
 10
582.4247658238
 20
242.9378920734
  0
VERTEX
  8
0
 62
7
  6
CONTINUOUS
 10
582.2211591915
 20
242.5471594251
  0
VERTEX
  8
0
 62
7
  6
CONTINUOUS
 10
582.0141906124
 20
242.1669701237
  0
VERTEX
  8
0
 62
7
  6
CONTINUOUS
 10
581.8058698625
 20
241.7984369949
  0
VERTEX
  8
0
 62
7
  6
CONTINUOUS
 10
581.5980752557
 20
241.4432407858
  0
VERTEX
  8
0
 62
7
  6
CONTINUOUS
 10
581.3932023976
 20
241.1031357489
  0
VERTEX
  8
0
 62
7
  6
CONTINUOUS
 10
581.1933773651
 20
240.7802481629
  0
VERTEX
  8
0
 62
7
  6
CONTINUOUS
 10
581.0001931406
 20
240.4751426954
  0
VERTEX
  8
0
 62
7
  6
CONTINUOUS
 10
580.8153704613
 20
240.1892539727
  0
VERTEX
  8
0
 62
7
  6
CONTINUOUS
 10
580.6395101665
 20
239.9220983968
  0
VERTEX
  8
0
 62
7
  6
CONTINUOUS
 10
580.4733874994
 20
239.6737424477
  0
VERTEX
  8
0
 62
7
  6
CONTINUOUS
 10
580.3175328793
 20
239.4439705178
  0
VERTEX
  8
0
 62
7
  6
CONTINUOUS
 10
580.1725292121
 20
239.2328091798
  0
VERTEX
  8
0
 62
7
  6
CONTINUOUS
 10
580.0383726245
 20
239.0395983723
  0
SEQEND
  0
LINE
  8
0
 62
7
  6
CONTINUOUS
 10
609.275392042
 20
406.9740194371
 11
609.275392042
 21
-103.0259805629
  0
LINE
  8
0
 62
7
  6
CONTINUOUS
 10
580.0383726245
 20
-51.9604016277
 11
579.8029622093
 21
-52.2949252633
  0
LINE
  8
0
 62
7
  6
CONTINUOUS
 10
579.8029622093
 20
-52.2949252633
 11
579.6116615238
 21
-52.5628203505
  0
LINE
  8
0
 62
7
  6
CONTINUOUS
 10
579.6116615238
 20
-52.5628203505
 11
579.4060274614
 21
-52.847198768
  0
LINE
  8
0
 62
7
  6
CONTINUOUS
 10
579.4060274614
 20
-52.847198768
 11
579.2805903999
 21
-53.0189411957
  0
LINE
  8
0
 62
7
  6
CONTINUOUS
 10
579.2805903999
 20
-53.0189411957
 11
579.275392042
 21
-53.0259805629
  0
LINE
  8
0
 62
7
  6
CONTINUOUS
 10
579.275392042
 20
356.9740194371
 11
579.2805907879
 21
356.966980463
  0
LINE
  8
0
 62
7
  6
CONTINUOUS
 10
579.2805907879
 20
356.966980463
 11
579.4637892142
 21
356.7156942752
  0
LINE
  8
0
 62
7
  6
CONTINUOUS
 10
579.4637892142
 20
356.7156942752
 11
579.6117204594
 21
356.5107772061
  0
LINE
  8
0
 62
7
  6
CONTINUOUS
 10
579.6117204594
 20
356.5107772061
 11
579.8030529158
 21
356.2428363008
  0
POLYLINE
  8
0
 62
7
  6
CONTINUOUS
 66
1
 70
0
  0
VERTEX
  8
0
 62
7
  6
CONTINUOUS
 10
579.8030529158
 20
356.2428363008
  0
VERTEX
  8
0
 62
7
  6
CONTINUOUS
 10
580.0384618515
 20
355.9083126302
  0
VERTEX
  8
0
 62
7
  6
CONTINUOUS
 10
580.1726209275
 20
355.7150966175
  0
VERTEX
  8
0
 62
7
  6
CONTINUOUS
 10
580.3176280273
 20
355.5039290007
  0
VERTEX
  8
0
 62
7
  6
CONTINUOUS
 10
580.4734854305
 20
355.2741507669
  0
VERTEX
  8
0
 62
7
  6
CONTINUOUS
 10
580.6396083999
 20
355.0257924973
  0
VERTEX
  8
0
 62
7
  6
CONTINUOUS
 10
580.8154624998
 20
354.7586440783
  0
VERTEX
  8
0
 62
7
  6
CONTINUOUS
 10
581.0002748296
 20
354.4727685804
  0
VERTEX
  8
0
 62
7
  6
CONTINUOUS
 10
581.1934397249
 20
354.1676936718
  0
VERTEX
  8
0
 62
7
  6
CONTINUOUS
 10
581.3932559681
 20
353.8448154466
  0
VERTEX
  8
0
 62
7
  6
CONTINUOUS
 10
581.5981694795
 20
353.5046341333
  0
VERTEX
  8
0
 62
7
  6
CONTINUOUS
 10
581.8060061744
 20
353.1493649977
  0
VERTEX
  8
0
 62
7
  6
CONTINUOUS
 10
582.0143170061
 20
352.7808423357
  0
VERTEX
  8
0
 62
7
  6
CONTINUOUS
 10
582.2212499155
 20
352.4007092853
  0
VERTEX
  8
0
 62
7
  6
CONTINUOUS
 10
582.4247994887
 20
352.0100849373
  0
VERTEX
  8
0
 62
7
  6
CONTINUOUS
 10
582.6224498526
 20
351.6123757285
  0
VERTEX
  8
0
 62
7
  6
CONTINUOUS
 10
582.811548703
 20
351.2101024543
  0
VERTEX
  8
0
 62
7
  6
CONTINUOUS
 10
582.9900874966
 20
350.8070411296
  0
VERTEX
  8
0
 62
7
  6
CONTINUOUS
 10
583.1551838672
 20
350.407835237
  0
VERTEX
  8
0
 62
7
  6
CONTINUOUS
 10
583.3068669282
 20
350.0124031695
  0
VERTEX
  8
0
 62
7
  6
CONTINUOUS
 10
583.4444287524
 20
349.6223445733
  0
VERTEX
  8
0
 62
7
  6
CONTINUOUS
 10
583.5679771549
 20
349.2372591712
  0
VERTEX
  8
0
 62
7
  6
CONTINUOUS
 10
583.6776239519
 20
348.8572211235
  0
VERTEX
  8
0
 62
7
  6
CONTINUOUS
 10
583.7733918999
 20
348.4824067645
  0
VERTEX
  8
0
 62
7
  6
CONTINUOUS
 10
583.8554115971
 20
348.1133883173
  0
VERTEX
  8
0
 62
7
  6
CONTINUOUS
 10
583.9240278044
 20
347.7490522755
  0
VERTEX
  8
0
 62
7
  6
CONTINUOUS
 10
583.9797348184
 20
347.3886968093
  0
VERTEX
  8
0
 62
7
  6
CONTINUOUS
 10
584.0226557398
 20
347.0316591118
  0
VERTEX
  8
0
 62
7
  6
CONTINUOUS
 10
584.0531674512
 20
346.6772562221
  0
VERTEX
  8
0
 62
7
  6
CONTINUOUS
 10
584.0713203145
 20
346.3248467723
  0
VERTEX
  8
0
 62
7
  6
CONTINUOUS
 10
584.0774195763
 20
345.9741178291
  0
VERTEX
  8
0
 62
7
  6
CONTINUOUS
 10
584.0713274989
 20
345.6234011276
  0
VERTEX
  8
0
 62
7
  6
CONTINUOUS
 10
584.0531868982
 20
345.271043152
  0
VERTEX
  8
0
 62
7
  6
CONTINUOUS
 10
584.0226874001
 20
344.9166867208
  0
VERTEX
  8
0
 62
7
  6
CONTINUOUS
 10
583.9797725197
 20
344.5596293229
  0
VERTEX
  8
0
 62
7
  6
CONTINUOUS
 10
583.9240735572
 20
344.1992534321
  0
VERTEX
  8
0
 62
7
  6
CONTINUOUS
 10
583.8554766169
 20
343.8349604027
  0
VERTEX
  8
0
 62
7
  6
CONTINUOUS
 10
583.7734776342
 20
343.4659910825
  0
VERTEX
  8
0
 62
7
  6
CONTINUOUS
 10
583.6777270339
 20
343.0911951316
  0
VERTEX
  8
0
 62
7
  6
CONTINUOUS
 10
583.5680892309
 20
342.7111474677
  0
VERTEX
  8
0
 62
7
  6
CONTINUOUS
 10
583.4445320476
 20
342.3260039834
  0
VERTEX
  8
0
 62
7
  6
CONTINUOUS
 10
583.3069537098
 20
341.9358714154
  0
VERTEX
  8
0
 62
7
  6
CONTINUOUS
 10
583.155252478
 20
341.5403763373
  0
VERTEX
  8
0
 62
7
  6
CONTINUOUS
 10
582.9901377678
 20
341.1411151309
  0
VERTEX
  8
0
 62
7
  6
CONTINUOUS
 10
582.8115904782
 20
340.7380247382
  0
VERTEX
  8
0
 62
7
  6
CONTINUOUS
 10
582.6224725488
 20
340.3357100526
  0
VERTEX
  8
0
 62
7
  6
CONTINUOUS
 10
582.4247658238
 20
339.9378920734
  0
VERTEX
  8
0
 62
7
  6
CONTINUOUS
 10
582.2211591915
 20
339.5471594251
  0
VERTEX
  8
0
 62
7
  6
CONTINUOUS
 10
582.0141906124
 20
339.1669701237
  0
VERTEX
  8
0
 62
7
  6
CONTINUOUS
 10
581.8058698625
 20
338.7984369949
  0
VERTEX
  8
0
 62
7
  6
CONTINUOUS
 10
581.5980752557
 20
338.4432407858
  0
VERTEX
  8
0
 62
7
  6
CONTINUOUS
 10
581.3932023976
 20
338.1031357489
  0
VERTEX
  8
0
 62
7
  6
CONTINUOUS
 10
581.1933773651
 20
337.7802481629
  0
VERTEX
  8
0
 62
7
  6
CONTINUOUS
 10
581.0001931406
 20
337.4751426954
  0
VERTEX
  8
0
 62
7
  6
CONTINUOUS
 10
580.8153704613
 20
337.1892539727
  0
VERTEX
  8
0
 62
7
  6
CONTINUOUS
 10
580.6395101665
 20
336.9220983968
  0
VERTEX
  8
0
 62
7
  6
CONTINUOUS
 10
580.4733874994
 20
336.6737424477
  0
VERTEX
  8
0
 62
7
  6
CONTINUOUS
 10
580.3175328793
 20
336.4439705178
  0
VERTEX
  8
0
 62
7
  6
CONTINUOUS
 10
580.1725292121
 20
336.2328091798
  0
VERTEX
  8
0
 62
7
  6
CONTINUOUS
 10
580.0383726245
 20
336.0395983723
  0
SEQEND
  0
ENDSEC
  0
EOF
