999
DXF file: K:\Client\125_Heirloom\001\00\Final_Data\Drawings\LADDER TOWEL WARMERS\wg510en_SIDE.dxf
999
Pro/ENGINEER 2017110 by Parametric Technology Corporation
  0
SECTION
  2
HEADER
  9
$EXTMAX
 10
420.0
 20
297.0
 30
0.0
  9
$EXTMIN
 10
0.0
 20
0.0
 30
0.0
  9
$LIMMIN
 10
0.0
 20
0.0
  9
$LIMMAX
 10
420.0
 20
297.0
  9
$VIEWCTR
 10
210.0
 20
148.5
  9
$VIEWSIZE
 40
297.0
  9
$CLAYER
  8
0
  9
$LTSCALE
 40
23.1
  9
$CELTYPE
  6
BYLAYER
  9
$DIMSCALE
 40
1.0
  9
$DIMASZ
 40
3.0
  9
$DIMEXO
 40
1.0
  9
$DIMDLI
 40
15.96
  9
$DIMEXE
 40
1.0
  9
$DIMCEN
 40
3.78
  9
$DIMLFAC
 40
1.0
  9
$DIMBLK
  1
_FILLED
  9
$DIMALT
 70
0
  9
$DIMALTF
 40
0.0393700787
  9
$DIMTXT
 40
3.0
  9
$AUNITS
 70
0
  9
$PDMODE
 70
3
  9
$PDSIZE
 40
5.0
  9
$TILEMODE
 70
1
  0
ENDSEC
  0
SECTION
  2
TABLES
  0
TABLE
  2
LTYPE
 70
6
  0
LTYPE
  2
BYBLOCK
 70
0
  3

 72
65
 73
0
 40
0.0
  0
LTYPE
  2
BYLAYER
 70
0
  3

 72
65
 73
0
 40
0.0
  0
LTYPE
  2
CONTINUOUS
 70
64
  3
Solid line
 72
65
 73
0
 40
0.0
  0
LTYPE
  2
CENTER
 70
64
  3
____ _ ____ _ ____ _ ____ _ ____ _ ____ _ ____
 72
65
 73
4
 40
0.6
 49
0.375
 49
-0.075
 49
0.075
 49
-0.075
  0
LTYPE
  2
HIDDEN
 70
64
  3
- - - - - - - - - - - - - - - - - - - -
 72
65
 73
2
 40
0.2
 49
0.1
 49
-0.1
  0
LTYPE
  2
PHANTOM
 70
64
  3
_____ _ _ _____ _ _ _____ _ _ _____
 72
65
 73
6
 40
0.8
 49
0.45
 49
-0.05
 49
0.1
 49
-0.05
 49
0.1
 49
-0.05
  0
LTYPE
  2
DOT
 70
64
  3
. . . . . . . . . . . . . . . . . . . .
 72
65
 73
2
 40
0.2
 49
0.1
 49
-0.1
  0
LTYPE
  2
DASHED
 70
64
  3
- - - - - - - - - - - - - - - - - - - -
 72
65
 73
2
 40
0.2
 49
0.1
 49
-0.1
  0
ENDTAB
  0
TABLE
  2
LAYER
 70
36
  0
LAYER
  2
0
 70
0
 62
7
  6
CONTINUOUS
  0
LAYER
  2
DEFAULT_1
 70
0
 62
7
  6
CENTER
  0
LAYER
  2
DEFAULT_2
 70
0
 62
8
  6
HIDDEN
  0
LAYER
  2
DEFAULT_3
 70
0
 62
7
  6
PHANTOM
  0
LAYER
  2
0000_BOM
 70
0
 62
7
  6
CONTINUOUS
  0
LAYER
  2
0000_REV_TABLE
 70
0
 62
7
  6
CONTINUOUS
  0
LAYER
  2
0000_STEVENS_NOTE
 70
0
 62
7
  6
CONTINUOUS
  0
LAYER
  2
01_DATUM_PLANES
 70
0
 62
7
  6
CONTINUOUS
  0
LAYER
  2
01_DEF_PLANES
 70
0
 62
7
  6
CONTINUOUS
  0
LAYER
  2
02_DATUM_COS
 70
0
 62
7
  6
CONTINUOUS
  0
LAYER
  2
99_SOLID
 70
0
 62
7
  6
CONTINUOUS
  0
LAYER
  2
CAD-MASTER_ZINC-PL
 70
0
 62
7
  6
CONTINUOUS
  0
LAYER
  2
CURVE
 70
0
 62
7
  6
CONTINUOUS
  0
LAYER
  2
SKEL
 70
0
 62
7
  6
CONTINUOUS
  0
LAYER
  2
SKETCH
 70
0
 62
7
  6
CONTINUOUS
  0
LAYER
  2
SURFACE
 70
0
 62
7
  6
CONTINUOUS
  0
ENDTAB
  0
TABLE
  2
STYLE
 70
1
  0
STYLE
  2
STANDARD
 70
0
 40
0.0
 41
0.75
 50
0.0
 71
0
 42
0.2
  3
txt
  4

  0
STYLE
  2
TEXTSTYLE_1
 70
0
 40
0.0
 41
0.8
 50
0.0
 71
0
 42
0.2
  3
gdt
  4

  0
ENDTAB
  0
ENDSEC
  0
SECTION
  2
BLOCKS
  0
ENDSEC
  0
SECTION
  2
ENTITIES
  0
LINE
  8
0
 62
7
  6
CONTINUOUS
 10
117.2012592545
 20
-102.4191740561
 11
147.201229665
 21
-102.4191740561
  0
LINE
  8
0
 62
7
  6
CONTINUOUS
 10
147.2012444597
 20
-14.9191740561
 11
239.2012444597
 21
-14.9191740561
  0
LINE
  8
0
 62
7
  6
CONTINUOUS
 10
147.2012444597
 20
10.0808259439
 11
239.2012444597
 21
10.0808259439
  0
LINE
  8
0
 62
7
  6
CONTINUOUS
 10
145.5600505174
 20
318.0549702663
 11
145.9564834266
 21
318.5560981061
  0
LINE
  8
0
 62
7
  6
CONTINUOUS
 10
145.9564834266
 20
318.5560981061
 11
146.2953478512
 21
318.9779198897
  0
LINE
  8
0
 62
7
  6
CONTINUOUS
 10
146.2953478512
 20
318.9779198897
 11
146.5770193838
 21
319.3244584597
  0
LINE
  8
0
 62
7
  6
CONTINUOUS
 10
146.5770193838
 20
319.3244584597
 11
146.8976330753
 21
319.7148611634
  0
LINE
  8
0
 62
7
  6
CONTINUOUS
 10
146.8976330753
 20
319.7148611634
 11
147.2012444597
 21
320.0808259439
  0
LINE
  8
0
 62
7
  6
CONTINUOUS
 10
147.2012444597
 20
-14.9191740561
 11
146.8977760487
 21
-14.5533802957
  0
LINE
  8
0
 62
7
  6
CONTINUOUS
 10
146.8977760487
 20
-14.5533802957
 11
146.5771825279
 21
-14.1630062816
  0
LINE
  8
0
 62
7
  6
CONTINUOUS
 10
146.5771825279
 20
-14.1630062816
 11
146.2955875763
 21
-13.8165644543
  0
LINE
  8
0
 62
7
  6
CONTINUOUS
 10
146.2955875763
 20
-13.8165644543
 11
145.956833566
 21
-13.3948850427
  0
POLYLINE
  8
0
 62
7
  6
CONTINUOUS
 66
1
 70
0
  0
VERTEX
  8
0
 62
7
  6
CONTINUOUS
 10
145.956833566
 20
-13.3948850427
  0
VERTEX
  8
0
 62
7
  6
CONTINUOUS
 10
145.5605125391
 20
-12.8939076381
  0
VERTEX
  8
0
 62
7
  6
CONTINUOUS
 10
145.3411448666
 20
-12.612674002
  0
VERTEX
  8
0
 62
7
  6
CONTINUOUS
 10
145.1080029395
 20
-12.3103021239
  0
VERTEX
  8
0
 62
7
  6
CONTINUOUS
 10
144.8611489897
 20
-11.9859211268
  0
VERTEX
  8
0
 62
7
  6
CONTINUOUS
 10
144.6019567735
 20
-11.6402187848
  0
VERTEX
  8
0
 62
7
  6
CONTINUOUS
 10
144.3314857776
 20
-11.2730823166
  0
VERTEX
  8
0
 62
7
  6
CONTINUOUS
 10
144.0518926041
 20
-10.8860425114
  0
VERTEX
  8
0
 62
7
  6
CONTINUOUS
 10
143.7652221589
 20
-10.4798346228
  0
VERTEX
  8
0
 62
7
  6
CONTINUOUS
 10
143.4743229488
 20
-10.0567324761
  0
VERTEX
  8
0
 62
7
  6
CONTINUOUS
 10
143.1817864115
 20
-9.6177256251
  0
VERTEX
  8
0
 62
7
  6
CONTINUOUS
 10
142.8918282724
 20
-9.1674021387
  0
VERTEX
  8
0
 62
7
  6
CONTINUOUS
 10
142.6087292706
 20
-8.7089797835
  0
VERTEX
  8
0
 62
7
  6
CONTINUOUS
 10
142.336335544
 20
-8.2475590199
  0
VERTEX
  8
0
 62
7
  6
CONTINUOUS
 10
142.079219599
 20
-7.7875651332
  0
VERTEX
  8
0
 62
7
  6
CONTINUOUS
 10
141.8401182087
 20
-7.3342414155
  0
VERTEX
  8
0
 62
7
  6
CONTINUOUS
 10
141.6236032677
 20
-6.8947543804
  0
VERTEX
  8
0
 62
7
  6
CONTINUOUS
 10
141.4284350022
 20
-6.4677596494
  0
VERTEX
  8
0
 62
7
  6
CONTINUOUS
 10
141.2547734849
 20
-6.0547535217
  0
VERTEX
  8
0
 62
7
  6
CONTINUOUS
 10
141.1016130245
 20
-5.6543804774
  0
VERTEX
  8
0
 62
7
  6
CONTINUOUS
 10
140.9679523247
 20
-5.2664125155
  0
VERTEX
  8
0
 62
7
  6
CONTINUOUS
 10
140.8528257773
 20
-4.888963378
  0
VERTEX
  8
0
 62
7
  6
CONTINUOUS
 10
140.7548825401
 20
-4.5207031651
  0
VERTEX
  8
0
 62
7
  6
CONTINUOUS
 10
140.6735258355
 20
-4.1597348017
  0
VERTEX
  8
0
 62
7
  6
CONTINUOUS
 10
140.607589617
 20
-3.8038104072
  0
VERTEX
  8
0
 62
7
  6
CONTINUOUS
 10
140.5569657146
 20
-3.4526524977
  0
VERTEX
  8
0
 62
7
  6
CONTINUOUS
 10
140.521123083
 20
-3.1056365151
  0
VERTEX
  8
0
 62
7
  6
CONTINUOUS
 10
140.499872374
 20
-2.7615558018
  0
VERTEX
  8
0
 62
7
  6
CONTINUOUS
 10
140.4927073754
 20
-2.4197407522
  0
VERTEX
  8
0
 62
7
  6
CONTINUOUS
 10
140.4998244587
 20
-2.0779556518
  0
VERTEX
  8
0
 62
7
  6
CONTINUOUS
 10
140.5210130422
 20
-1.7339974193
  0
VERTEX
  8
0
 62
7
  6
CONTINUOUS
 10
140.5567923085
 20
-1.3870985486
  0
VERTEX
  8
0
 62
7
  6
CONTINUOUS
 10
140.6073557834
 20
-1.035956467
  0
VERTEX
  8
0
 62
7
  6
CONTINUOUS
 10
140.6732465429
 20
-0.6799732921
  0
VERTEX
  8
0
 62
7
  6
CONTINUOUS
 10
140.7545902539
 20
-0.3188451154
  0
VERTEX
  8
0
 62
7
  6
CONTINUOUS
 10
140.852539585
 20
0.0496125578
  0
VERTEX
  8
0
 62
7
  6
CONTINUOUS
 10
140.9676880374
 20
0.4272463373
  0
VERTEX
  8
0
 62
7
  6
CONTINUOUS
 10
141.1013736581
 20
0.8153737868
  0
VERTEX
  8
0
 62
7
  6
CONTINUOUS
 10
141.2545490285
 20
1.2158467569
  0
VERTEX
  8
0
 62
7
  6
CONTINUOUS
 10
141.4282145153
 20
1.6289089972
  0
VERTEX
  8
0
 62
7
  6
CONTINUOUS
 10
141.6233780046
 20
2.0559294055
  0
VERTEX
  8
0
 62
7
  6
CONTINUOUS
 10
141.8398587119
 20
2.4953843882
  0
VERTEX
  8
0
 62
7
  6
CONTINUOUS
 10
142.0788635527
 20
2.9485676556
  0
VERTEX
  8
0
 62
7
  6
CONTINUOUS
 10
142.335867049
 20
3.4083961947
  0
VERTEX
  8
0
 62
7
  6
CONTINUOUS
 10
142.6081548673
 20
3.8696849441
  0
VERTEX
  8
0
 62
7
  6
CONTINUOUS
 10
142.8911842772
 20
4.328033759
  0
VERTEX
  8
0
 62
7
  6
CONTINUOUS
 10
143.1811603315
 20
4.7784176636
  0
VERTEX
  8
0
 62
7
  6
CONTINUOUS
 10
143.4737414823
 20
5.2175260901
  0
VERTEX
  8
0
 62
7
  6
CONTINUOUS
 10
143.7646768784
 20
5.6407026038
  0
VERTEX
  8
0
 62
7
  6
CONTINUOUS
 10
144.0513677909
 20
6.0469598292
  0
VERTEX
  8
0
 62
7
  6
CONTINUOUS
 10
144.330939489
 20
6.4339880107
  0
VERTEX
  8
0
 62
7
  6
CONTINUOUS
 10
144.6013821241
 20
6.8010978539
  0
VERTEX
  8
0
 62
7
  6
CONTINUOUS
 10
144.860554602
 20
7.1467884105
  0
VERTEX
  8
0
 62
7
  6
CONTINUOUS
 10
145.1074135278
 20
7.4711848866
  0
VERTEX
  8
0
 62
7
  6
CONTINUOUS
 10
145.3406126411
 20
7.773637526
  0
VERTEX
  8
0
 62
7
  6
CONTINUOUS
 10
145.5600505174
 20
8.0549702663
  0
SEQEND
  0
LINE
  8
0
 62
7
  6
CONTINUOUS
 10
117.2012444597
 20
-102.4191740561
 11
117.2012444597
 21
407.5808259439
  0
LINE
  8
0
 62
7
  6
CONTINUOUS
 10
147.2012444597
 20
-102.4191740561
 11
147.2012444597
 21
-14.9191740561
  0
LINE
  8
0
 62
7
  6
CONTINUOUS
 10
147.2012444597
 20
10.0808259439
 11
147.2012444597
 21
295.0808259439
  0
LINE
  8
0
 62
7
  6
CONTINUOUS
 10
147.2012444597
 20
320.0808259439
 11
147.2012444597
 21
407.5808259439
  0
LINE
  8
0
 62
7
  6
CONTINUOUS
 10
239.2012444597
 20
-14.9191740561
 11
239.2012444597
 21
10.0808259439
  0
LINE
  8
0
 62
7
  6
CONTINUOUS
 10
239.2012444597
 20
295.0808259439
 11
239.2012444597
 21
320.0808259439
  0
LINE
  8
0
 62
7
  6
CONTINUOUS
 10
145.5600505174
 20
8.0549702663
 11
145.9564834266
 21
8.5560981061
  0
LINE
  8
0
 62
7
  6
CONTINUOUS
 10
145.9564834266
 20
8.5560981061
 11
146.2953478512
 21
8.9779198897
  0
LINE
  8
0
 62
7
  6
CONTINUOUS
 10
146.2953478512
 20
8.9779198897
 11
146.5770193838
 21
9.3244584597
  0
LINE
  8
0
 62
7
  6
CONTINUOUS
 10
146.5770193838
 20
9.3244584597
 11
146.8976330753
 21
9.7148611634
  0
LINE
  8
0
 62
7
  6
CONTINUOUS
 10
146.8976330753
 20
9.7148611634
 11
147.2012444597
 21
10.0808259439
  0
LINE
  8
0
 62
7
  6
CONTINUOUS
 10
147.2012444597
 20
295.0808259439
 11
146.8977760487
 21
295.4466197043
  0
LINE
  8
0
 62
7
  6
CONTINUOUS
 10
146.8977760487
 20
295.4466197043
 11
146.5771825279
 21
295.8369937184
  0
LINE
  8
0
 62
7
  6
CONTINUOUS
 10
146.5771825279
 20
295.8369937184
 11
146.2955875763
 21
296.1834355457
  0
LINE
  8
0
 62
7
  6
CONTINUOUS
 10
146.2955875763
 20
296.1834355457
 11
145.956833566
 21
296.6051149573
  0
POLYLINE
  8
0
 62
7
  6
CONTINUOUS
 66
1
 70
0
  0
VERTEX
  8
0
 62
7
  6
CONTINUOUS
 10
145.956833566
 20
296.6051149573
  0
VERTEX
  8
0
 62
7
  6
CONTINUOUS
 10
145.5605125391
 20
297.1060923619
  0
VERTEX
  8
0
 62
7
  6
CONTINUOUS
 10
145.3411448666
 20
297.387325998
  0
VERTEX
  8
0
 62
7
  6
CONTINUOUS
 10
145.1080029395
 20
297.6896978761
  0
VERTEX
  8
0
 62
7
  6
CONTINUOUS
 10
144.8611489897
 20
298.0140788732
  0
VERTEX
  8
0
 62
7
  6
CONTINUOUS
 10
144.6019567735
 20
298.3597812152
  0
VERTEX
  8
0
 62
7
  6
CONTINUOUS
 10
144.3314857776
 20
298.7269176834
  0
VERTEX
  8
0
 62
7
  6
CONTINUOUS
 10
144.0518926041
 20
299.1139574886
  0
VERTEX
  8
0
 62
7
  6
CONTINUOUS
 10
143.7652221589
 20
299.5201653772
  0
VERTEX
  8
0
 62
7
  6
CONTINUOUS
 10
143.4743229488
 20
299.9432675239
  0
VERTEX
  8
0
 62
7
  6
CONTINUOUS
 10
143.1817864115
 20
300.3822743749
  0
VERTEX
  8
0
 62
7
  6
CONTINUOUS
 10
142.8918282724
 20
300.8325978613
  0
VERTEX
  8
0
 62
7
  6
CONTINUOUS
 10
142.6087292706
 20
301.2910202165
  0
VERTEX
  8
0
 62
7
  6
CONTINUOUS
 10
142.336335544
 20
301.7524409801
  0
VERTEX
  8
0
 62
7
  6
CONTINUOUS
 10
142.079219599
 20
302.2124348668
  0
VERTEX
  8
0
 62
7
  6
CONTINUOUS
 10
141.8401182087
 20
302.6657585845
  0
VERTEX
  8
0
 62
7
  6
CONTINUOUS
 10
141.6236032677
 20
303.1052456196
  0
VERTEX
  8
0
 62
7
  6
CONTINUOUS
 10
141.4284350022
 20
303.5322403506
  0
VERTEX
  8
0
 62
7
  6
CONTINUOUS
 10
141.2547734849
 20
303.9452464783
  0
VERTEX
  8
0
 62
7
  6
CONTINUOUS
 10
141.1016130245
 20
304.3456195226
  0
VERTEX
  8
0
 62
7
  6
CONTINUOUS
 10
140.9679523247
 20
304.7335874845
  0
VERTEX
  8
0
 62
7
  6
CONTINUOUS
 10
140.8528257773
 20
305.111036622
  0
VERTEX
  8
0
 62
7
  6
CONTINUOUS
 10
140.7548825401
 20
305.4792968349
  0
VERTEX
  8
0
 62
7
  6
CONTINUOUS
 10
140.6735258355
 20
305.8402651983
  0
VERTEX
  8
0
 62
7
  6
CONTINUOUS
 10
140.607589617
 20
306.1961895928
  0
VERTEX
  8
0
 62
7
  6
CONTINUOUS
 10
140.5569657146
 20
306.5473475023
  0
VERTEX
  8
0
 62
7
  6
CONTINUOUS
 10
140.521123083
 20
306.8943634849
  0
VERTEX
  8
0
 62
7
  6
CONTINUOUS
 10
140.499872374
 20
307.2384441982
  0
VERTEX
  8
0
 62
7
  6
CONTINUOUS
 10
140.4927073754
 20
307.5802592478
  0
VERTEX
  8
0
 62
7
  6
CONTINUOUS
 10
140.4998244587
 20
307.9220443482
  0
VERTEX
  8
0
 62
7
  6
CONTINUOUS
 10
140.5210130422
 20
308.2660025807
  0
VERTEX
  8
0
 62
7
  6
CONTINUOUS
 10
140.5567923085
 20
308.6129014514
  0
VERTEX
  8
0
 62
7
  6
CONTINUOUS
 10
140.6073557834
 20
308.964043533
  0
VERTEX
  8
0
 62
7
  6
CONTINUOUS
 10
140.6732465429
 20
309.3200267079
  0
VERTEX
  8
0
 62
7
  6
CONTINUOUS
 10
140.7545902539
 20
309.6811548846
  0
VERTEX
  8
0
 62
7
  6
CONTINUOUS
 10
140.852539585
 20
310.0496125578
  0
VERTEX
  8
0
 62
7
  6
CONTINUOUS
 10
140.9676880374
 20
310.4272463373
  0
VERTEX
  8
0
 62
7
  6
CONTINUOUS
 10
141.1013736581
 20
310.8153737868
  0
VERTEX
  8
0
 62
7
  6
CONTINUOUS
 10
141.2545490285
 20
311.2158467569
  0
VERTEX
  8
0
 62
7
  6
CONTINUOUS
 10
141.4282145153
 20
311.6289089972
  0
VERTEX
  8
0
 62
7
  6
CONTINUOUS
 10
141.6233780046
 20
312.0559294055
  0
VERTEX
  8
0
 62
7
  6
CONTINUOUS
 10
141.8398587119
 20
312.4953843882
  0
VERTEX
  8
0
 62
7
  6
CONTINUOUS
 10
142.0788635527
 20
312.9485676556
  0
VERTEX
  8
0
 62
7
  6
CONTINUOUS
 10
142.335867049
 20
313.4083961947
  0
VERTEX
  8
0
 62
7
  6
CONTINUOUS
 10
142.6081548673
 20
313.8696849441
  0
VERTEX
  8
0
 62
7
  6
CONTINUOUS
 10
142.8911842772
 20
314.328033759
  0
VERTEX
  8
0
 62
7
  6
CONTINUOUS
 10
143.1811603315
 20
314.7784176636
  0
VERTEX
  8
0
 62
7
  6
CONTINUOUS
 10
143.4737414823
 20
315.2175260901
  0
VERTEX
  8
0
 62
7
  6
CONTINUOUS
 10
143.7646768784
 20
315.6407026038
  0
VERTEX
  8
0
 62
7
  6
CONTINUOUS
 10
144.0513677909
 20
316.0469598292
  0
VERTEX
  8
0
 62
7
  6
CONTINUOUS
 10
144.330939489
 20
316.4339880107
  0
VERTEX
  8
0
 62
7
  6
CONTINUOUS
 10
144.6013821241
 20
316.8010978539
  0
VERTEX
  8
0
 62
7
  6
CONTINUOUS
 10
144.860554602
 20
317.1467884105
  0
VERTEX
  8
0
 62
7
  6
CONTINUOUS
 10
145.1074135278
 20
317.4711848866
  0
VERTEX
  8
0
 62
7
  6
CONTINUOUS
 10
145.3406126411
 20
317.773637526
  0
VERTEX
  8
0
 62
7
  6
CONTINUOUS
 10
145.5600505174
 20
318.0549702663
  0
SEQEND
  0
LINE
  8
0
 62
7
  6
CONTINUOUS
 10
147.2012444597
 20
295.0808259439
 11
239.2012444597
 21
295.0808259439
  0
LINE
  8
0
 62
7
  6
CONTINUOUS
 10
147.2012444597
 20
320.0808259439
 11
239.2012444597
 21
320.0808259439
  0
LINE
  8
0
 62
7
  6
CONTINUOUS
 10
117.2012592545
 20
407.5808259439
 11
147.201229665
 21
407.5808259439
  0
ENDSEC
  0
EOF
